  0
SECTION
  2
HEADER
  9
$ACADVER
  1
AC1009
  9
$INSBASE
 10
7.3950099193999996
 20
60.678039579100002
 30
0.0
  9
$EXTMIN
 10
-67.205597535400003
 20
-1.3575198808
 30
0.0
  9
$EXTMAX
 10
27.04632067742061
 20
67.484944049096441
 30
0.0
  9
$LIMMIN
 10
0.0
 20
0.0
  9
$LIMMAX
 10
11.692913385800001
 20
8.2677165353999982
  9
$ORTHOMODE
 70
     0
  9
$REGENMODE
 70
     1
  9
$FILLMODE
 70
     1
  9
$QTEXTMODE
 70
     0
  9
$MIRRTEXT
 70
     0
  9
$DRAGMODE
 70
     2
  9
$LTSCALE
 40
0.6431102362
  9
$OSMODE
 70
  3071
  9
$ATTMODE
 70
     1
  9
$TEXTSIZE
 40
0.2
  9
$TRACEWID
 40
0.05
  9
$TEXTSTYLE
  7
STANDARD
  9
$CLAYER
  8
0
  9
$CELTYPE
  6
BYLAYER
  9
$CECOLOR
 62
   256
  9
$DIMSCALE
 40
1.0
  9
$DIMASZ
 40
0.1875
  9
$DIMEXO
 40
0.0625
  9
$DIMDLI
 40
0.4443307087
  9
$DIMRND
 40
0.0
  9
$DIMDLE
 40
0.0
  9
$DIMEXE
 40
0.125
  9
$DIMTP
 40
0.01
  9
$DIMTM
 40
0.01
  9
$DIMTXT
 40
0.15625
  9
$DIMCEN
 40
0.1052362205
  9
$DIMTSZ
 40
0.0
  9
$DIMTOL
 70
     1
  9
$DIMLIM
 70
     0
  9
$DIMTIH
 70
     1
  9
$DIMTOH
 70
     1
  9
$DIMSE1
 70
     0
  9
$DIMSE2
 70
     0
  9
$DIMTAD
 70
     0
  9
$DIMZIN
 70
     0
  9
$DIMBLK
  1

  9
$DIMASO
 70
     1
  9
$DIMSHO
 70
     1
  9
$DIMPOST
  1

  9
$DIMAPOST
  1

  9
$DIMALT
 70
     0
  9
$DIMALTD
 70
     2
  9
$DIMALTF
 40
25.399999999999999
  9
$DIMLFAC
 40
1.0
  9
$DIMTOFL
 70
     0
  9
$DIMTVP
 40
0.0
  9
$DIMTIX
 70
     0
  9
$DIMSOXD
 70
     0
  9
$DIMSAH
 70
     0
  9
$DIMBLK1
  1

  9
$DIMBLK2
  1

  9
$DIMSTYLE
  2
STANDARD
  9
$DIMCLRD
 70
     0
  9
$DIMCLRE
 70
     0
  9
$DIMCLRT
 70
     0
  9
$DIMTFAC
 40
1.0
  9
$DIMGAP
 40
0.09
  9
$LUNITS
 70
     2
  9
$LUPREC
 70
     4
  9
$SKETCHINC
 40
0.1
  9
$FILLETRAD
 40
0.0
  9
$AUNITS
 70
     0
  9
$AUPREC
 70
     0
  9
$MENU
  1
.
  9
$ELEVATION
 40
0.0
  9
$PELEVATION
 40
0.0
  9
$THICKNESS
 40
0.0
  9
$LIMCHECK
 70
     0
  9
$BLIPMODE
 70
     0
  9
$CHAMFERA
 40
0.0
  9
$CHAMFERB
 40
0.0
  9
$SKPOLY
 70
     0
  9
$TDCREATE
 40
2457627.4583413769
  9
$TDUPDATE
 40
2457627.5059349299
  9
$TDINDWG
 40
0.0440775694
  9
$TDUSRTIMER
 40
0.0440775694
  9
$USRTIMER
 70
     1
  9
$ANGBASE
 50
0.0
  9
$ANGDIR
 70
     0
  9
$PDMODE
 70
     0
  9
$PDSIZE
 40
0.3125
  9
$PLINEWID
 40
0.0
  9
$COORDS
 70
     1
  9
$SPLFRAME
 70
     0
  9
$SPLINETYPE
 70
     6
  9
$SPLINESEGS
 70
     8
  9
$ATTDIA
 70
     1
  9
$ATTREQ
 70
     1
  9
$HANDLING
 70
     1
  9
$HANDSEED
  5
838
  9
$SURFTAB1
 70
     6
  9
$SURFTAB2
 70
     6
  9
$SURFTYPE
 70
     6
  9
$SURFU
 70
     6
  9
$SURFV
 70
     6
  9
$UCSNAME
  2

  9
$UCSORG
 10
0.0
 20
0.0
 30
0.0
  9
$UCSXDIR
 10
1.0
 20
0.0
 30
0.0
  9
$UCSYDIR
 10
0.0
 20
1.0
 30
0.0
  9
$PUCSNAME
  2

  9
$PUCSORG
 10
0.0
 20
0.0
 30
0.0
  9
$PUCSXDIR
 10
1.0
 20
0.0
 30
0.0
  9
$PUCSYDIR
 10
0.0
 20
1.0
 30
0.0
  9
$USERI1
 70
     0
  9
$USERI2
 70
     0
  9
$USERI3
 70
     0
  9
$USERI4
 70
     0
  9
$USERI5
 70
     0
  9
$USERR1
 40
0.0
  9
$USERR2
 40
0.0
  9
$USERR3
 40
0.0
  9
$USERR4
 40
0.0
  9
$USERR5
 40
0.0
  9
$WORLDVIEW
 70
     1
  9
$SHADEDGE
 70
     3
  9
$SHADEDIF
 70
    70
  9
$TILEMODE
 70
     1
  9
$MAXACTVP
 70
    64
  9
$PLIMCHECK
 70
     0
  9
$PEXTMIN
 10
1.0000000000000000E+020
 20
1.0000000000000000E+020
 30
1.0000000000000000E+020
  9
$PEXTMAX
 10
-1.0000000000000000E+020
 20
-1.0000000000000000E+020
 30
-1.0000000000000000E+020
  9
$PLIMMIN
 10
0.0
 20
0.0
  9
$PLIMMAX
 10
12.0
 20
9.0
  9
$UNITMODE
 70
     0
  9
$VISRETAIN
 70
     1
  9
$PLINEGEN
 70
     0
  9
$PSLTSCALE
 70
     1
  0
ENDSEC
  0
SECTION
  2
TABLES
  0
TABLE
  2
VPORT
 70
     1
  0
VPORT
  2
*ACTIVE
 70
     0
 10
0.0
 20
0.0
 11
1.0
 21
1.0
 12
27.477227886949208
 22
31.025974693727921
 13
0.0
 23
0.0
 14
1.0
 24
1.0
 15
0.0
 25
0.0
 16
-0.0000000000000711
 26
0.0
 36
326.45804773200132
 17
-20.07969856262207
 27
29.66025984287262
 37
0.0
 40
0.0697377372783595
 41
2.1748571428571419
 42
50.0
 43
0.0
 44
0.0
 50
0.0
 51
0.0
 71
     0
 72
   100
 73
     1
 74
     1
 75
     0
 76
     0
 77
     0
 78
     0
  0
ENDTAB
  0
TABLE
  2
LTYPE
 70
     2
  0
LTYPE
  2
CONTINUOUS
 70
     0
  3
Solid line
 72
    65
 73
     0
 40
0.0
  0
ENDTAB
  0
TABLE
  2
LAYER
 70
     2
  0
LAYER
  2
0
 70
     0
 62
     7
  6
CONTINUOUS
  0
LAYER
  2
DEFPOINTS
 70
     0
 62
     7
  6
CONTINUOUS
  0
ENDTAB
  0
TABLE
  2
STYLE
 70
     1
  0
STYLE
  2
STANDARD
 70
     0
 40
0.0
 41
0.8
 50
0.0
 71
     0
 42
0.2
  3
txt
  4

  0
ENDTAB
  0
TABLE
  2
VIEW
 70
     0
  0
ENDTAB
  0
TABLE
  2
UCS
 70
     0
  0
ENDTAB
  0
TABLE
  2
APPID
 70
     5
  0
APPID
  2
ACAD
 70
     0
  0
APPID
  2
ACAD_MLEADERVER
 70
     0
  0
APPID
  2
ACAD_EXEMPT_FROM_CAD_STANDARDS
 70
     0
  0
APPID
  2
ACAD_NAV_VCDISPLAY
 70
     0
  0
APPID
  2
AcDbAttr
 70
     0
  0
ENDTAB
  0
TABLE
  2
DIMSTYLE
 70
     2
  0
DIMSTYLE
  2
STANDARD
 70
     0
  3

  4

  5

  6

  7

 40
1.0
 41
0.1875
 42
0.0625
 43
0.38
 44
0.125
 45
0.0
 46
0.0
 47
0.01
 48
0.01
140
0.15625
141
0.09
142
0.0
143
25.399999999999999
144
1.0
145
0.0
146
1.0
147
0.09
 71
     1
 72
     0
 73
     1
 74
     1
 75
     0
 76
     0
 77
     0
 78
     4
170
     0
171
     2
172
     0
173
     0
174
     0
175
     0
176
     0
177
     0
178
     0
  0
ENDTAB
  0
ENDSEC
  0
SECTION
  2
BLOCKS
  0
BLOCK
  8
0
  2
$MODEL_SPACE
 70
     0
 10
0.0
 20
0.0
 30
0.0
  3
$MODEL_SPACE
  1

  0
ENDBLK
  5
21
  8
0
  0
BLOCK
 67
     1
  8
0
  2
$PAPER_SPACE
 70
     0
 10
0.0
 20
0.0
 30
0.0
  3
$PAPER_SPACE
  1

  0
ENDBLK
  5
1D
 67
     1
  8
0
  0
ENDSEC
  0
SECTION
  2
ENTITIES
  0
LINE
  5
257
  8
0
 10
-12.2561806577
 20
60.053039579100002
 30
0.0
 11
-12.2561806577
 21
23.137664967399999
 31
0.0
  0
LINE
  5
258
  8
0
 10
-12.2299900806
 20
21.303039579099998
 30
0.0
 11
-12.2299900806
 21
22.4095494323
 31
0.0
  0
LINE
  5
260
  8
0
 10
-11.225701451400001
 20
21.303039579099998
 30
0.0
 11
-11.2257011774
 21
24.6770050899
 31
0.0
  0
LINE
  5
262
  8
0
 10
-10.9757011774
 20
25.377804678499999
 30
0.0
 11
-10.97569616664936
 21
58.299355608698413
 31
0.0
  0
LINE
  5
266
  8
0
 10
-12.2299900806
 20
21.303039579099998
 30
0.0
 11
27.0200099194
 21
21.303039579099998
 31
0.0
  0
LINE
  5
286
  8
0
 10
-11.025913105300001
 20
25.190414409700001
 30
0.0
 11
-11.1420180634
 21
24.98931472340001
 31
0.0
  0
LINE
  5
29E
  8
0
 10
25.932037902200001
 20
24.98931472340001
 30
0.0
 11
25.815930425800001
 21
25.190418771699999
 31
0.0
  0
LINE
  5
2A8
  8
0
 10
25.76571600544003
 20
58.299355574004217
 30
0.0
 11
25.765721016299999
 21
25.377799643100001
 31
0.0
  0
LINE
  5
2AA
  8
0
 10
26.015721290199998
 20
21.303039579099998
 30
0.0
 11
26.015721016299999
 21
24.6770050899
 31
0.0
  0
LINE
  5
2AE
  8
0
 10
-9.8513060755526904
 20
59.423745665140011
 30
0.0
 11
24.64132594898469
 21
59.423745665049367
 31
0.0
  0
LINE
  5
2B6
  8
0
 10
27.0200099194
 20
21.303039579099998
 30
0.0
 11
27.0200099194
 21
22.4095494323
 31
0.0
  0
LINE
  5
2B7
  8
0
 10
27.046200496499999
 20
60.053116828500002
 30
0.0
 11
27.046200496499999
 21
23.137664967399999
 31
0.0
  0
LINE
  5
2C0
  8
0
 10
26.420819531300001
 20
60.678039579100002
 30
0.0
 11
-11.6307996925
 21
60.678039579100002
 31
0.0
  0
ARC
  5
42C
  8
0
 10
7.3950089278999993
 20
42.053031624099987
 30
0.0
 40
1.655993426
 50
0.000275234
 51
179.99972476560001
  0
ARC
  5
42D
  8
0
 10
-9.8516095309000011
 20
58.29965902939999
 30
0.0
 40
1.1240866766999991
 50
89.984532591700003
 51
180.0154656453
  0
ARC
  5
436
  8
0
 10
-10.601065443594671
 20
24.67700067777967
 30
0.0
 40
0.6246357338209153
 50
150.0004047382977
 51
179.99959529072689
  0
ARC
  5
43C
  8
0
 10
-11.3504568001
 20
25.377799486299999
 30
0.0
 40
0.3747556227
 50
329.99871738389999
 51
0.0007938291
  0
ARC
  5
441
  8
0
 10
7.3879971495000003
 20
193.3259421745
 30
0.0
 40
168.30506750059999
 50
264.16332937380002
 51
270.00238734409999
  0
ARC
  5
445
  8
0
 10
7.3950089279000011
 20
42.053047609799762
 30
0.0
 40
1.655993426000367
 50
180.00027785543401
 51
359.9997221441659
  0
ARC
  5
446
  8
0
 10
24.641629369699999
 20
58.299659029300003
 30
0.0
 40
1.1240866766999991
 50
359.98453259140001
 51
90.01546564600001
  0
ARC
  5
450
  8
0
 10
25.39108517751508
 20
24.67700064947725
 30
0.0
 40
0.6246358388007051
 50
0.0004073052918115
 51
29.999592699918502
  0
ARC
  5
456
  8
0
 10
26.140493692300002
 20
25.3778040559
 30
0.0
 40
0.3747726761
 50
180.0006746423
 51
209.9998139715
  0
ARC
  5
45B
  8
0
 10
7.4156311660503764
 20
193.1481986358923
 30
0.0
 40
168.12732508051661
 50
269.99297252600809
 51
275.83652086687903
  0
ARC
  5
709
  8
0
 10
-11.63096877590473
 20
60.052827684260983
 30
0.0
 40
0.6252119177026323
 50
89.984504828969648
 51
179.9805814958649
  0
ARC
  5
70A
  8
0
 10
26.42098100299377
 20
60.05282011943013
 30
0.0
 40
0.625219505342193
 50
0.0111486698094307
 51
90.021904339982285
  0
ARC
  5
70B
  8
0
 10
-3.3213636634395169
 20
23.09452473200075
 30
0.0
 40
8.9349211413268623
 50
179.7233592798126
 51
184.39676387954839
  0
ARC
  5
70C
  8
0
 10
18.194401894359238
 20
23.091538530637209
 30
0.0
 40
8.8519187830613681
 50
355.58131308561491
 51
0.2985637550249029
  0
ARC
  5
70D
  8
0
 10
-9.6446952521408331
 20
26.687042925353779
 30
0.0
 40
0.7979488492736646
 50
179.87103002197071
 51
264.04690187441338
  0
ARC
  5
70E
  8
0
 10
24.433817327499309
 20
26.687384659599431
 30
0.0
 40
0.798845914975355
 50
275.65757916556561
 51
0.1043148214300421
  0
ARC
  5
70F
  8
0
 10
-37498.511872557763
 20
42.072251456310141
 30
0.0
 40
37488.072386806947
 50
359.9764883982225
 51
0.0244828339755203
  0
ARC
  5
718
  8
0
 10
37671.384331230613
 20
42.06996389531767
 30
0.0
 40
37646.15481145255
 50
179.9756164919265
 51
180.02340939109831
  0
ARC
  5
719
  8
0
 10
24.433875663899681
 20
58.091710559605332
 30
0.0
 40
0.7990534081415914
 50
359.9584856035666
 51
90.068017714414935
  0
ARC
  5
71A
  8
0
 10
-9.6438506646203823
 20
58.091706132199022
 30
0.0
 40
0.7990577750948285
 50
89.937936035133035
 51
180.0411968390971
  0
ARC
  5
71B
  8
0
 10
7.3950073820668143
 20
36673.797532628363
 30
0.0
 40
36614.910733328958
 50
269.97333859120567
 51
270.02666129470572
  0
ATTDEF
  5
782
  8
DEFPOINTS
 10
7.3970900463908711
 20
60.686529891623202
 30
0.0
 40
0.001
  1
62051100
  3

  2
MODELNUMBER
 70
     0
1001
AcDbAttr
1070
     0
1070
     1
  0
ATTDEF
  5
783
  8
DEFPOINTS
 10
7.3970900463908711
 20
60.68486322495653
 30
0.0
 40
0.001
  1

  3

  2
TRADENAME
 70
     0
1001
AcDbAttr
1070
     0
1070
     1
  0
ATTDEF
  5
784
  8
DEFPOINTS
 10
7.3970900463908711
 20
60.683196558289858
 30
0.0
 40
0.001
  1
SHOWER BASE
  3

  2
PRODUCT
 70
     0
1001
AcDbAttr
1070
     0
1070
     1
  0
ATTDEF
  5
785
  8
DEFPOINTS
 10
7.3970900463908711
 20
60.6815298916232
 30
0.0
 40
0.001
  1
VIKRELL
  3

  2
MATERIAL
 70
     0
1001
AcDbAttr
1070
     0
1070
     1
  0
ENDSEC
  0
EOF
