  0
SECTION
  2
HEADER
  9
$ACADVER
  1
AC1009
  9
$INSBASE
 10
48.674919346288149
 20
-25.924356223099998
 30
0.0
  9
$EXTMIN
 10
45.802377834399998
 20
-25.93816320060477
 30
0.0
  9
$EXTMAX
 10
49.810244031099998
 20
44.009643776899999
 30
0.0
  9
$LIMMIN
 10
0.0
 20
0.0
  9
$LIMMAX
 10
22.0
 20
17.0
  9
$ORTHOMODE
 70
     1
  9
$REGENMODE
 70
     1
  9
$FILLMODE
 70
     1
  9
$QTEXTMODE
 70
     0
  9
$MIRRTEXT
 70
     0
  9
$DRAGMODE
 70
     2
  9
$LTSCALE
 40
1.2099999999999991
  9
$OSMODE
 70
  3071
  9
$ATTMODE
 70
     1
  9
$TEXTSIZE
 40
0.2
  9
$TRACEWID
 40
0.05
  9
$TEXTSTYLE
  7
STANDARD
  9
$CLAYER
  8
0
  9
$CELTYPE
  6
BYLAYER
  9
$CECOLOR
 62
   256
  9
$DIMSCALE
 40
1.0
  9
$DIMASZ
 40
0.1875
  9
$DIMEXO
 40
0.0625
  9
$DIMDLI
 40
0.8359999999999999
  9
$DIMRND
 40
0.0
  9
$DIMDLE
 40
0.0
  9
$DIMEXE
 40
0.125
  9
$DIMTP
 40
0.0
  9
$DIMTM
 40
0.0
  9
$DIMTXT
 40
0.15625
  9
$DIMCEN
 40
0.198
  9
$DIMTSZ
 40
0.0
  9
$DIMTOL
 70
     0
  9
$DIMLIM
 70
     0
  9
$DIMTIH
 70
     1
  9
$DIMTOH
 70
     1
  9
$DIMSE1
 70
     0
  9
$DIMSE2
 70
     0
  9
$DIMTAD
 70
     0
  9
$DIMZIN
 70
     0
  9
$DIMBLK
  1

  9
$DIMASO
 70
     1
  9
$DIMSHO
 70
     1
  9
$DIMPOST
  1

  9
$DIMAPOST
  1

  9
$DIMALT
 70
     0
  9
$DIMALTD
 70
     2
  9
$DIMALTF
 40
25.399999999999999
  9
$DIMLFAC
 40
1.0
  9
$DIMTOFL
 70
     0
  9
$DIMTVP
 40
0.0
  9
$DIMTIX
 70
     0
  9
$DIMSOXD
 70
     0
  9
$DIMSAH
 70
     0
  9
$DIMBLK1
  1

  9
$DIMBLK2
  1

  9
$DIMSTYLE
  2
STANDARD
  9
$DIMCLRD
 70
     0
  9
$DIMCLRE
 70
     0
  9
$DIMCLRT
 70
     0
  9
$DIMTFAC
 40
1.0
  9
$DIMGAP
 40
0.09
  9
$LUNITS
 70
     2
  9
$LUPREC
 70
     4
  9
$SKETCHINC
 40
0.1
  9
$FILLETRAD
 40
0.0
  9
$AUNITS
 70
     0
  9
$AUPREC
 70
     0
  9
$MENU
  1
.
  9
$ELEVATION
 40
0.0
  9
$PELEVATION
 40
0.0
  9
$THICKNESS
 40
0.0
  9
$LIMCHECK
 70
     0
  9
$BLIPMODE
 70
     0
  9
$CHAMFERA
 40
0.0
  9
$CHAMFERB
 40
0.0
  9
$SKPOLY
 70
     0
  9
$TDCREATE
 40
2458127.5979047222
  9
$TDUPDATE
 40
2458141.7593983449
  9
$TDINDWG
 40
0.1285484606
  9
$TDUSRTIMER
 40
0.1285484606
  9
$USRTIMER
 70
     1
  9
$ANGBASE
 50
0.0
  9
$ANGDIR
 70
     0
  9
$PDMODE
 70
     0
  9
$PDSIZE
 40
0.3125
  9
$PLINEWID
 40
0.0
  9
$COORDS
 70
     1
  9
$SPLFRAME
 70
     0
  9
$SPLINETYPE
 70
     6
  9
$SPLINESEGS
 70
     8
  9
$ATTDIA
 70
     1
  9
$ATTREQ
 70
     1
  9
$HANDLING
 70
     1
  9
$HANDSEED
  5
1839
  9
$SURFTAB1
 70
     6
  9
$SURFTAB2
 70
     6
  9
$SURFTYPE
 70
     6
  9
$SURFU
 70
     6
  9
$SURFV
 70
     6
  9
$UCSNAME
  2

  9
$UCSORG
 10
0.0
 20
0.0
 30
0.0
  9
$UCSXDIR
 10
1.0
 20
0.0
 30
0.0
  9
$UCSYDIR
 10
0.0
 20
1.0
 30
0.0
  9
$PUCSNAME
  2

  9
$PUCSORG
 10
0.0
 20
0.0
 30
0.0
  9
$PUCSXDIR
 10
1.0
 20
0.0
 30
0.0
  9
$PUCSYDIR
 10
0.0
 20
1.0
 30
0.0
  9
$USERI1
 70
     0
  9
$USERI2
 70
     0
  9
$USERI3
 70
     0
  9
$USERI4
 70
     0
  9
$USERI5
 70
     0
  9
$USERR1
 40
0.0
  9
$USERR2
 40
0.0
  9
$USERR3
 40
0.0
  9
$USERR4
 40
0.0
  9
$USERR5
 40
0.0
  9
$WORLDVIEW
 70
     1
  9
$SHADEDGE
 70
     3
  9
$SHADEDIF
 70
    70
  9
$TILEMODE
 70
     1
  9
$MAXACTVP
 70
    48
  9
$PLIMCHECK
 70
     0
  9
$PEXTMIN
 10
1.0000000000000000E+020
 20
1.0000000000000000E+020
 30
1.0000000000000000E+020
  9
$PEXTMAX
 10
-1.0000000000000000E+020
 20
-1.0000000000000000E+020
 30
-1.0000000000000000E+020
  9
$PLIMMIN
 10
0.0
 20
0.0
  9
$PLIMMAX
 10
12.0
 20
9.0
  9
$UNITMODE
 70
     0
  9
$VISRETAIN
 70
     1
  9
$PLINEGEN
 70
     0
  9
$PSLTSCALE
 70
     1
  0
ENDSEC
  0
SECTION
  2
TABLES
  0
TABLE
  2
VPORT
 70
     1
  0
VPORT
  2
*ACTIVE
 70
     0
 10
0.0
 20
0.0
 11
1.0
 21
1.0
 12
0.0
 22
0.0
 13
0.0
 23
0.0
 14
1.0
 24
1.0
 15
0.0
 25
0.0
 16
-0.0000000000000426
 26
0.0
 36
195.7426407397553
 17
47.806279393658059
 27
9.0357339610308252
 37
0.0
 40
70.076867320223784
 41
2.0811403508771931
 42
50.0
 43
0.0
 44
0.0
 50
0.0
 51
0.0
 71
     0
 72
   100
 73
     1
 74
     1
 75
     0
 76
     0
 77
     0
 78
     0
  0
ENDTAB
  0
TABLE
  2
LTYPE
 70
     2
  0
LTYPE
  2
CONTINUOUS
 70
     0
  3
Solid line
 72
    65
 73
     0
 40
0.0
  0
LTYPE
  2
PHANTOM2
 70
     0
  3
___ _ _ ___ _ _ ___ _ _ ___ _ _
 72
    65
 73
     6
 40
1.25
 49
0.625
 49
-0.125
 49
0.125
 49
-0.125
 49
0.125
 49
-0.125
  0
ENDTAB
  0
TABLE
  2
LAYER
 70
     2
  0
LAYER
  2
0
 70
     0
 62
     7
  6
CONTINUOUS
  0
LAYER
  2
DEFPOINTS
 70
     0
 62
     7
  6
CONTINUOUS
  0
ENDTAB
  0
TABLE
  2
STYLE
 70
     1
  0
STYLE
  2
STANDARD
 70
     0
 40
0.0
 41
0.8
 50
0.0
 71
     0
 42
0.2
  3
txt
  4

  0
ENDTAB
  0
TABLE
  2
VIEW
 70
     0
  0
ENDTAB
  0
TABLE
  2
UCS
 70
     0
  0
ENDTAB
  0
TABLE
  2
APPID
 70
     5
  0
APPID
  2
ACAD
 70
     0
  0
APPID
  2
ACAD_MLEADERVER
 70
     0
  0
APPID
  2
ACAD_NAV_VCDISPLAY
 70
     0
  0
APPID
  2
ACAD_EXEMPT_FROM_CAD_STANDARDS
 70
     0
  0
APPID
  2
ACDBATTR
 70
     0
  0
ENDTAB
  0
TABLE
  2
DIMSTYLE
 70
     1
  0
DIMSTYLE
  2
STANDARD
 70
     0
  3

  4

  5

  6

  7

 40
1.0
 41
0.1875
 42
0.0625
 43
0.38
 44
0.125
 45
0.0
 46
0.0
 47
1.5
 48
1.5
140
0.15625
141
0.09
142
0.0
143
25.399999999999999
144
1.0
145
0.0
146
1.0
147
0.09
 71
     0
 72
     0
 73
     1
 74
     1
 75
     0
 76
     0
 77
     0
 78
     4
170
     0
171
     2
172
     0
173
     0
174
     0
175
     0
176
     0
177
     0
178
     0
  0
ENDTAB
  0
ENDSEC
  0
SECTION
  2
BLOCKS
  0
BLOCK
  8
0
  2
$MODEL_SPACE
 70
     0
 10
0.0
 20
0.0
 30
0.0
  3
$MODEL_SPACE
  1

  0
ENDBLK
  5
21
  8
0
  0
BLOCK
 67
     1
  8
0
  2
$PAPER_SPACE
 70
     0
 10
0.0
 20
0.0
 30
0.0
  3
$PAPER_SPACE
  1

  0
ENDBLK
  5
1D
 67
     1
  8
0
  0
ENDSEC
  0
SECTION
  2
ENTITIES
  0
LINE
  5
34D
  8
0
 10
49.577935643400011
 20
-25.924356223099998
 30
0.0
 11
49.221935643400002
 21
-25.924356223099998
 31
0.0
  0
LINE
  5
34E
  8
0
 10
47.8629356434
 20
-25.924356223099998
 30
0.0
 11
47.744935643399998
 21
-25.924356223099998
 31
0.0
  0
LINE
  5
350
  8
0
 10
49.520935643400001
 20
-25.874356223100001
 30
0.0
 11
49.613838276999992
 21
-25.874356223100001
 31
0.0
  0
LINE
  5
351
  8
0
 10
49.21865509069999
 20
-25.8612511374
 30
0.0
 11
49.520935643400001
 21
-25.87180700691755
 31
0.0
  0
LINE
  5
352
  8
0
 10
49.477935643400002
 20
-25.464356223100001
 30
0.0
 11
49.459935643400001
 21
-25.464356223100001
 31
0.0
  0
LINE
  5
353
  8
0
 10
49.4376440311
 20
-25.451039787599999
 30
0.0
 11
49.228644031100004
 21
-25.451039787599999
 31
0.0
  0
LINE
  5
354
  8
0
 10
49.268644031099988
 20
-25.4110397888
 30
0.0
 11
49.276644031099998
 21
-25.4110397888
 31
0.0
  0
LINE
  5
355
  8
0
 10
49.348644031099987
 20
-25.406039788899999
 30
0.0
 11
49.443935643400003
 21
-25.40603978890001
 31
0.0
  0
LINE
  5
358
  8
0
 10
49.228644031100004
 20
-25.3610397902
 30
0.0
 11
49.236644031099999
 21
-25.3610397902
 31
0.0
  0
LINE
  5
35A
  8
0
 10
49.236644031099999
 20
-25.261039793199998
 30
0.0
 11
49.228644031100004
 21
-25.261039793199998
 31
0.0
  0
LINE
  5
35B
  8
0
 10
47.916975058599988
 20
-24.628356089899999
 30
0.0
 11
47.904936155399987
 21
-24.628356089899999
 31
0.0
  0
LINE
  5
35E
  8
0
 10
49.112427173497842
 20
-25.268076461839591
 30
0.0
 11
47.915406470947602
 21
-25.226275677855941
 31
0.0
  0
LINE
  5
35F
  8
0
 10
49.428427173498868
 20
-25.259099234039631
 30
0.0
 11
49.194406470947271
 21
-25.250927151155931
 31
0.0
  0
LINE
  5
360
  8
0
 10
47.90444411330175
 20
-25.155849815860378
 30
0.0
 11
49.478494035399997
 21
-25.21081699030001
 31
0.0
  0
LINE
  5
361
  8
0
 10
49.520935643400001
 20
-25.179356223100001
 30
0.0
 11
47.953935643400001
 21
-25.124635377299999
 31
0.0
  0
LINE
  5
36B
  8
0
 10
49.212144031099989
 20
43.341815987199993
 30
0.0
 11
49.24214403109999
 21
43.371815987199987
 31
0.0
  0
LINE
  5
36C
  8
0
 10
49.087144031100003
 20
43.200565987199987
 30
0.0
 11
49.102144031100003
 21
43.215565987199987
 31
0.0
  0
LINE
  5
36D
  8
0
 10
49.462144031099989
 20
42.650835465199989
 30
0.0
 11
49.432144031099988
 21
42.620835465200003
 31
0.0
  0
LINE
  5
36E
  8
0
 10
49.441508177700001
 20
42.620835465200003
 30
0.0
 11
49.471508177700002
 21
42.650835465199989
 31
0.0
  0
LINE
  5
375
  8
0
 10
47.735993846599989
 20
-25.874356223100001
 30
0.0
 11
47.735993846599989
 21
42.563643776900001
 31
0.0
  0
LINE
  5
378
  8
0
 10
47.81214403109999
 20
42.669643776900003
 30
0.0
 11
47.81214403109999
 21
42.644861927400001
 31
0.0
  0
LINE
  5
379
  8
0
 10
47.828935643400001
 20
42.563643776900001
 30
0.0
 11
47.828935643400001
 21
-25.874356223100001
 31
0.0
  0
LINE
  5
37A
  8
0
 10
47.857144031099999
 20
42.645170410600002
 30
0.0
 11
47.857144031099999
 21
42.714643776899997
 31
0.0
  0
LINE
  5
37D
  8
0
 10
47.888935643400004
 20
-24.644356223100001
 30
0.0
 11
47.888935643400004
 21
-25.139857367699999
 31
0.0
  0
LINE
  5
37E
  8
0
 10
47.898935883238778
 20
-25.242181143057799
 30
0.0
 11
47.898935683400012
 21
-25.723359298599998
 31
0.0
  0
LINE
  5
380
  8
0
 10
47.953935643400001
 20
-24.5988562231
 30
0.0
 11
47.953935643400001
 21
-25.124635377299999
 31
0.0
  0
LINE
  5
38B
  8
0
 10
46.019508950099997
 20
7.9855965485000002
 30
0.0
 11
47.735993846599989
 21
7.9855955337999989
 31
0.0
  0
LINE
  5
392
  8
0
 10
46.0194772304
 20
9.1030559138000005
 30
0.0
 11
47.735993846599989
 21
9.1030559185000008
 31
0.0
  0
LINE
  5
39A
  8
0
 10
48.1371440311
 20
42.708143776900002
 30
0.0
 11
48.1371440311
 21
42.645170410600002
 31
0.0
  0
LINE
  5
39B
  8
0
 10
48.182144031099988
 20
42.645170410600002
 30
0.0
 11
48.182144031099988
 21
42.708143776900002
 31
0.0
  0
LINE
  5
3A3
  8
0
 10
48.904144031100003
 20
43.115182974
 30
0.0
 11
48.904144031100003
 21
42.877468478300003
 31
0.0
  0
LINE
  5
3A4
  8
0
 10
49.007144031099998
 20
43.163825726199988
 30
0.0
 11
49.007144031099998
 21
42.828825726200002
 31
0.0
  0
LINE
  5
3A5
  8
0
 10
49.032144031099989
 20
42.563643776900001
 30
0.0
 11
49.032144031099989
 21
43.156825726199997
 31
0.0
  0
LINE
  5
3A6
  8
0
 10
49.077935643400892
 20
-25.780356729796171
 30
0.0
 11
49.0779357451
 21
-25.543167564099999
 31
0.0
  0
LINE
  5
3A7
  8
0
 10
49.087144031100003
 20
43.200565771699992
 30
0.0
 11
49.087144031100003
 21
43.156825726199997
 31
0.0
  0
LINE
  5
3A8
  8
0
 10
49.087144031100003
 20
42.563643776900001
 30
0.0
 11
49.087144031100003
 21
43.156825726199997
 31
0.0
  0
LINE
  5
3A9
  8
0
 10
49.102144031100003
 20
43.215565987199987
 30
0.0
 11
49.102144031100003
 21
42.777085465200003
 31
0.0
  0
LINE
  5
3AA
  8
0
 10
49.127935643400001
 20
-25.467857878699999
 30
0.0
 11
49.127935643400001
 21
-25.284068909999998
 31
0.0
  0
LINE
  5
3AB
  8
0
 10
49.127935643400001
 20
-25.543356223100002
 30
0.0
 11
49.127935643400001
 21
-25.767308399699999
 31
0.0
  0
LINE
  5
3AC
  8
0
 10
49.161508177700007
 20
42.708143776900002
 30
0.0
 11
49.161508177700007
 21
42.645170410600002
 31
0.0
  0
LINE
  5
3AD
  8
0
 10
49.177935883238789
 20
-25.266832616357799
 30
0.0
 11
49.177935643399692
 21
-25.48252842710399
 31
0.0
  0
LINE
  5
3AE
  8
0
 10
49.206508177700002
 20
42.645170410600002
 30
0.0
 11
49.206508177700002
 21
42.708143776900002
 31
0.0
  0
LINE
  5
3AF
  8
0
 10
49.212144031099989
 20
43.341815795000002
 30
0.0
 11
49.212144031099989
 21
42.650835657399988
 31
0.0
  0
LINE
  5
3B0
  8
0
 10
49.212644031099998
 20
-25.435039788099999
 30
0.0
 11
49.212644031099998
 21
-25.377039789800001
 31
0.0
  0
LINE
  5
3B1
  8
0
 10
49.212644031099998
 20
-25.2015332858
 30
0.0
 11
49.212644031099998
 21
-25.187039795300009
 31
0.0
  0
LINE
  5
3B4
  8
0
 10
49.24214403109999
 20
43.371815987199987
 30
0.0
 11
49.24214403109999
 21
42.623344580699992
 31
0.0
  0
LINE
  5
3B5
  8
0
 10
49.25264403109999
 20
-25.377039789800001
 30
0.0
 11
49.25264403109999
 21
-25.3950397893
 31
0.0
  0
LINE
  5
3B8
  8
0
 10
49.292644031099996
 20
-25.3950397893
 30
0.0
 11
49.292644031099996
 21
-25.2543574864
 31
0.0
  0
LINE
  5
3BA
  8
0
 10
49.332644031099989
 20
-25.255754335100001
 30
0.0
 11
49.332644031099989
 21
-25.390039789399999
 31
0.0
  0
LINE
  5
3BC
  8
0
 10
49.432144031099988
 20
42.620835465200003
 30
0.0
 11
49.432144031099988
 21
43.371815987199987
 31
0.0
  0
LINE
  5
3BE
  8
0
 10
49.441508177700001
 20
42.620835465200003
 30
0.0
 11
49.441508177700001
 21
42.6301996117
 31
0.0
  0
LINE
  5
3BF
  8
0
 10
49.441508177700001
 20
43.362451840600002
 30
0.0
 11
49.441508177700001
 21
43.371815987199987
 31
0.0
  0
LINE
  5
3C0
  8
0
 10
49.443935643400003
 20
-25.448356223099999
 30
0.0
 11
49.443935643400003
 21
-25.275091682199999
 31
0.0
  0
LINE
  5
3C1
  8
0
 10
49.462144031099989
 20
42.650835657399988
 30
0.0
 11
49.462144031099989
 21
43.341815795000002
 31
0.0
  0
LINE
  5
3C2
  8
0
 10
49.471508177700002
 20
42.650835465199989
 30
0.0
 11
49.471508177700002
 21
43.341815987199993
 31
0.0
  0
LINE
  5
3C3
  8
0
 10
49.486508177700003
 20
42.714643776899997
 30
0.0
 11
49.486508177700003
 21
42.645170410600002
 31
0.0
  0
LINE
  5
3C4
  8
0
 10
49.493935502690697
 20
-25.226874345494551
 30
0.0
 11
49.493935591000003
 21
-25.4483564246
 31
0.0
  0
LINE
  5
3C5
  8
0
 10
49.520935643400001
 20
42.563643776900001
 30
0.0
 11
49.520935643400001
 21
-25.874356223100001
 31
0.0
  0
LINE
  5
3C6
  8
0
 10
49.531508177699997
 20
42.644861927400001
 30
0.0
 11
49.531508177699997
 21
42.669643776900003
 31
0.0
  0
LINE
  5
3C9
  8
0
 10
49.593935502690698
 20
-25.889874345494551
 30
0.0
 11
49.593935590999997
 21
-25.908356424600001
 31
0.0
  0
LINE
  5
3CA
  8
0
 10
49.608935643400002
 20
41.8536437769
 30
0.0
 11
49.608935643400002
 21
41.815643776899996
 31
0.0
  0
LINE
  5
3CB
  8
0
 10
49.613838276999999
 20
42.563643776900001
 30
0.0
 11
49.613838276999999
 21
41.865169767485803
 31
0.0
  0
LINE
  5
3CC
  8
0
 10
49.613838276999999
 20
41.804119232517479
 30
0.0
 11
49.613838276999999
 21
-25.874356223100001
 31
0.0
  0
LINE
  5
3CD
  8
0
 10
49.631644031099988
 20
-25.212039794599999
 30
0.0
 11
49.631644031099988
 21
-24.936039802700002
 31
0.0
  0
LINE
  5
3CF
  8
0
 10
49.675416318400003
 20
40.642318656100002
 30
0.0
 11
49.675410071000002
 21
-23.538674442000001
 31
0.0
  0
LINE
  5
3D1
  8
0
 10
49.67664403109999
 20
-24.936039802700002
 30
0.0
 11
49.67664403109999
 21
-25.212039794599999
 31
0.0
  0
LINE
  5
3D3
  8
0
 10
49.675410071000002
 20
-23.538674442000001
 30
0.0
 11
49.656377927299992
 21
-23.6343478332
 31
0.0
  0
LINE
  5
3D5
  8
0
 10
49.675410071000002
 20
40.642325894400003
 30
0.0
 11
49.656377927299992
 21
40.73799928559999
 31
0.0
  0
LINE
  5
3D7
  8
0
 10
49.656377927299992
 20
-23.6343478332
 30
0.0
 11
49.613838276999999
 21
-23.698013860687421
 31
0.0
  0
LINE
  5
3D9
  8
0
 10
49.656377927299992
 20
40.73799928559999
 30
0.0
 11
49.613838276999999
 21
40.801665313087412
 31
0.0
  0
LINE
  5
3DD
  8
0
 10
49.212144031099989
 20
42.650835465199989
 30
0.0
 11
49.238716515599997
 21
42.624262980700003
 31
0.0
  0
LINE
  5
3DE
  8
0
 10
49.087144031100003
 20
42.792085465200003
 30
0.0
 11
49.102144031100003
 21
42.777085465200003
 31
0.0
  0
LINE
  5
3DF
  8
0
 10
49.462144031099989
 20
43.341815987199993
 30
0.0
 11
49.432144031099988
 21
43.371815987199987
 31
0.0
  0
LINE
  5
3E0
  8
0
 10
49.441508177700001
 20
43.371815987199987
 30
0.0
 11
49.471508177700002
 21
43.341815987199993
 31
0.0
  0
LINE
  5
3E1
  8
0
 10
49.48629613939999
 20
42.585940451999988
 30
0.0
 11
49.4030838153
 21
42.563643776900001
 31
0.0
  0
LINE
  5
3E2
  8
0
 10
49.396008177699997
 20
42.608643776900003
 30
0.0
 11
49.474649282399987
 21
42.629715597400001
 31
0.0
  0
LINE
  5
3E3
  8
0
 10
48.136931992900003
 20
42.58624893519999
 30
0.0
 11
48.05256839350001
 21
42.563643776900001
 31
0.0
  0
LINE
  5
3E4
  8
0
 10
48.046644031099987
 20
42.608643776900003
 30
0.0
 11
48.125285135799999
 21
42.629715597400001
 31
0.0
  0
LINE
  5
3E6
  8
0
 10
49.64018292231313
 20
41.869661522751237
 30
0.0
 11
49.624946035068163
 21
41.869643773525397
 31
0.0
  0
LINE
  5
3E7
  8
0
 10
47.719935643399992
 20
41.869643776899991
 30
0.0
 11
47.703520563400012
 21
41.869643776899991
 31
0.0
  0
LINE
  5
3EA
  8
0
 10
47.735993846599989
 20
42.563643776900001
 30
0.0
 11
49.613838277000013
 21
42.563643776900001
 31
0.0
  0
LINE
  5
3ED
  8
0
 10
49.396008177699997
 20
42.608643776900003
 30
0.0
 11
49.297008177700008
 21
42.608643776900003
 31
0.0
  0
LINE
  5
3EE
  8
0
 10
48.046644031099987
 20
42.608643776900003
 30
0.0
 11
47.947644031099998
 21
42.608643776900003
 31
0.0
  0
LINE
  5
3EF
  8
0
 10
48.092144031099998
 20
42.620835465200003
 30
0.0
 11
47.902144031099994
 21
42.620835465200003
 31
0.0
  0
LINE
  5
3F0
  8
0
 10
49.251508177700003
 20
42.620835465200003
 30
0.0
 11
49.432144031099988
 21
42.620835465200003
 31
0.0
  0
LINE
  5
3F1
  8
0
 10
49.432144031099988
 20
42.620835465200003
 30
0.0
 11
49.441508177700001
 21
42.620835465200003
 31
0.0
  0
LINE
  5
3F2
  8
0
 10
47.572928810199997
 20
42.685643776900001
 30
0.0
 11
47.796144232416331
 21
42.685643776898743
 31
0.0
  0
LINE
  5
3F3
  8
0
 10
49.547508177700003
 20
42.685643776900001
 30
0.0
 11
49.72006464239999
 21
42.685643776900001
 31
0.0
  0
LINE
  5
3F4
  8
0
 10
49.747289458899999
 20
42.730643776900003
 30
0.0
 11
49.502508177700001
 21
42.730643776900003
 31
0.0
  0
LINE
  5
3F5
  8
0
 10
47.841144031099986
 20
42.730643776900003
 30
0.0
 11
47.545566951099993
 21
42.730643776900003
 31
0.0
  0
LINE
  5
3F7
  8
0
 10
49.102144031100003
 20
42.777085465200003
 30
0.0
 11
49.212144031099989
 21
42.777085465200003
 31
0.0
  0
LINE
  5
3F9
  8
0
 10
49.007144031099998
 20
42.828825726200002
 30
0.0
 11
49.032144031099989
 21
42.828825726200002
 31
0.0
  0
LINE
  5
3FB
  8
0
 10
48.942326056500001
 20
42.839286453
 30
0.0
 11
49.007144031099998
 21
42.839286453
 31
0.0
  0
LINE
  5
3FE
  8
0
 10
48.942326056500001
 20
42.917806089599992
 30
0.0
 11
49.007144031099998
 21
42.917806089599992
 31
0.0
  0
LINE
  5
401
  8
0
 10
48.942326056500001
 20
43.074845362799991
 30
0.0
 11
49.007144031099998
 21
43.074845362799991
 31
0.0
  0
LINE
  5
404
  8
0
 10
48.942326056500001
 20
43.15336499939999
 30
0.0
 11
49.007144031099998
 21
43.15336499939999
 31
0.0
  0
LINE
  5
406
  8
0
 10
49.007144031099998
 20
43.163825726199988
 30
0.0
 11
49.033049858806052
 21
43.16382572620001
 31
0.0
  0
LINE
  5
409
  8
0
 10
49.102144031100003
 20
43.215565987199987
 30
0.0
 11
49.212144031099989
 21
43.215565987199987
 31
0.0
  0
LINE
  5
40B
  8
0
 10
49.24214403109999
 20
43.371815987199987
 30
0.0
 11
49.432144031099988
 21
43.371815987199987
 31
0.0
  0
LINE
  5
40C
  8
0
 10
49.432144031099988
 20
43.371815987199987
 30
0.0
 11
49.441508177700001
 21
43.371815987199987
 31
0.0
  0
LINE
  5
40D
  8
0
 10
47.940568393500001
 20
42.563643776900001
 30
0.0
 11
47.857356069399998
 21
42.585940451999988
 31
0.0
  0
LINE
  5
40E
  8
0
 10
47.8690029264
 20
42.629715597400001
 30
0.0
 11
47.947644031099998
 21
42.608643776900003
 31
0.0
  0
LINE
  5
40F
  8
0
 10
49.291083815299991
 20
42.563643776900001
 30
0.0
 11
49.206720215899999
 21
42.58624893519999
 31
0.0
  0
LINE
  5
410
  8
0
 10
49.218367073000003
 20
42.629715597400001
 30
0.0
 11
49.297008177700008
 21
42.608643776900003
 31
0.0
  0
ARC
  5
439
  8
0
 10
46.802377834399991
 20
8.5443257262000003
 30
0.0
 40
1.0
 50
161.21033596909999
 51
198.78966403090001
  0
ARC
  5
441
  8
0
 10
43.545244031099998
 20
42.896869256099997
 30
0.0
 40
6.2649999999999988
 50
350.87415243890001
 51
7.2671664815999986
  0
ARC
  5
442
  8
0
 10
43.545244031099998
 20
42.896869256099997
 30
0.0
 40
6.2199999999999989
 50
358.61248754389999
 51
7.2671664815999986
  0
ARC
  5
443
  8
0
 10
43.545486647689209
 20
42.89683692462625
 30
0.0
 40
6.1947553632557488
 50
350.58080656853491
 51
357.89440939006408
  0
ARC
  5
444
  8
0
 10
47.736626104399988
 20
41.923243776900001
 30
0.0
 40
0.125
 50
189.34448069839999
 51
261.57533247280003
  0
ARC
  5
445
  8
0
 10
47.732126104399988
 20
43.766019741099988
 30
0.0
 40
0.125
 50
104.52405696
 51
172.0593744352
  0
ARC
  5
446
  8
0
 10
47.555674610997983
 20
42.031040540062229
 30
0.0
 40
0.110010131826066
 50
6.001288902630125
 51
54.779111314842289
  0
ARC
  5
447
  8
0
 10
47.555126104399989
 20
43.668643776899991
 30
0.0
 40
0.085
 50
308.6701433238
 51
355.04381276819998
  0
ARC
  5
448
  8
0
 10
47.732126104399988
 20
43.766019741099988
 30
0.0
 40
0.08
 50
101.3853599981
 51
172.05937443420001
  0
ARC
  5
44A
  8
0
 10
47.648851488100007
 20
43.55153035979999
 30
0.0
 40
0.065
 50
128.6701432996
 51
170.87082812849999
  0
ARC
  5
44B
  8
0
 10
47.585926104400002
 20
43.593643776899988
 30
0.0
 40
0.0410779871
 50
112.32632178279999
 51
170.4648234805
  0
ARC
  5
44C
  8
0
 10
47.555684458400002
 20
42.031043776899992
 30
0.0
 40
0.04
 50
6.0001484331999997
 51
67.1095128547
  0
ARC
  5
44D
  8
0
 10
47.586802138199992
 20
42.104743776900001
 30
0.0
 40
0.04
 50
189.20373979499999
 51
247.10951197750001
  0
ARC
  5
44E
  8
0
 10
47.555126104399989
 20
43.668643776899991
 30
0.0
 40
0.04
 50
292.32632177099998
 51
355.04381277150009
  0
ARC
  5
44F
  8
0
 10
47.545567706499511
 20
42.746645621360912
 30
0.0
 40
0.0160018444787407
 50
180.74306358634311
 51
269.99729523663808
  0
ARC
  5
450
  8
0
 10
47.573140254386793
 20
42.669642919426067
 30
0.0
 40
0.0160022544831982
 50
90.757094075473205
 51
182.40342944691309
  0
ARC
  5
451
  8
0
 10
47.628556861
 20
42.133832944299989
 30
0.0
 40
0.016
 50
189.52897471209999
 51
233.8603499976
  0
ARC
  5
452
  8
0
 10
47.703520563400012
 20
41.885643776899997
 30
0.0
 40
0.016
 50
187.2691484611
 51
270.00000000009999
  0
ARC
  5
453
  8
0
 10
47.71989405734486
 20
41.853543379281732
 30
0.0
 40
0.0161004513249341
 50
0.5196033997738681
 51
89.852009856930266
  0
ARC
  5
454
  8
0
 10
47.719701875592122
 20
41.81582625308998
 30
0.0
 40
0.016292992876724
 50
265.10815440514182
 51
359.35829259807639
  0
ARC
  5
455
  8
0
 10
48.003935643399998
 20
-25.892356223099998
 30
0.0
 40
0.175
 50
9.1883710032000003
 51
117.7729253227
  0
ARC
  5
456
  8
0
 10
48.003502815129693
 20
-25.89291413248846
 30
0.0
 40
0.1255206693544753
 50
9.8122443823138816
 51
187.06667501247961
  0
ARC
  5
459
  8
0
 10
47.891435643400001
 20
-24.5988562231
 30
0.0
 40
0.0625
 50
0.0
 51
180.0
  0
ARC
  5
45A
  8
0
 10
47.884935643399999
 20
-24.624356223100001
 30
0.0
 40
0.056
 50
88.999080148100006
 51
180.0
  0
ARC
  5
45B
  8
0
 10
47.886935643399987
 20
-24.6143562231
 30
0.0
 40
0.046
 50
3.5994985801999988
 51
91.272616818499984
  0
ARC
  5
45C
  8
0
 10
48.151848744200507
 20
-25.86734099884254
 30
0.0
 40
0.0250134916996246
 50
189.62421311587789
 51
6.7243986431456788
  0
ARC
  5
45D
  8
0
 10
47.9149356434
 20
-25.24226874890001
 30
0.0
 40
0.0160000000000095
 50
88.313729614634269
 51
179.6862831187573
  0
ARC
  5
45E
  8
0
 10
47.914935642014882
 20
-25.72335922920265
 30
0.0
 40
0.0159999586150276
 50
180.0002485115908
 51
297.773008973728
  0
ARC
  5
45F
  8
0
 10
47.8629356434
 20
-25.9083562231
 30
0.0
 40
0.016
 50
270.0
 51
360.0
  0
ARC
  5
460
  8
0
 10
47.916868902499999
 20
-24.612356223100001
 30
0.0
 40
0.016
 50
270.57272398809999
 51
3.5021092516999999
  0
ARC
  5
461
  8
0
 10
47.904935643400002
 20
-24.644356223100001
 30
0.0
 40
0.016
 50
89.998166580900005
 51
180.0
  0
ARC
  5
462
  8
0
 10
47.904935643400002
 20
-25.139857367699999
 30
0.0
 40
0.016
 50
180.0
 51
268.23956051300001
  0
ARC
  5
465
  8
0
 10
49.4376440311
 20
-25.212039794599999
 30
0.0
 40
0.239
 50
317.49466422178227
 51
360.0
  0
ARC
  5
466
  8
0
 10
49.4376440311
 20
-25.212039794599999
 30
0.0
 40
0.239
 50
283.62283935127851
 51
290.39562455327729
  0
ARC
  5
467
  8
0
 10
49.4376440311
 20
-25.212039794599999
 30
0.0
 40
0.194
 50
335.2602098067286
 51
0.0000006118
  0
ARC
  5
468
  8
0
 10
49.487644031099997
 20
-24.936039802700002
 30
0.0
 40
0.189
 50
359.9999991638
 51
48.110632326226622
  0
ARC
  5
469
  8
0
 10
49.487644031099997
 20
-24.936039802700002
 30
0.0
 40
0.144
 50
0.0
 51
28.794974756740888
  0
ARC
  5
46A
  8
0
 10
49.221935643400002
 20
-25.7803562231
 30
0.0
 40
0.144
 50
180.000201608
 51
270.0
  0
ARC
  5
46B
  8
0
 10
49.221935643400002
 20
-25.767308399699999
 30
0.0
 40
0.094
 50
180.0
 51
268.0
  0
ARC
  5
46C
  8
0
 10
49.144069252584153
 20
-25.543397600468801
 30
0.0
 40
0.0661339075579772
 50
112.1263625196631
 51
179.8007052640489
  0
ARC
  5
46D
  8
0
 10
49.131935643399999
 20
-25.482528597799998
 30
0.0
 40
0.046
 50
281.15993686040002
 51
0.0002126122
  0
ARC
  5
46E
  8
0
 10
49.236644031099999
 20
-25.2450397936
 30
0.0
 40
0.016
 50
270.0000007191
 51
330.62169739450491
  0
ARC
  5
46F
  8
0
 10
49.228644031100004
 20
-25.2450397936
 30
0.0
 40
0.016
 50
204.25805488278019
 51
270.0
  0
ARC
  5
470
  8
0
 10
49.228644031100004
 20
-25.187039795300009
 30
0.0
 40
0.016
 50
90.0
 51
180.0
  0
ARC
  5
471
  8
0
 10
49.348644031099987
 20
-25.390039789399999
 30
0.0
 40
0.016
 50
180.0
 51
270.0
  0
ARC
  5
472
  8
0
 10
49.228644031100004
 20
-25.435039788099999
 30
0.0
 40
0.016
 50
180.0
 51
270.0
  0
ARC
  5
473
  8
0
 10
49.228644031100004
 20
-25.377039789800001
 30
0.0
 40
0.016
 50
90.0
 51
180.0
  0
ARC
  5
474
  8
0
 10
49.236644031099999
 20
-25.377039789800001
 30
0.0
 40
0.016
 50
359.99999924790001
 51
90.0
  0
ARC
  5
475
  8
0
 10
49.268644031099988
 20
-25.3950397893
 30
0.0
 40
0.016
 50
180.0
 51
270.0
  0
ARC
  5
476
  8
0
 10
49.276644031099998
 20
-25.3950397893
 30
0.0
 40
0.016
 50
270.0
 51
0.0000007521
  0
ARC
  5
477
  8
0
 10
49.477935643400002
 20
-25.448356223099999
 30
0.0
 40
0.016
 50
270.0
 51
359.99927824269997
  0
ARC
  5
478
  8
0
 10
49.459935643400001
 20
-25.448356223099999
 30
0.0
 40
0.016
 50
180.0
 51
270.0
  0
ARC
  5
479
  8
0
 10
49.427935643399998
 20
-25.275091682199999
 30
0.0
 40
0.016
 50
0.0
 51
88.239560510800004
  0
ARC
  5
47A
  8
0
 10
49.193935643400003
 20
-25.2669202222
 30
0.0
 40
0.016
 50
88.313729615799986
 51
179.68628311879999
  0
ARC
  5
47B
  8
0
 10
49.143935643399999
 20
-25.543356223100002
 30
0.0
 40
0.016
 50
101.1599369061
 51
180.0
  0
ARC
  5
47C
  8
0
 10
49.577935643400011
 20
-25.889807243500002
 30
0.0
 40
0.016
 50
359.75970797780002
 51
74.947612488102791
  0
ARC
  5
47D
  8
0
 10
49.577935643400011
 20
-25.9083562231
 30
0.0
 40
0.016
 50
270.0
 51
359.99927824269997
  0
ARC
  5
47E
  8
0
 10
49.111935643400003
 20
-25.467857878699999
 30
0.0
 40
0.016
 50
296.8409175214
 51
360.0
  0
ARC
  5
47F
  8
0
 10
49.111935643399988
 20
-25.284068909999991
 30
0.0
 40
0.0160000000000054
 50
359.99999999998732
 51
88.239560514461985
  0
ARC
  5
480
  8
0
 10
49.477935643400002
 20
-25.226807243500001
 30
0.0
 40
0.016
 50
359.75970797780002
 51
88.000000000599996
  0
ARC
  5
483
  8
0
 10
48.671332097499999
 20
39.101926647900001
 30
0.0
 40
4.8377171289999987
 50
79.545927806400002
 51
101.3853599973
  0
ARC
  5
484
  8
0
 10
48.663026104399997
 20
40.172721205800002
 30
0.0
 40
3.8369225711000001
 50
76.3101948881
 51
104.5240569594
  0
ARC
  5
485
  8
0
 10
48.121144031099988
 20
42.645170410600002
 30
0.0
 40
0.061
 50
284.99999999969998
 51
360.0
  0
ARC
  5
486
  8
0
 10
47.87314403109999
 20
42.644861927400001
 30
0.0
 40
0.061
 50
180.0
 51
254.99999999970001
  0
ARC
  5
48A
  8
0
 10
48.159644031099987
 20
42.708143776900002
 30
0.0
 40
0.0225
 50
0.0
 51
180.0
  0
ARC
  5
48B
  8
0
 10
47.841144031099986
 20
42.714643776899997
 30
0.0
 40
0.016
 50
0.0
 51
90.0
  0
ARC
  5
48C
  8
0
 10
47.87314403109999
 20
42.645170410600002
 30
0.0
 40
0.016
 50
180.0
 51
255.00000000009999
  0
ARC
  5
48D
  8
0
 10
48.121144031099988
 20
42.645170410600002
 30
0.0
 40
0.016
 50
285.00000000070003
 51
360.0
  0
ARC
  5
48E
  8
0
 10
47.796144031099999
 20
42.66964377690001
 30
0.0
 40
0.0159999999999911
 50
359.99999999994913
 51
89.999279089013001
  0
ARC
  5
48F
  8
0
 10
49.869936278799997
 20
42.274287506299991
 30
0.0
 40
2.286999999999999
 50
186.0001484329
 51
189.34448069819999
  0
ARC
  5
490
  8
0
 10
49.868444268999987
 20
43.468037024499992
 30
0.0
 40
2.282
 50
172.0593744377
 51
175.04381276230001
  0
ARC
  5
491
  8
0
 10
49.868444268999987
 20
43.468037024499992
 30
0.0
 40
2.2370000000000001
 50
172.0593744377
 51
175.04381276219999
  0
ARC
  5
492
  8
0
 10
49.854601334510292
 20
42.272393938574801
 30
0.0
 40
2.201551147522387
 50
185.99285574929971
 51
190.17127182268729
  0
ARC
  5
493
  8
0
 10
49.51192610439999
 20
43.657743776899999
 30
0.0
 40
0.25
 50
7.2671664828999987
 51
76.310194887999984
  0
ARC
  5
494
  8
0
 10
49.51192610439999
 20
43.657743776899999
 30
0.0
 40
0.205
 50
7.2671664830999987
 51
79.545927806400002
  0
ARC
  5
495
  8
0
 10
49.607526104400002
 20
41.923043776900002
 30
0.0
 40
0.125
 50
278.37631736579999
 51
350.87415243870009
  0
ARC
  5
496
  8
0
 10
49.470508177699998
 20
42.644861927400001
 30
0.0
 40
0.061
 50
284.99999999959999
 51
360.0
  0
ARC
  5
497
  8
0
 10
49.222508177700007
 20
42.645170410600002
 30
0.0
 40
0.061
 50
180.0
 51
255.00000000049999
  0
ARC
  5
498
  8
0
 10
48.961123475199997
 20
42.896265897100001
 30
0.0
 40
0.06
 50
198.25763229879999
 51
251.74236770120001
  0
ARC
  5
499
  8
0
 10
48.961123475199997
 20
43.096385555299989
 30
0.0
 40
0.06
 50
108.2576322988
 51
161.74236770120001
  0
ARC
  5
49A
  8
0
 10
49.059644031099999
 20
43.156825726199997
 30
0.0
 40
0.0275
 50
0.0
 51
180.0
  0
ARC
  5
49B
  8
0
 10
49.184008177700008
 20
42.708143776900002
 30
0.0
 40
0.0225
 50
0.0
 51
180.0
  0
ARC
  5
49C
  8
0
 10
49.625405703821542
 20
41.815845190666941
 30
0.0
 40
0.0164712919285244
 50
180.70064002542171
 51
271.14682189889498
  0
ARC
  5
49D
  8
0
 10
49.624935643400001
 20
41.8536437769
 30
0.0
 40
0.016
 50
89.962787576899984
 51
180.0
  0
ARC
  5
49E
  8
0
 10
49.640936283000002
 20
41.885643776899997
 30
0.0
 40
0.016
 50
267.30122793800001
 51
350.58087879970009
  0
ARC
  5
49F
  8
0
 10
49.72006464239999
 20
42.669643776900003
 30
0.0
 40
0.016
 50
358.53268539269999
 51
89.999999999899998
  0
ARC
  5
4A0
  8
0
 10
49.547508177700003
 20
42.669643776900003
 30
0.0
 40
0.016
 50
90.0
 51
180.0
  0
ARC
  5
4A1
  8
0
 10
49.222508177700007
 20
42.645170410600002
 30
0.0
 40
0.016
 50
180.0
 51
255.00000000189999
  0
ARC
  5
4A2
  8
0
 10
49.470508177699998
 20
42.645170410600002
 30
0.0
 40
0.016
 50
285.00000000019998
 51
360.0
  0
ARC
  5
4A3
  8
0
 10
49.502508177700001
 20
42.714643776899997
 30
0.0
 40
0.016
 50
89.999700428099999
 51
180.0
  0
ARC
  5
4A4
  8
0
 10
49.747424962499998
 20
42.746643776900001
 30
0.0
 40
0.016
 50
269.51477401030002
 51
358.61248754019999
  0
ARC
  5
4A5
  8
0
 10
51.98319429239578
 20
42.855013634395689
 30
0.0
 40
4.499950266622843
 50
170.46477025083979
 51
189.68028703196001
  0
ARC
  5
4A6
  8
0
 10
51.983244031099993
 20
42.855009518199999
 30
0.0
 40
4.4550000000000001
 50
170.87082811580001
 51
181.3964758553
  0
ARC
  5
4A7
  8
0
 10
51.983233780033437
 20
42.855008773307489
 30
0.0
 40
4.4299897266949779
 50
182.40683754937831
 51
189.40383113029219
  0
ARC
  5
FB9
  8
0
 10
48.954132434498803
 20
43.114105181099987
 30
0.0
 40
0.0409966327202617
 50
116.3247915854745
 51
253.26269509762949
  0
ARC
  5
FBA
  8
0
 10
49.03298326773627
 20
42.996325726200013
 30
0.0
 40
0.1199335786214018
 50
139.10364819490789
 51
220.89635180509489
  0
ARC
  5
FC4
  8
0
 10
48.954132434498803
 20
42.878546271299989
 30
0.0
 40
0.0409966327202617
 50
106.7373049023676
 51
243.67520841418349
  0
LINE
  5
FEB
  8
0
 10
48.247144031099992
 20
43.200565987199987
 30
0.0
 11
48.232144031099992
 21
43.215565987199987
 31
0.0
  0
LINE
  5
FEC
  8
0
 10
47.872144031099992
 20
42.650835465199989
 30
0.0
 11
47.902144031099994
 21
42.620835465200003
 31
0.0
  0
LINE
  5
FEE
  8
0
 10
48.430144031099992
 20
43.115182974
 30
0.0
 11
48.430144031099992
 21
42.877468478300003
 31
0.0
  0
LINE
  5
FEF
  8
0
 10
48.327144031099991
 20
43.163825726199988
 30
0.0
 11
48.327144031099991
 21
42.828825726200002
 31
0.0
  0
LINE
  5
FF0
  8
0
 10
48.302144031099992
 20
42.563643776900001
 30
0.0
 11
48.302144031099992
 21
43.156825726199997
 31
0.0
  0
LINE
  5
FF1
  8
0
 10
48.247144031099992
 20
43.200565771699992
 30
0.0
 11
48.247144031099992
 21
43.156825726199997
 31
0.0
  0
LINE
  5
FF2
  8
0
 10
48.247144031099992
 20
42.563643776900001
 30
0.0
 11
48.247144031099992
 21
43.156825726199997
 31
0.0
  0
LINE
  5
FF3
  8
0
 10
48.232144031099992
 20
43.215565987199987
 30
0.0
 11
48.232144031099992
 21
42.777085465200003
 31
0.0
  0
LINE
  5
FF4
  8
0
 10
48.122144031099992
 20
43.341815795000002
 30
0.0
 11
48.122144031099992
 21
42.650835657399988
 31
0.0
  0
LINE
  5
FF5
  8
0
 10
48.092144031099991
 20
43.371815987199987
 30
0.0
 11
48.092144031099991
 21
42.620835465157782
 31
0.0
  0
LINE
  5
FF6
  8
0
 10
47.902144031099994
 20
42.620835465200003
 30
0.0
 11
47.902144031099994
 21
43.371815987199987
 31
0.0
  0
LINE
  5
FF9
  8
0
 10
47.872144031099992
 20
42.650835657399988
 30
0.0
 11
47.872144031099992
 21
43.341815795000002
 31
0.0
  0
LINE
  5
FFB
  8
0
 10
48.122144031099992
 20
42.650835465199989
 30
0.0
 11
48.092144031042309
 21
42.620835465142321
 31
0.0
  0
LINE
  5
FFC
  8
0
 10
48.247144031099992
 20
42.792085465200003
 30
0.0
 11
48.232144031099992
 21
42.777085465200003
 31
0.0
  0
LINE
  5
FFD
  8
0
 10
47.872144031099992
 20
43.341815795000002
 30
0.0
 11
47.902144031099994
 21
43.371815987199987
 31
0.0
  0
LINE
  5
1000
  8
0
 10
48.232144031099992
 20
42.777085465200003
 30
0.0
 11
48.122144031099992
 21
42.777085465200003
 31
0.0
  0
LINE
  5
1001
  8
0
 10
48.327144031099991
 20
42.828825726200002
 30
0.0
 11
48.302144031099992
 21
42.828825726200002
 31
0.0
  0
LINE
  5
1002
  8
0
 10
48.391962005699988
 20
42.839286453
 30
0.0
 11
48.327144031099991
 21
42.839286453
 31
0.0
  0
LINE
  5
1003
  8
0
 10
48.391962005699988
 20
42.917806089599992
 30
0.0
 11
48.327144031099991
 21
42.917806089599992
 31
0.0
  0
LINE
  5
1004
  8
0
 10
48.391962005699988
 20
43.074845362799991
 30
0.0
 11
48.327144031099991
 21
43.074845362799991
 31
0.0
  0
LINE
  5
1005
  8
0
 10
48.391962005699988
 20
43.15336499939999
 30
0.0
 11
48.327144031099991
 21
43.15336499939999
 31
0.0
  0
LINE
  5
1006
  8
0
 10
48.327144031099991
 20
43.163825726199988
 30
0.0
 11
48.302144031099992
 21
43.163825726199988
 31
0.0
  0
LINE
  5
1007
  8
0
 10
48.232144031099992
 20
43.215565987199987
 30
0.0
 11
48.122144031099992
 21
43.215565987199987
 31
0.0
  0
ARC
  5
1008
  8
0
 10
48.373164586999977
 20
42.896265897100001
 30
0.0
 40
0.06
 50
288.25763229879971
 51
341.74236770120001
  0
ARC
  5
1009
  8
0
 10
48.373164586999977
 20
43.096385555299989
 30
0.0
 40
0.06
 50
18.257632298800051
 51
71.742367701200294
  0
ARC
  5
100A
  8
0
 10
48.274644031099989
 20
43.156825726199997
 30
0.0
 40
0.0275
 50
0.000000000000007
 51
180.0
  0
ARC
  5
100B
  8
0
 10
48.380155627701178
 20
43.114105181099987
 30
0.0
 40
0.0409966327202617
 50
286.73730490237023
 51
63.675208414525429
  0
ARC
  5
100C
  8
0
 10
48.301304794463711
 20
42.996325726200013
 30
0.0
 40
0.1199335786214018
 50
319.10364819490508
 51
40.896351805092181
  0
ARC
  5
100D
  8
0
 10
48.380155627701178
 20
42.878546271299989
 30
0.0
 40
0.0409966327202617
 50
296.32479158581651
 51
73.262695097632417
  0
LINE
  5
100E
  8
0
 10
48.122144031099992
 20
43.341815795000002
 30
0.0
 11
48.092144031099998
 21
43.371815987199987
 31
0.0
  0
LINE
  5
100F
  8
0
 10
48.092144031099998
 20
43.371815987199987
 30
0.0
 11
47.902144031099994
 21
43.371815987199987
 31
0.0
  0
LINE
  5
1010
  8
0
 10
48.302144031099999
 20
43.163825726199988
 30
0.0
 11
48.302144031099999
 21
43.156825726200722
 31
0.0
  0
LINE
  5
1013
  8
0
 10
47.735993846599989
 20
-25.874356223100001
 30
0.0
 11
47.828935643400001
 21
-25.874356223100001
 31
0.0
  0
ARC
  5
1014
  8
0
 10
47.744935643399991
 20
-25.890356223099989
 30
0.0
 40
0.0159999999999901
 50
90.0
 51
180.00000000002541
  0
LINE
  5
1015
  8
0
 10
47.7289356434
 20
-25.8903562231
 30
0.0
 11
47.7289356434
 21
-25.9083562231
 31
0.0
  0
ARC
  5
1016
  8
0
 10
47.744935643400012
 20
-25.9083562231
 30
0.0
 40
0.0160000000000054
 50
179.99999999998741
 51
269.99999999997448
  0
LINE
  5
1018
  8
0
 10
49.332644031099989
 20
-25.205723786193339
 30
0.0
 11
49.332644031099989
 21
-25.191230295693341
 31
0.0
  0
ARC
  5
1019
  8
0
 10
49.310836532110429
 20
-25.193635840538288
 30
0.0
 40
0.0219397734304858
 50
6.2947424553110176
 51
77.952182965437672
  0
LINE
  5
101A
  8
0
 10
49.228644031100004
 20
-25.171039795300011
 30
0.0
 11
49.282784310538339
 21
-25.171039795300011
 31
0.0
  0
ARC
  5
1025
  8
0
 10
49.437713726807878
 20
-25.444722942007761
 30
0.0
 40
0.00631723006767
 50
269.367863623326
 51
350.03450212250732
  0
ARC
  5
1028
  8
0
 10
49.4376440311
 20
-25.173763530354229
 30
0.0
 40
0.239
 50
283.62283935127851
 51
290.39562455327729
  0
ARC
  5
102B
  8
0
 10
46.02930323505884
 20
8.0912001932515984
 30
0.0
 40
0.1060568611768053
 50
188.62825989888671
 51
264.70122053866447
  0
ARC
  5
102C
  8
0
 10
46.678037753736568
 20
8.5175747976894325
 30
0.0
 40
0.8737940532658814
 50
199.75518143200631
 51
210.40884040008609
  0
ARC
  5
102D
  8
0
 10
46.029311931354712
 20
8.9974467037622574
 30
0.0
 40
0.106066142513361
 50
95.320240817107234
 51
171.37001193547371
  0
ARC
  5
102E
  8
0
 10
46.678037753736568
 20
8.5710766547105681
 30
0.0
 40
0.8737940532658814
 50
149.59115959991379
 51
160.2448185679936
  0
ATTDEF
  5
147D
  8
DEFPOINTS
 10
48.670458234603828
 20
-25.93816320060477
 30
0.0
 40
0.001
  1
ALUMINUM/GLASS
  3

  2
MATERIAL
 70
     0
1001
ACDBATTR
1070
     0
1070
     1
  0
ATTDEF
  5
147E
  8
DEFPOINTS
 10
48.670458234603828
 20
-25.936496533938111
 30
0.0
 40
0.001
  1
SHOWER DOOR
  3

  2
PRODUCT
 70
     0
1001
ACDBATTR
1070
     0
1070
     1
  0
ATTDEF
  5
147F
  8
DEFPOINTS
 10
48.670458234603828
 20
-25.934829867271439
 30
0.0
 40
0.001
  1
DELUXE
  3

  2
TRADENAME
 70
     0
1001
ACDBATTR
1070
     0
1070
     1
  0
ATTDEF
  5
1480
  8
DEFPOINTS
 10
48.670458234603828
 20
-25.933163200604771
 30
0.0
 40
0.001
  1
5976-48
  3

  2
MODELNUMBER
 70
     0
1001
ACDBATTR
1070
     0
1070
     1
  0
ENDSEC
  0
EOF
