  0
SECTION
  2
HEADER
  9
$ACADVER
  1
AC1009
  9
$INSBASE
 10
8.1134364358999989
 20
-25.924356223099998
 30
0.0
  9
$EXTMIN
 10
-16.276563564100002
 20
-25.93816320060477
 30
0.0
  9
$EXTMAX
 10
32.503436435899999
 20
44.009643776900013
 30
0.0
  9
$LIMMIN
 10
0.0
 20
0.0
  9
$LIMMAX
 10
22.0
 20
17.0
  9
$ORTHOMODE
 70
     1
  9
$REGENMODE
 70
     1
  9
$FILLMODE
 70
     1
  9
$QTEXTMODE
 70
     0
  9
$MIRRTEXT
 70
     0
  9
$DRAGMODE
 70
     2
  9
$LTSCALE
 40
1.2099999999999991
  9
$OSMODE
 70
  3071
  9
$ATTMODE
 70
     1
  9
$TEXTSIZE
 40
0.2
  9
$TRACEWID
 40
0.05
  9
$TEXTSTYLE
  7
STANDARD
  9
$CLAYER
  8
0
  9
$CELTYPE
  6
BYLAYER
  9
$CECOLOR
 62
   256
  9
$DIMSCALE
 40
1.0
  9
$DIMASZ
 40
0.1875
  9
$DIMEXO
 40
0.0625
  9
$DIMDLI
 40
0.8359999999999999
  9
$DIMRND
 40
0.0
  9
$DIMDLE
 40
0.0
  9
$DIMEXE
 40
0.125
  9
$DIMTP
 40
0.0
  9
$DIMTM
 40
0.0
  9
$DIMTXT
 40
0.15625
  9
$DIMCEN
 40
0.198
  9
$DIMTSZ
 40
0.0
  9
$DIMTOL
 70
     0
  9
$DIMLIM
 70
     0
  9
$DIMTIH
 70
     1
  9
$DIMTOH
 70
     1
  9
$DIMSE1
 70
     0
  9
$DIMSE2
 70
     0
  9
$DIMTAD
 70
     0
  9
$DIMZIN
 70
     0
  9
$DIMBLK
  1

  9
$DIMASO
 70
     1
  9
$DIMSHO
 70
     1
  9
$DIMPOST
  1

  9
$DIMAPOST
  1

  9
$DIMALT
 70
     0
  9
$DIMALTD
 70
     2
  9
$DIMALTF
 40
25.399999999999999
  9
$DIMLFAC
 40
1.0
  9
$DIMTOFL
 70
     0
  9
$DIMTVP
 40
0.0
  9
$DIMTIX
 70
     0
  9
$DIMSOXD
 70
     0
  9
$DIMSAH
 70
     0
  9
$DIMBLK1
  1

  9
$DIMBLK2
  1

  9
$DIMSTYLE
  2
STANDARD
  9
$DIMCLRD
 70
     0
  9
$DIMCLRE
 70
     0
  9
$DIMCLRT
 70
     0
  9
$DIMTFAC
 40
1.0
  9
$DIMGAP
 40
0.09
  9
$LUNITS
 70
     2
  9
$LUPREC
 70
     4
  9
$SKETCHINC
 40
0.1
  9
$FILLETRAD
 40
0.0
  9
$AUNITS
 70
     0
  9
$AUPREC
 70
     0
  9
$MENU
  1
.
  9
$ELEVATION
 40
0.0
  9
$PELEVATION
 40
0.0
  9
$THICKNESS
 40
0.0
  9
$LIMCHECK
 70
     0
  9
$BLIPMODE
 70
     0
  9
$CHAMFERA
 40
0.0
  9
$CHAMFERB
 40
0.0
  9
$SKPOLY
 70
     0
  9
$TDCREATE
 40
2458127.5979047222
  9
$TDUPDATE
 40
2458141.7591220601
  9
$TDINDWG
 40
0.1333993403
  9
$TDUSRTIMER
 40
0.1333993403
  9
$USRTIMER
 70
     1
  9
$ANGBASE
 50
0.0
  9
$ANGDIR
 70
     0
  9
$PDMODE
 70
     0
  9
$PDSIZE
 40
0.3125
  9
$PLINEWID
 40
0.0
  9
$COORDS
 70
     1
  9
$SPLFRAME
 70
     0
  9
$SPLINETYPE
 70
     6
  9
$SPLINESEGS
 70
     8
  9
$ATTDIA
 70
     1
  9
$ATTREQ
 70
     1
  9
$HANDLING
 70
     1
  9
$HANDSEED
  5
1875
  9
$SURFTAB1
 70
     6
  9
$SURFTAB2
 70
     6
  9
$SURFTYPE
 70
     6
  9
$SURFU
 70
     6
  9
$SURFV
 70
     6
  9
$UCSNAME
  2

  9
$UCSORG
 10
0.0
 20
0.0
 30
0.0
  9
$UCSXDIR
 10
1.0
 20
0.0
 30
0.0
  9
$UCSYDIR
 10
0.0
 20
1.0
 30
0.0
  9
$PUCSNAME
  2

  9
$PUCSORG
 10
0.0
 20
0.0
 30
0.0
  9
$PUCSXDIR
 10
1.0
 20
0.0
 30
0.0
  9
$PUCSYDIR
 10
0.0
 20
1.0
 30
0.0
  9
$USERI1
 70
     0
  9
$USERI2
 70
     0
  9
$USERI3
 70
     0
  9
$USERI4
 70
     0
  9
$USERI5
 70
     0
  9
$USERR1
 40
0.0
  9
$USERR2
 40
0.0
  9
$USERR3
 40
0.0
  9
$USERR4
 40
0.0
  9
$USERR5
 40
0.0
  9
$WORLDVIEW
 70
     1
  9
$SHADEDGE
 70
     3
  9
$SHADEDIF
 70
    70
  9
$TILEMODE
 70
     1
  9
$MAXACTVP
 70
    48
  9
$PLIMCHECK
 70
     0
  9
$PEXTMIN
 10
1.0000000000000000E+020
 20
1.0000000000000000E+020
 30
1.0000000000000000E+020
  9
$PEXTMAX
 10
-1.0000000000000000E+020
 20
-1.0000000000000000E+020
 30
-1.0000000000000000E+020
  9
$PLIMMIN
 10
0.0
 20
0.0
  9
$PLIMMAX
 10
12.0
 20
9.0
  9
$UNITMODE
 70
     0
  9
$VISRETAIN
 70
     1
  9
$PLINEGEN
 70
     0
  9
$PSLTSCALE
 70
     1
  0
ENDSEC
  0
SECTION
  2
TABLES
  0
TABLE
  2
VPORT
 70
     1
  0
VPORT
  2
*ACTIVE
 70
     0
 10
0.0
 20
0.0
 11
1.0
 21
1.0
 12
0.0
 22
0.0
 13
0.0
 23
0.0
 14
1.0
 24
1.0
 15
0.0
 25
0.0
 16
-0.0000000000000533
 26
0.0
 36
238.2495998081271
 17
8.1134364358999989
 27
9.0357402881476183
 37
0.0
 40
85.285036686679888
 41
2.0811403508771931
 42
50.0
 43
0.0
 44
0.0
 50
0.0
 51
0.0
 71
     0
 72
   100
 73
     1
 74
     1
 75
     0
 76
     0
 77
     0
 78
     0
  0
ENDTAB
  0
TABLE
  2
LTYPE
 70
     2
  0
LTYPE
  2
CONTINUOUS
 70
     0
  3
Solid line
 72
    65
 73
     0
 40
0.0
  0
LTYPE
  2
PHANTOM2
 70
     0
  3
___ _ _ ___ _ _ ___ _ _ ___ _ _
 72
    65
 73
     6
 40
1.25
 49
0.625
 49
-0.125
 49
0.125
 49
-0.125
 49
0.125
 49
-0.125
  0
ENDTAB
  0
TABLE
  2
LAYER
 70
     2
  0
LAYER
  2
0
 70
     0
 62
     7
  6
CONTINUOUS
  0
LAYER
  2
DEFPOINTS
 70
     0
 62
     7
  6
CONTINUOUS
  0
ENDTAB
  0
TABLE
  2
STYLE
 70
     1
  0
STYLE
  2
STANDARD
 70
     0
 40
0.0
 41
0.8
 50
0.0
 71
     0
 42
0.2
  3
txt
  4

  0
ENDTAB
  0
TABLE
  2
VIEW
 70
     0
  0
ENDTAB
  0
TABLE
  2
UCS
 70
     0
  0
ENDTAB
  0
TABLE
  2
APPID
 70
     5
  0
APPID
  2
ACAD
 70
     0
  0
APPID
  2
ACAD_MLEADERVER
 70
     0
  0
APPID
  2
ACAD_NAV_VCDISPLAY
 70
     0
  0
APPID
  2
ACAD_EXEMPT_FROM_CAD_STANDARDS
 70
     0
  0
APPID
  2
ACDBATTR
 70
     0
  0
ENDTAB
  0
TABLE
  2
DIMSTYLE
 70
     1
  0
DIMSTYLE
  2
STANDARD
 70
     0
  3

  4

  5

  6

  7

 40
1.0
 41
0.1875
 42
0.0625
 43
0.38
 44
0.125
 45
0.0
 46
0.0
 47
1.5
 48
1.5
140
0.15625
141
0.09
142
0.0
143
25.399999999999999
144
1.0
145
0.0
146
1.0
147
0.09
 71
     0
 72
     0
 73
     1
 74
     1
 75
     0
 76
     0
 77
     0
 78
     4
170
     0
171
     2
172
     0
173
     0
174
     0
175
     0
176
     0
177
     0
178
     0
  0
ENDTAB
  0
ENDSEC
  0
SECTION
  2
BLOCKS
  0
BLOCK
  8
0
  2
$MODEL_SPACE
 70
     0
 10
0.0
 20
0.0
 30
0.0
  3
$MODEL_SPACE
  1

  0
ENDBLK
  5
21
  8
0
  0
BLOCK
 67
     1
  8
0
  2
$PAPER_SPACE
 70
     0
 10
0.0
 20
0.0
 30
0.0
  3
$PAPER_SPACE
  1

  0
ENDBLK
  5
1D
 67
     1
  8
0
  0
ENDSEC
  0
SECTION
  2
ENTITIES
  0
LINE
  5
242
  8
0
 10
-16.276563564100002
 20
-25.874356223100001
 30
0.0
 11
32.503436435899999
 21
-25.874356223100001
 31
0.0
  0
LINE
  5
247
  8
0
 10
7.4062022452999994
 20
-25.018674273800009
 30
0.0
 11
-14.343797754700001
 21
-25.018674273800009
 31
0.0
  0
LINE
  5
24B
  8
0
 10
-15.242563564099999
 20
-24.568365036100001
 30
0.0
 11
-14.343797754700001
 21
-24.568365036100001
 31
0.0
  0
LINE
  5
24C
  8
0
 10
7.4062022452999994
 20
-24.568365036100001
 30
0.0
 11
31.469436435900001
 21
-24.568365036100001
 31
0.0
  0
LINE
  5
250
  8
0
 10
-14.343797754700001
 20
-24.018674273799999
 30
0.0
 11
7.4062022452999994
 21
-24.018674273799999
 31
0.0
  0
LINE
  5
251
  8
0
 10
9.0209680547000008
 20
-24.018674273799999
 30
0.0
 11
30.770968054699999
 21
-24.018674273799999
 31
0.0
  0
LINE
  5
257
  8
0
 10
-16.276563564100002
 20
44.009643776900013
 30
0.0
 11
-16.276563564100002
 21
-25.874356223100001
 31
0.0
  0
LINE
  5
25A
  8
0
 10
-16.213563564099999
 20
-25.874356223100001
 30
0.0
 11
-16.213563564099999
 21
-25.924356223099998
 31
0.0
  0
LINE
  5
25C
  8
0
 10
-16.095563564100001
 20
41.799555236499998
 30
0.0
 11
-16.095563564100001
 21
-25.874356223100001
 31
0.0
  0
LINE
  5
25D
  8
0
 10
-15.4235635641
 20
-25.874356223100001
 30
0.0
 11
-15.4235635641
 21
41.799555236499998
 31
0.0
  0
LINE
  5
260
  8
0
 10
-15.242563564099999
 20
41.799555236499998
 30
0.0
 11
-15.242563564099999
 21
-25.874356223100001
 31
0.0
  0
LINE
  5
262
  8
0
 10
-15.172342387900001
 20
-24.568365036100001
 30
0.0
 11
-15.172342387900001
 21
41.799555236499998
 31
0.0
  0
LINE
  5
263
  8
0
 10
-14.9935635641
 20
8.1150317753000003
 30
0.0
 11
-14.9935635641
 21
8.9736190540000003
 31
0.0
  0
LINE
  5
265
  8
0
 10
-14.7435635641
 20
8.9736008895000001
 30
0.0
 11
-14.743563503300001
 21
8.1149135167999997
 31
0.0
  0
LINE
  5
268
  8
0
 10
-14.562485244299999
 20
9.096570211351473
 30
0.0
 11
-14.562485244299999
 21
41.799555236499998
 31
0.0
  0
LINE
  5
271
  8
0
 10
-14.4991048953
 20
9.0945061837216628
 30
0.0
 11
-14.4991048953
 21
7.9941452687386354
 31
0.0
  0
LINE
  5
27B
  8
0
 10
-14.343797754700001
 20
41.799555236499998
 30
0.0
 11
-14.343797754700001
 21
9.0943257261999992
 31
0.0
  0
LINE
  5
27C
  8
0
 10
-14.343797754700001
 20
-24.018674273799999
 30
0.0
 11
-14.343797754700001
 21
-25.018674273800009
 31
0.0
  0
LINE
  5
287
  8
0
 10
7.4062022453000003
 20
9.0943257261999992
 30
0.0
 11
7.4062022452999994
 21
41.799555236499998
 31
0.0
  0
LINE
  5
28D
  8
0
 10
7.5608951047000001
 20
7.994165163686894
 30
0.0
 11
7.5608951047000001
 21
9.094486179149591
 31
0.0
  0
LINE
  5
291
  8
0
 10
7.6244724869000002
 20
41.799555236499998
 30
0.0
 11
7.6244724869000002
 21
9.0965566226200991
 31
0.0
  0
LINE
  5
294
  8
0
 10
7.8059680547000001
 20
8.1150505628000005
 30
0.0
 11
7.8059679938999986
 21
8.9737379355999991
 31
0.0
  0
LINE
  5
296
  8
0
 10
8.0559680546999992
 20
8.9736196770000003
 30
0.0
 11
8.0559680546999992
 21
8.1150323983000003
 31
0.0
  0
LINE
  5
297
  8
0
 10
8.2347502830999986
 20
41.799555236499998
 30
0.0
 11
8.2347502830999986
 21
-24.568365036100001
 31
0.0
  0
LINE
  5
29A
  8
0
 10
8.4059680547000006
 20
41.799555236499998
 30
0.0
 11
8.4059680547000006
 21
-24.568365036100001
 31
0.0
  0
LINE
  5
2A7
  8
0
 10
7.935330811
 20
7.9901129808000002
 30
0.0
 11
7.68528751162233
 21
7.990111468784959
 31
0.0
  0
LINE
  5
2A8
  8
0
 10
-14.622925632799999
 20
7.9901129567999991
 30
0.0
 11
-14.8729263274
 21
7.9901129810000002
 31
0.0
  0
LINE
  5
2A9
  8
0
 10
7.5559680547000001
 20
7.9943257261999996
 30
0.0
 11
-14.4935635641
 21
7.9943257261999996
 31
0.0
  0
LINE
  5
2AF
  8
0
 10
-14.4991048953
 20
8.2222308086000009
 30
0.0
 11
7.5608951047000001
 21
8.2222308086000009
 31
0.0
  0
LINE
  5
2B4
  8
0
 10
-14.4991048953
 20
8.8664206437999997
 30
0.0
 11
7.5608951047000001
 21
8.8664206437999997
 31
0.0
  0
LINE
  5
2BA
  8
0
 10
-14.4935635641
 20
9.0943257261999992
 30
0.0
 11
7.5559680547000001
 21
9.0943257261999992
 31
0.0
  0
LINE
  5
2BB
  8
0
 10
-14.8729263205
 20
9.0985384715999995
 30
0.0
 11
-14.622925610399999
 21
9.0985384962999998
 31
0.0
  0
LINE
  5
2BC
  8
0
 10
7.6853301233
 20
9.0985384955999997
 30
0.0
 11
7.9353308179999988
 21
9.0985384712999995
 31
0.0
  0
LINE
  5
2CC
  8
0
 10
8.8168892156999998
 20
41.799555236499998
 30
0.0
 11
8.8168892156999998
 21
-24.568365036100001
 31
0.0
  0
LINE
  5
2CF
  8
0
 10
9.0209633633346247
 20
41.799555236499998
 30
0.0
 11
9.0209680547000008
 21
-24.568365036100001
 31
0.0
  0
LINE
  5
2E2
  8
0
 10
30.770972776099999
 20
-24.568365036100001
 30
0.0
 11
30.770972776099999
 21
41.799555236499998
 31
0.0
  0
LINE
  5
2E4
  8
0
 10
30.9750468937
 20
-24.568365036100001
 30
0.0
 11
30.9750468937
 21
41.799555236499998
 31
0.0
  0
LINE
  5
2E5
  8
0
 10
31.469436435900001
 20
-25.874356223100001
 30
0.0
 11
31.469436435900001
 21
41.799555236499998
 31
0.0
  0
LINE
  5
2EC
  8
0
 10
31.650436435900001
 20
41.799555236499998
 30
0.0
 11
31.650436435900001
 21
-25.874356223100001
 31
0.0
  0
LINE
  5
2ED
  8
0
 10
32.322436435900002
 20
-25.874356223100001
 30
0.0
 11
32.322436435900002
 21
41.799555236499998
 31
0.0
  0
LINE
  5
2EF
  8
0
 10
32.411436435900001
 20
-25.924356223099998
 30
0.0
 11
32.411436435900001
 21
-25.874356223100001
 31
0.0
  0
LINE
  5
2F1
  8
0
 10
32.503436435899999
 20
41.799579432299993
 30
0.0
 11
32.503436435899999
 21
-25.874356223100001
 31
0.0
  0
LINE
  5
2F2
  8
0
 10
32.503436435899999
 20
41.799579432299993
 30
0.0
 11
32.503436435899999
 21
44.009643776899999
 31
0.0
  0
LINE
  5
2F7
  8
0
 10
30.770968054699999
 20
41.122325726199989
 30
0.0
 11
9.0209680547000008
 21
41.122325726199989
 31
0.0
  0
LINE
  5
2F8
  8
0
 10
7.4062022452999994
 20
41.122325726199989
 30
0.0
 11
-14.343797754700001
 21
41.122325726199989
 31
0.0
  0
LINE
  5
2FD
  8
0
 10
32.503436435899999
 20
41.799555236499998
 30
0.0
 11
-16.276563564100002
 21
41.799555236499998
 31
0.0
  0
LINE
  5
300
  8
0
 10
-16.276563564100002
 20
42.067893777199991
 30
0.0
 11
32.503436435899999
 21
42.067893777199991
 31
0.0
  0
LINE
  5
304
  8
0
 10
-16.276563564100002
 20
43.665188018899997
 30
0.0
 11
32.503436435899999
 21
43.665188018899997
 31
0.0
  0
LINE
  5
308
  8
0
 10
32.503436435899999
 20
44.009643776899999
 30
0.0
 11
-16.276563564100002
 21
44.009643776899999
 31
0.0
  0
ARC
  5
412
  8
0
 10
-14.6185635641
 20
8.1150368229999987
 30
0.0
 40
0.125
 50
179.97220820519999
 51
268.0001684179075
  0
ARC
  5
413
  8
0
 10
-14.86856356407397
 20
8.1150368230105183
 30
0.0
 40
0.1250000000260312
 50
180.00231369612149
 51
267.9998503726768
  0
ARC
  5
415
  8
0
 10
-14.6185635641
 20
8.9736146293000001
 30
0.0
 40
0.125
 50
91.999821074087436
 51
180.00629784910001
  0
ARC
  5
416
  8
0
 10
-14.8685635641
 20
8.9736146293000001
 30
0.0
 40
0.125
 50
91.997759643700007
 51
179.99797186000001
  0
ARC
  5
418
  8
0
 10
7.6809680416393338
 20
8.1150368282764855
 30
0.0
 40
0.1250000130600829
 50
271.98029323608711
 51
0.0062954298789513
  0
ARC
  5
419
  8
0
 10
7.9309680547000001
 20
8.1150368229999987
 30
0.0
 40
0.125
 50
271.99775964370002
 51
359.99797186000001
  0
ARC
  5
41B
  8
0
 10
7.6809680547000001
 20
8.9736146293000001
 30
0.0
 40
0.125
 50
359.97220820519999
 51
88.000169381011645
  0
ARC
  5
41C
  8
0
 10
7.9309680547000001
 20
8.9736146293000001
 30
0.0
 40
0.125
 50
0.0023136913
 51
88.001974734000001
  0
LINE
  5
FA5
  8
0
 10
7.5559680546999992
 20
9.0943257261999992
 30
0.0
 11
7.6853301233
 21
9.0985384955999997
 31
0.0
  0
LINE
  5
FA6
  8
0
 10
7.5559680547000001
 20
7.9943257261999996
 30
0.0
 11
7.68528751162233
 21
7.990111468784959
 31
0.0
  0
LINE
  5
FB0
  8
0
 10
-14.4935635641
 20
7.9943257261999996
 30
0.0
 11
-14.622925632799999
 21
7.9901129567999991
 31
0.0
  0
LINE
  5
FB1
  8
0
 10
-14.4935635641
 20
9.0943257261999992
 30
0.0
 11
-14.6229256110698
 21
9.098538496299998
 31
0.0
  0
LINE
  5
FB2
  8
0
 10
-14.562485244299999
 20
7.9920818639485267
 30
0.0
 11
-14.562485244299999
 21
-24.568365036100008
 31
0.0
  0
LINE
  5
FB3
  8
0
 10
-14.343797754700001
 20
-24.710903161200001
 30
0.0
 11
-14.343797754700001
 21
7.9943263491000014
 31
0.0
  0
LINE
  5
FB4
  8
0
 10
7.4062022453000003
 20
7.9943263491000014
 30
0.0
 11
7.4062022452999994
 21
-25.018674273800009
 31
0.0
  0
LINE
  5
FB6
  8
0
 10
7.6244724869000002
 20
-24.568365036100001
 30
0.0
 11
7.6244724869000002
 21
7.9920954526799006
 31
0.0
  0
ATTDEF
  5
1479
  8
DEFPOINTS
 10
8.1089753178462054
 20
-25.93816320060477
 30
0.0
 40
0.001
  1
ALUMINUM/GLASS
  3

  2
MATERIAL
 70
     0
1001
ACDBATTR
1070
     0
1070
     1
  0
ATTDEF
  5
147A
  8
DEFPOINTS
 10
8.1089753178462054
 20
-25.936496533938111
 30
0.0
 40
0.001
  1
SHOWER DOOR
  3

  2
PRODUCT
 70
     0
1001
ACDBATTR
1070
     0
1070
     1
  0
ATTDEF
  5
147B
  8
DEFPOINTS
 10
8.1089753178462054
 20
-25.934829867271439
 30
0.0
 40
0.001
  1
DELUXE
  3

  2
TRADENAME
 70
     0
1001
ACDBATTR
1070
     0
1070
     1
  0
ATTDEF
  5
147C
  8
DEFPOINTS
 10
8.1089753178462054
 20
-25.933163200604771
 30
0.0
 40
0.001
  1
5976-48
  3

  2
MODELNUMBER
 70
     0
1001
ACDBATTR
1070
     0
1070
     1
  0
LINE
  5
169F
  8
0
 10
-16.213563564099999
 20
-25.924356223099998
 30
0.0
 11
32.411436435900001
 21
-25.924356223099998
 31
0.0
  0
ENDSEC
  0
EOF
