  0
SECTION
  2
HEADER
  9
$ACADVER
  1
AC1009
  9
$INSBASE
 10
-33.366886692068391
 20
-27.813939404700001
 30
0.0
  9
$EXTMIN
 10
-36.239428199400002
 20
-27.828123502730211
 30
0.0
  9
$EXTMAX
 10
-32.231562002700002
 20
42.120011405206078
 30
0.0
  9
$LIMMIN
 10
0.0
 20
0.0
  9
$LIMMAX
 10
22.0
 20
17.0
  9
$ORTHOMODE
 70
     1
  9
$REGENMODE
 70
     1
  9
$FILLMODE
 70
     1
  9
$QTEXTMODE
 70
     0
  9
$MIRRTEXT
 70
     0
  9
$DRAGMODE
 70
     2
  9
$LTSCALE
 40
1.2099999999999991
  9
$OSMODE
 70
    39
  9
$ATTMODE
 70
     1
  9
$TEXTSIZE
 40
0.2
  9
$TRACEWID
 40
0.05
  9
$TEXTSTYLE
  7
STANDARD
  9
$CLAYER
  8
0
  9
$CELTYPE
  6
BYLAYER
  9
$CECOLOR
 62
   256
  9
$DIMSCALE
 40
1.0
  9
$DIMASZ
 40
0.1875
  9
$DIMEXO
 40
0.0625
  9
$DIMDLI
 40
0.8359999999999999
  9
$DIMRND
 40
0.0
  9
$DIMDLE
 40
0.0
  9
$DIMEXE
 40
0.125
  9
$DIMTP
 40
0.0
  9
$DIMTM
 40
0.0
  9
$DIMTXT
 40
0.15625
  9
$DIMCEN
 40
0.198
  9
$DIMTSZ
 40
0.0
  9
$DIMTOL
 70
     0
  9
$DIMLIM
 70
     0
  9
$DIMTIH
 70
     1
  9
$DIMTOH
 70
     1
  9
$DIMSE1
 70
     0
  9
$DIMSE2
 70
     0
  9
$DIMTAD
 70
     0
  9
$DIMZIN
 70
     0
  9
$DIMBLK
  1

  9
$DIMASO
 70
     1
  9
$DIMSHO
 70
     1
  9
$DIMPOST
  1

  9
$DIMAPOST
  1

  9
$DIMALT
 70
     0
  9
$DIMALTD
 70
     2
  9
$DIMALTF
 40
25.399999999999999
  9
$DIMLFAC
 40
1.0
  9
$DIMTOFL
 70
     0
  9
$DIMTVP
 40
0.0
  9
$DIMTIX
 70
     0
  9
$DIMSOXD
 70
     0
  9
$DIMSAH
 70
     0
  9
$DIMBLK1
  1

  9
$DIMBLK2
  1

  9
$DIMSTYLE
  2
STANDARD
  9
$DIMCLRD
 70
     0
  9
$DIMCLRE
 70
     0
  9
$DIMCLRT
 70
     0
  9
$DIMTFAC
 40
1.0
  9
$DIMGAP
 40
0.09
  9
$LUNITS
 70
     2
  9
$LUPREC
 70
     4
  9
$SKETCHINC
 40
0.1
  9
$FILLETRAD
 40
0.0
  9
$AUNITS
 70
     0
  9
$AUPREC
 70
     0
  9
$MENU
  1
.
  9
$ELEVATION
 40
0.0
  9
$PELEVATION
 40
0.0
  9
$THICKNESS
 40
0.0
  9
$LIMCHECK
 70
     0
  9
$BLIPMODE
 70
     0
  9
$CHAMFERA
 40
0.0
  9
$CHAMFERB
 40
0.0
  9
$SKPOLY
 70
     0
  9
$TDCREATE
 40
2458131.4935805672
  9
$TDUPDATE
 40
2458134.4905829281
  9
$TDINDWG
 40
2.8626196296000002
  9
$TDUSRTIMER
 40
2.8626196296000002
  9
$USRTIMER
 70
     1
  9
$ANGBASE
 50
0.0
  9
$ANGDIR
 70
     0
  9
$PDMODE
 70
     0
  9
$PDSIZE
 40
0.3125
  9
$PLINEWID
 40
0.0
  9
$COORDS
 70
     1
  9
$SPLFRAME
 70
     0
  9
$SPLINETYPE
 70
     6
  9
$SPLINESEGS
 70
     8
  9
$ATTDIA
 70
     1
  9
$ATTREQ
 70
     1
  9
$HANDLING
 70
     1
  9
$HANDSEED
  5
108D
  9
$SURFTAB1
 70
     6
  9
$SURFTAB2
 70
     6
  9
$SURFTYPE
 70
     6
  9
$SURFU
 70
     6
  9
$SURFV
 70
     6
  9
$UCSNAME
  2

  9
$UCSORG
 10
0.0
 20
0.0
 30
0.0
  9
$UCSXDIR
 10
1.0
 20
0.0
 30
0.0
  9
$UCSYDIR
 10
0.0
 20
1.0
 30
0.0
  9
$PUCSNAME
  2

  9
$PUCSORG
 10
0.0
 20
0.0
 30
0.0
  9
$PUCSXDIR
 10
1.0
 20
0.0
 30
0.0
  9
$PUCSYDIR
 10
0.0
 20
1.0
 30
0.0
  9
$USERI1
 70
     0
  9
$USERI2
 70
     0
  9
$USERI3
 70
     0
  9
$USERI4
 70
     0
  9
$USERI5
 70
     0
  9
$USERR1
 40
0.0
  9
$USERR2
 40
0.0
  9
$USERR3
 40
0.0
  9
$USERR4
 40
0.0
  9
$USERR5
 40
0.0
  9
$WORLDVIEW
 70
     1
  9
$SHADEDGE
 70
     3
  9
$SHADEDIF
 70
    70
  9
$TILEMODE
 70
     1
  9
$MAXACTVP
 70
    48
  9
$PLIMCHECK
 70
     0
  9
$PEXTMIN
 10
1.0000000000000000E+020
 20
1.0000000000000000E+020
 30
1.0000000000000000E+020
  9
$PEXTMAX
 10
-1.0000000000000000E+020
 20
-1.0000000000000000E+020
 30
-1.0000000000000000E+020
  9
$PLIMMIN
 10
0.0
 20
0.0
  9
$PLIMMAX
 10
12.0
 20
9.0
  9
$UNITMODE
 70
     0
  9
$VISRETAIN
 70
     1
  9
$PLINEGEN
 70
     0
  9
$PSLTSCALE
 70
     1
  0
ENDSEC
  0
SECTION
  2
TABLES
  0
TABLE
  2
VPORT
 70
     1
  0
VPORT
  2
*ACTIVE
 70
     0
 10
0.0
 20
0.0
 11
1.0
 21
1.0
 12
-33.077761225703711
 22
2.6800339536225328
 13
0.0
 23
0.0
 14
1.0
 24
1.0
 15
0.0
 25
0.0
 16
-0.0000000000000012
 26
0.0
 36
5.48607689483919
 17
0.0
 27
0.0
 37
0.0
 40
92.431708901117631
 41
2.0329087048832268
 42
50.0
 43
0.0
 44
0.0
 50
0.0
 51
0.0
 71
     0
 72
   100
 73
     1
 74
     1
 75
     0
 76
     0
 77
     0
 78
     0
  0
ENDTAB
  0
TABLE
  2
LTYPE
 70
     2
  0
LTYPE
  2
CONTINUOUS
 70
     0
  3
Solid line
 72
    65
 73
     0
 40
0.0
  0
LTYPE
  2
PHANTOM2
 70
     0
  3
___ _ _ ___ _ _ ___ _ _ ___ _ _
 72
    65
 73
     6
 40
1.25
 49
0.625
 49
-0.125
 49
0.125
 49
-0.125
 49
0.125
 49
-0.125
  0
ENDTAB
  0
TABLE
  2
LAYER
 70
     2
  0
LAYER
  2
0
 70
     0
 62
     7
  6
CONTINUOUS
  0
LAYER
  2
DEFPOINTS
 70
     0
 62
     7
  6
CONTINUOUS
  0
ENDTAB
  0
TABLE
  2
STYLE
 70
     1
  0
STYLE
  2
STANDARD
 70
     0
 40
0.0
 41
0.8
 50
0.0
 71
     0
 42
0.2
  3
txt
  4

  0
ENDTAB
  0
TABLE
  2
VIEW
 70
     0
  0
ENDTAB
  0
TABLE
  2
UCS
 70
     0
  0
ENDTAB
  0
TABLE
  2
APPID
 70
     5
  0
APPID
  2
ACAD
 70
     0
  0
APPID
  2
ACAD_MLEADERVER
 70
     0
  0
APPID
  2
ACAD_NAV_VCDISPLAY
 70
     0
  0
APPID
  2
ACAD_EXEMPT_FROM_CAD_STANDARDS
 70
     0
  0
APPID
  2
ACDBATTR
 70
     0
  0
ENDTAB
  0
TABLE
  2
DIMSTYLE
 70
     1
  0
DIMSTYLE
  2
STANDARD
 70
     0
  3

  4

  5

  6

  7

 40
1.0
 41
0.1875
 42
0.0625
 43
0.38
 44
0.125
 45
0.0
 46
0.0
 47
1.5
 48
1.5
140
0.15625
141
0.09
142
0.0
143
25.399999999999999
144
1.0
145
0.0
146
1.0
147
0.09
 71
     0
 72
     0
 73
     1
 74
     1
 75
     0
 76
     0
 77
     0
 78
     4
170
     0
171
     2
172
     0
173
     0
174
     0
175
     0
176
     0
177
     0
178
     0
  0
ENDTAB
  0
ENDSEC
  0
SECTION
  2
BLOCKS
  0
BLOCK
  8
0
  2
$MODEL_SPACE
 70
     0
 10
0.0
 20
0.0
 30
0.0
  3
$MODEL_SPACE
  1

  0
ENDBLK
  5
21
  8
0
  0
BLOCK
 67
     1
  8
0
  2
$PAPER_SPACE
 70
     0
 10
0.0
 20
0.0
 30
0.0
  3
$PAPER_SPACE
  1

  0
ENDBLK
  5
1D
 67
     1
  8
0
  0
ENDSEC
  0
SECTION
  2
ENTITIES
  0
LINE
  5
A42
  8
0
 10
-32.594797856200017
 20
-27.5472574554
 30
0.0
 11
-32.803797856200021
 21
-27.5472574554
 31
0.0
  0
LINE
  5
A43
  8
0
 10
-32.763797856200028
 20
-27.507257455400001
 30
0.0
 11
-32.755797856200019
 21
-27.507257455400001
 31
0.0
  0
LINE
  5
A44
  8
0
 10
-32.68379785620003
 20
-27.502257455399999
 30
0.0
 11
-32.594797856200017
 21
-27.502257455399999
 31
0.0
  0
LINE
  5
A45
  8
0
 10
-32.803797856200021
 20
-27.457257455400001
 30
0.0
 11
-32.795797856200032
 21
-27.457257455400001
 31
0.0
  0
LINE
  5
A46
  8
0
 10
-32.795797856200032
 20
-27.357257455399999
 30
0.0
 11
-32.803797856200021
 21
-27.357257455399999
 31
0.0
  0
LINE
  5
A47
  8
0
 10
-32.755797856200019
 20
-27.307257455399998
 30
0.0
 11
-32.763797856200028
 21
-27.307257455399998
 31
0.0
  0
LINE
  5
A48
  8
0
 10
-32.803797856200021
 20
-27.267257455399999
 30
0.0
 11
-32.715797856200027
 21
-27.267257455399999
 31
0.0
  0
LINE
  5
A49
  8
0
 10
-32.819797856200033
 20
-27.531257455399999
 30
0.0
 11
-32.819797856200033
 21
-27.473257455399992
 31
0.0
  0
LINE
  5
A4A
  8
0
 10
-32.819797856200033
 20
-27.341257455400001
 30
0.0
 11
-32.819797856200033
 21
-27.28325745539999
 31
0.0
  0
LINE
  5
A4B
  8
0
 10
-32.77979785620002
 20
-27.32325745539999
 30
0.0
 11
-32.77979785620002
 21
-27.341257455400001
 31
0.0
  0
LINE
  5
A4C
  8
0
 10
-32.77979785620002
 20
-27.473257455399992
 30
0.0
 11
-32.77979785620002
 21
-27.4912574554
 31
0.0
  0
LINE
  5
A4D
  8
0
 10
-32.739797856200028
 20
-27.4912574554
 30
0.0
 11
-32.739797856200028
 21
-27.32325745539999
 31
0.0
  0
LINE
  5
A4E
  8
0
 10
-32.699797856200021
 20
-27.28325745539999
 30
0.0
 11
-32.699797856200021
 21
-27.486257455400001
 31
0.0
  0
ARC
  5
A4F
  8
0
 10
-32.755797856200019
 20
-27.4912574554
 30
0.0
 40
0.016
 50
270.0
 51
0.0
  0
ARC
  5
A50
  8
0
 10
-32.763797856200028
 20
-27.4912574554
 30
0.0
 40
0.016
 50
180.0
 51
270.0
  0
ARC
  5
A51
  8
0
 10
-32.795797856200032
 20
-27.473257455399992
 30
0.0
 40
0.016
 50
0.0
 51
90.0
  0
ARC
  5
A52
  8
0
 10
-32.803797856200021
 20
-27.473257455399992
 30
0.0
 40
0.016
 50
90.0
 51
180.0
  0
ARC
  5
A53
  8
0
 10
-32.803797856200021
 20
-27.531257455399999
 30
0.0
 40
0.016
 50
180.0
 51
270.0
  0
ARC
  5
A54
  8
0
 10
-32.68379785620003
 20
-27.486257455400001
 30
0.0
 40
0.016
 50
180.0
 51
270.0
  0
ARC
  5
A55
  8
0
 10
-32.594797856200017
 20
-27.3082574554
 30
0.0
 40
0.239
 50
270.0
 51
288.02032788819918
  0
ARC
  5
A56
  8
0
 10
-32.594797856200017
 20
-27.3082574554
 30
0.0
 40
0.194
 50
270.0
 51
292.3999401966044
  0
ARC
  5
A57
  8
0
 10
-32.763797856200028
 20
-27.32325745539999
 30
0.0
 40
0.016
 50
90.0
 51
180.0
  0
ARC
  5
A58
  8
0
 10
-32.755797856200019
 20
-27.32325745539999
 30
0.0
 40
0.016
 50
0.0
 51
90.0
  0
ARC
  5
A59
  8
0
 10
-32.715797856200027
 20
-27.28325745539999
 30
0.0
 40
0.016
 50
0.0
 51
90.0
  0
ARC
  5
A5A
  8
0
 10
-32.803797856200021
 20
-27.28325745539999
 30
0.0
 40
0.016
 50
90.0
 51
180.0
  0
ARC
  5
A5B
  8
0
 10
-32.803797856200021
 20
-27.341257455400001
 30
0.0
 40
0.016
 50
180.0
 51
270.0
  0
ARC
  5
A5C
  8
0
 10
-32.795797856200032
 20
-27.341257455400001
 30
0.0
 40
0.016
 50
270.0
 51
0.0
  0
LINE
  5
A5D
  8
0
 10
-32.463870390399997
 20
-27.813939404700001
 30
0.0
 11
-32.819870390399998
 21
-27.813939404700001
 31
0.0
  0
LINE
  5
A5E
  8
0
 10
-34.178870390400007
 20
-27.813939404700001
 30
0.0
 11
-34.296870390400002
 21
-27.813939404700001
 31
0.0
  0
LINE
  5
A5F
  8
0
 10
-32.520870390399992
 20
-27.76393940469999
 30
0.0
 11
-32.427967756799987
 21
-27.76393940469999
 31
0.0
  0
LINE
  5
A60
  8
0
 10
-32.823150943100003
 20
-27.750834318999988
 30
0.0
 11
-32.520870390399992
 21
-27.761390188517549
 31
0.0
  0
LINE
  5
A61
  8
0
 10
-32.563870390399998
 20
-27.3539394047
 30
0.0
 11
-32.581870390399999
 21
-27.3539394047
 31
0.0
  0
LINE
  5
A62
  8
0
 10
-34.124830975199998
 20
-26.517939271499991
 30
0.0
 11
-34.136869878399992
 21
-26.517939271499991
 31
0.0
  0
LINE
  5
A63
  8
0
 10
-32.929378860302151
 20
-27.15765964343959
 30
0.0
 11
-34.126399562852399
 21
-27.11585885945594
 31
0.0
  0
LINE
  5
A64
  8
0
 10
-32.613378860301118
 20
-27.14868241563963
 30
0.0
 11
-32.847399562852708
 21
-27.14051033275592
 31
0.0
  0
LINE
  5
A65
  8
0
 10
-34.137361920498272
 20
-27.045432997460381
 30
0.0
 11
-32.56331199840001
 21
-27.100400171899999
 31
0.0
  0
LINE
  5
A66
  8
0
 10
-32.520870390399992
 20
-27.0689394047
 30
0.0
 11
-34.087870390399999
 21
-27.014218558900001
 31
0.0
  0
LINE
  5
A67
  8
0
 10
-34.3058054392
 20
-27.7639394047
 30
0.0
 11
-34.305812187199997
 21
40.674060595299991
 31
0.0
  0
LINE
  5
A68
  8
0
 10
-34.22966200270001
 20
40.7800605953
 30
0.0
 11
-34.22966200270001
 21
40.755278745799998
 31
0.0
  0
LINE
  5
A69
  8
0
 10
-34.212870390399999
 20
40.674060595299991
 30
0.0
 11
-34.212870390399999
 21
-27.76393940469999
 31
0.0
  0
LINE
  5
A6A
  8
0
 10
-34.184662002700001
 20
40.755587229000007
 30
0.0
 11
-34.184662002700001
 21
40.825060595300002
 31
0.0
  0
LINE
  5
A6B
  8
0
 10
-34.152870390399997
 20
-26.5339394047
 30
0.0
 11
-34.152870390399997
 21
-27.029440549299999
 31
0.0
  0
LINE
  5
A6C
  8
0
 10
-34.142870150561222
 20
-27.131764324657791
 30
0.0
 11
-34.142870350400003
 21
-27.612942480200001
 31
0.0
  0
LINE
  5
A6D
  8
0
 10
-34.087870390399999
 20
-26.488439404699999
 30
0.0
 11
-34.087870390399999
 21
-27.014218558900001
 31
0.0
  0
LINE
  5
A6E
  8
0
 10
-36.022297083700003
 20
6.0960133669000021
 30
0.0
 11
-34.305812187199997
 21
6.096012352200006
 31
0.0
  0
LINE
  5
A6F
  8
0
 10
-36.022328803399994
 20
7.2134727322000032
 30
0.0
 11
-34.305812187199997
 21
7.213472736900008
 31
0.0
  0
LINE
  5
A70
  8
0
 10
-33.9046620027
 20
40.818560595299999
 30
0.0
 11
-33.9046620027
 21
40.755587229000007
 31
0.0
  0
LINE
  5
A71
  8
0
 10
-33.859662002700013
 20
40.755587229000007
 30
0.0
 11
-33.859662002700013
 21
40.818560595299999
 31
0.0
  0
LINE
  5
A72
  8
0
 10
-32.963870390399101
 20
-27.66993991139616
 30
0.0
 11
-32.963870288699987
 21
-27.432750745700002
 31
0.0
  0
LINE
  5
A73
  8
0
 10
-32.913870390399993
 20
-27.35744106029999
 30
0.0
 11
-32.913870390399993
 21
-27.173652091600001
 31
0.0
  0
LINE
  5
A74
  8
0
 10
-32.913870390399993
 20
-27.432939404700001
 30
0.0
 11
-32.913870390399993
 21
-27.656891581299998
 31
0.0
  0
LINE
  5
A75
  8
0
 10
-32.863870150561233
 20
-27.156415797957798
 30
0.0
 11
-32.863870390400322
 21
-27.372111608703982
 31
0.0
  0
LINE
  5
A76
  8
0
 10
-32.59787039039999
 20
-27.337939404699998
 30
0.0
 11
-32.59787039039999
 21
-27.164674863799998
 31
0.0
  0
LINE
  5
A77
  8
0
 10
-32.547870531109297
 20
-27.11645752709455
 30
0.0
 11
-32.547870442799997
 21
-27.337939606199999
 31
0.0
  0
LINE
  5
A78
  8
0
 10
-32.520870390399992
 20
40.674060595299991
 30
0.0
 11
-32.520870390399992
 21
-27.76393940469999
 31
0.0
  0
LINE
  5
A79
  8
0
 10
-32.510297856100003
 20
40.755278745799998
 30
0.0
 11
-32.510297856100003
 21
40.7800605953
 31
0.0
  0
LINE
  5
A7A
  8
0
 10
-32.447870531109302
 20
-27.77945752709455
 30
0.0
 11
-32.44787044280001
 21
-27.7979396062
 31
0.0
  0
LINE
  5
A7B
  8
0
 10
-32.432870390399998
 20
39.964060595300012
 30
0.0
 11
-32.432870390399998
 21
39.926060595300008
 31
0.0
  0
LINE
  5
A7C
  8
0
 10
-32.427967756799987
 20
40.674060595299991
 30
0.0
 11
-32.427967756799987
 21
39.975586585885821
 31
0.0
  0
LINE
  5
A7D
  8
0
 10
-32.427967756799987
 20
39.914536050917491
 30
0.0
 11
-32.427967756799987
 21
-27.76393940469999
 31
0.0
  0
LINE
  5
A7E
  8
0
 10
-32.400797856200029
 20
-27.3082574554
 30
0.0
 11
-32.400797856200022
 21
-27.0322574554
 31
0.0
  0
LINE
  5
A7F
  8
0
 10
-32.35702557060003
 20
38.752742544600011
 30
0.0
 11
-32.357025568900028
 21
-25.428257455400001
 31
0.0
  0
LINE
  5
A80
  8
0
 10
-32.355797856200027
 20
-27.0322574554
 30
0.0
 11
-32.355797856200027
 21
-27.3082574554
 31
0.0
  0
LINE
  5
A81
  8
0
 10
-32.357025568900028
 20
-25.428257455400001
 30
0.0
 11
-32.376063928100031
 21
-25.523930937999989
 31
0.0
  0
LINE
  5
A82
  8
0
 10
-32.376063928100031
 20
-25.523930937999989
 30
0.0
 11
-32.428007343000019
 21
-25.60167092599999
 31
0.0
  0
LINE
  5
A83
  8
0
 10
-32.376063928100031
 20
38.84841602720001
 30
0.0
 11
-32.427967756799987
 21
38.926096769370261
 31
0.0
  0
LINE
  5
A84
  8
0
 10
-33.904874040899998
 20
40.696665753599987
 30
0.0
 11
-33.989237640299997
 21
40.674060595299991
 31
0.0
  0
LINE
  5
A85
  8
0
 10
-33.99516200270002
 20
40.719060595300007
 30
0.0
 11
-33.916520898000002
 21
40.740132415800012
 31
0.0
  0
LINE
  5
A86
  8
0
 10
-32.40162311148687
 20
39.980078341151248
 30
0.0
 11
-32.416859998731852
 21
39.980060591925422
 31
0.0
  0
LINE
  5
A87
  8
0
 10
-34.321870390400008
 20
39.98006059530001
 30
0.0
 11
-34.33828547040001
 21
39.98006059530001
 31
0.0
  0
LINE
  5
A88
  8
0
 10
-34.305812187199997
 20
40.674060595299991
 30
0.0
 11
-32.428007343000012
 21
40.674060595299991
 31
0.0
  0
LINE
  5
A89
  8
0
 10
-33.99516200270002
 20
40.719060595300007
 30
0.0
 11
-34.094162002700003
 21
40.719060595300007
 31
0.0
  0
LINE
  5
A8A
  8
0
 10
-33.949662002700009
 20
40.731252283600007
 30
0.0
 11
-34.139662002700007
 21
40.731252283600007
 31
0.0
  0
LINE
  5
A8B
  8
0
 10
-34.468877223599989
 20
40.796060595300013
 30
0.0
 11
-34.245661801383662
 21
40.796060595298748
 31
0.0
  0
LINE
  5
A8C
  8
0
 10
-32.494297856100012
 20
40.796060595300013
 30
0.0
 11
-32.32174139140001
 21
40.796060595300013
 31
0.0
  0
LINE
  5
A8D
  8
0
 10
-32.294516574899987
 20
40.841060595299993
 30
0.0
 11
-32.539297856099999
 21
40.841060595299993
 31
0.0
  0
LINE
  5
A8E
  8
0
 10
-34.200662002700021
 20
40.841060595299993
 30
0.0
 11
-34.496239082700001
 21
40.841060595299993
 31
0.0
  0
LINE
  5
A8F
  8
0
 10
-34.101237640299999
 20
40.674060595299991
 30
0.0
 11
-34.184449964400002
 21
40.696357270399993
 31
0.0
  0
LINE
  5
A90
  8
0
 10
-34.172803107399993
 20
40.740132415800012
 30
0.0
 11
-34.094162002700003
 21
40.719060595300007
 31
0.0
  0
ARC
  5
A91
  8
0
 10
-35.239428199400002
 20
6.6547425446000039
 30
0.0
 40
1.0
 50
161.21033596909939
 51
198.7896640309005
  0
ARC
  5
A92
  8
0
 10
-38.496562002700003
 20
41.007286074500001
 30
0.0
 40
6.2649999999999988
 50
350.87415243889978
 51
7.2671664815999089
  0
ARC
  5
A93
  8
0
 10
-38.496562002700003
 20
41.007286074500001
 30
0.0
 40
6.2199999999999989
 50
358.61248754389987
 51
7.2671664815999089
  0
ARC
  5
A94
  8
0
 10
-38.496319386110791
 20
41.007253743026247
 30
0.0
 40
6.1947553632557488
 50
350.58080656853508
 51
357.8944093900638
  0
ARC
  5
A95
  8
0
 10
-34.305179929400012
 20
40.033660595299999
 30
0.0
 40
0.125
 50
189.3444806984001
 51
261.5753324727998
  0
ARC
  5
A96
  8
0
 10
-34.309679929400019
 20
41.8764365595
 30
0.0
 40
0.125
 50
104.52405696
 51
172.0593744352
  0
ARC
  5
A97
  8
0
 10
-34.486131422802018
 20
40.14145735846224
 30
0.0
 40
0.110010131826066
 50
6.0012889026301703
 51
54.779111314841849
  0
ARC
  5
A98
  8
0
 10
-34.486679929400012
 20
41.779060595300002
 30
0.0
 40
0.085
 50
308.67014332380052
 51
355.04381276820033
  0
ARC
  5
A99
  8
0
 10
-34.309679929400019
 20
41.8764365595
 30
0.0
 40
0.08
 50
101.3853599980998
 51
172.0593744341999
  0
ARC
  5
A9A
  8
0
 10
-34.392954545699993
 20
41.661947178200002
 30
0.0
 40
0.065
 50
128.6701432995998
 51
170.87082812849999
  0
ARC
  5
A9B
  8
0
 10
-34.455879929400012
 20
41.7040605953
 30
0.0
 40
0.0410779871
 50
112.3263217827993
 51
170.46482348049989
  0
ARC
  5
A9C
  8
0
 10
-34.486121575399991
 20
40.141460595299989
 30
0.0
 40
0.04
 50
6.0001484331998478
 51
67.109512854700284
  0
ARC
  5
A9D
  8
0
 10
-34.455003895600001
 20
40.215160595299992
 30
0.0
 40
0.04
 50
189.20373979499999
 51
247.1095119775006
  0
ARC
  5
A9E
  8
0
 10
-34.486679929400012
 20
41.779060595300002
 30
0.0
 40
0.04
 50
292.3263217709993
 51
355.04381277150009
  0
ARC
  5
A9F
  8
0
 10
-34.496238327300468
 20
40.857062439760902
 30
0.0
 40
0.0160018444787407
 50
180.74306358634291
 51
269.99729523663768
  0
ARC
  5
AA0
  8
0
 10
-34.4686657794132
 20
40.780059737826079
 30
0.0
 40
0.0160022544831982
 50
90.757094075472907
 51
182.40342944691341
  0
ARC
  5
AA1
  8
0
 10
-34.413249172800008
 20
40.244249762700001
 30
0.0
 40
0.016
 50
189.52897471209971
 51
233.8603499976002
  0
ARC
  5
AA2
  8
0
 10
-34.33828547040001
 20
39.996060595300001
 30
0.0
 40
0.016
 50
187.2691484610998
 51
270.00000000009942
  0
ARC
  5
AA3
  8
0
 10
-34.321911976455127
 20
39.96396019768175
 30
0.0
 40
0.0161004513249341
 50
0.5196033997736366
 51
89.852009856930593
  0
ARC
  5
AA4
  8
0
 10
-34.322104158207871
 20
39.926243071489992
 30
0.0
 40
0.016292992876724
 50
265.10815440514108
 51
359.35829259807622
  0
ARC
  5
AA5
  8
0
 10
-34.037870390400023
 20
-27.781939404700001
 30
0.0
 40
0.175
 50
9.1883710031999257
 51
117.7729253227001
  0
ARC
  5
AA6
  8
0
 10
-34.038303218670301
 20
-27.782497314088449
 30
0.0
 40
0.1255206693544753
 50
9.8122443823135992
 51
187.06667501247941
  0
ARC
  5
AA7
  8
0
 10
-34.150370390399999
 20
-26.488439404699999
 30
0.0
 40
0.0625
 50
0.0
 51
180.0
  0
ARC
  5
AA8
  8
0
 10
-34.156870390399988
 20
-26.51393940469999
 30
0.0
 40
0.056
 50
88.999080148100717
 51
180.0
  0
ARC
  5
AA9
  8
0
 10
-34.154870390400013
 20
-26.503939404699999
 30
0.0
 40
0.046
 50
3.5994985802002959
 51
91.272616818499756
  0
ARC
  5
AAA
  8
0
 10
-33.889957289599479
 20
-27.756924180442532
 30
0.0
 40
0.0250134916996246
 50
189.62421311587781
 51
6.7243986431459231
  0
ARC
  5
AAB
  8
0
 10
-34.126870390399993
 20
-27.131851930500009
 30
0.0
 40
0.0160000000000095
 50
88.313729614634269
 51
179.68628311875719
  0
ARC
  5
AAC
  8
0
 10
-34.126870391785118
 20
-27.612942410802649
 30
0.0
 40
0.0159999586150276
 50
180.00024851159071
 51
297.77300897372697
  0
ARC
  5
AAD
  8
0
 10
-34.178870390400007
 20
-27.797939404699999
 30
0.0
 40
0.016
 50
270.0
 51
0.0
  0
ARC
  5
AAE
  8
0
 10
-34.124937131300001
 20
-26.5019394047
 30
0.0
 40
0.016
 50
270.57272398810119
 51
3.5021092517000501
  0
ARC
  5
AAF
  8
0
 10
-34.136870390400013
 20
-26.5339394047
 30
0.0
 40
0.016
 50
89.998166580900588
 51
180.0
  0
ARC
  5
AB0
  8
0
 10
-34.136870390400013
 20
-27.029440549299999
 30
0.0
 40
0.016
 50
180.0
 51
268.2395605130003
  0
ARC
  5
AB1
  8
0
 10
-32.594797856200017
 20
-27.3082574554
 30
0.0
 40
0.2389999999999937
 50
314.26947468692958
 51
0.0000000000008142
  0
ARC
  5
AB2
  8
0
 10
-32.594797856200181
 20
-27.308257455399939
 30
0.0
 40
0.1940000000001593
 50
329.31085327752049
 51
0.000000611781983
  0
ARC
  5
AB3
  8
0
 10
-32.544797856200191
 20
-27.032257455400028
 30
0.0
 40
0.1890000000001723
 50
0.0000000000097707
 51
51.57451132981226
  0
ARC
  5
AB4
  8
0
 10
-32.534924555585931
 20
-27.02921431721834
 30
0.0
 40
0.1341612171163924
 50
358.7002657480736
 51
37.133992856128373
  0
ARC
  5
AB5
  8
0
 10
-32.819870390399998
 20
-27.669939404699999
 30
0.0
 40
0.144
 50
180.0002016079998
 51
270.0
  0
ARC
  5
AB6
  8
0
 10
-32.819870390399998
 20
-27.656891581299998
 30
0.0
 40
0.094
 50
180.0
 51
267.9999999999996
  0
ARC
  5
AB7
  8
0
 10
-32.897736781215841
 20
-27.432980782068789
 30
0.0
 40
0.0661339075579772
 50
112.1263625196631
 51
179.80070526404879
  0
ARC
  5
AB8
  8
0
 10
-32.909870390400002
 20
-27.372111779400001
 30
0.0
 40
0.046
 50
281.15993686039872
 51
0.0002126122000087
  0
ARC
  5
AB9
  8
0
 10
-32.563870390399998
 20
-27.337939404699998
 30
0.0
 40
0.016
 50
270.0
 51
359.99927824270009
  0
ARC
  5
ABA
  8
0
 10
-32.581870390399999
 20
-27.337939404699998
 30
0.0
 40
0.016
 50
180.0
 51
270.0
  0
ARC
  5
ABB
  8
0
 10
-32.613870390399981
 20
-27.164674863799998
 30
0.0
 40
0.016
 50
0.0
 51
88.239560510799279
  0
ARC
  5
ABC
  8
0
 10
-32.84787039039999
 20
-27.156503403799999
 30
0.0
 40
0.016
 50
88.313729615800753
 51
179.68628311879999
  0
ARC
  5
ABD
  8
0
 10
-32.897870390400001
 20
-27.432939404700001
 30
0.0
 40
0.016
 50
101.1599369061004
 51
180.0
  0
ARC
  5
ABE
  8
0
 10
-32.463870390399997
 20
-27.77939042509999
 30
0.0
 40
0.016
 50
359.75970797779968
 51
74.947612488102891
  0
ARC
  5
ABF
  8
0
 10
-32.463870353348412
 20
-27.79793949415124
 30
0.0
 40
0.015999910548793
 50
269.9998673180292
 51
359.99959875271821
  0
ARC
  5
AC0
  8
0
 10
-32.929870390400019
 20
-27.35744106029999
 30
0.0
 40
0.016
 50
296.84091752139972
 51
0.0
  0
ARC
  5
AC1
  8
0
 10
-32.929870390400019
 20
-27.17365209159999
 30
0.0
 40
0.0160000000000054
 50
359.99999999998698
 51
88.239560514461758
  0
ARC
  5
AC2
  8
0
 10
-32.563870390399998
 20
-27.11639042509999
 30
0.0
 40
0.016
 50
359.75970797779968
 51
88.000000000599243
  0
ARC
  5
AC3
  8
0
 10
-33.370473936300002
 20
37.212343466300013
 30
0.0
 40
4.8377171289999987
 50
79.545927806399618
 51
101.3853599972992
  0
ARC
  5
AC4
  8
0
 10
-33.378768039243333
 20
38.281504839299629
 30
0.0
 40
3.8385065659064401
 50
76.316136719977678
 51
104.5181151275212
  0
ARC
  5
AC5
  8
0
 10
-33.920662002700013
 20
40.755587229000007
 30
0.0
 40
0.061
 50
284.99999999969941
 51
0.0
  0
ARC
  5
AC6
  8
0
 10
-34.168662002700003
 20
40.755278745799998
 30
0.0
 40
0.061
 50
180.0
 51
254.99999999970041
  0
ARC
  5
AC7
  8
0
 10
-33.882162002700007
 20
40.818560595299999
 30
0.0
 40
0.0225
 50
0.0
 51
180.0
  0
ARC
  5
AC8
  8
0
 10
-34.200662002700021
 20
40.825060595300002
 30
0.0
 40
0.016
 50
0.0
 51
90.0
  0
ARC
  5
AC9
  8
0
 10
-34.168662002700003
 20
40.755587229000007
 30
0.0
 40
0.016
 50
180.0
 51
255.0000000000999
  0
ARC
  5
ACA
  8
0
 10
-33.920662002700013
 20
40.755587229000007
 30
0.0
 40
0.016
 50
285.00000000069912
 51
0.0
  0
ARC
  5
ACB
  8
0
 10
-34.245662002700001
 20
40.780060595300021
 30
0.0
 40
0.0159999999999911
 50
359.99999999994913
 51
89.999279089013413
  0
ARC
  5
ACC
  8
0
 10
-32.17186975500001
 20
40.384704324700003
 30
0.0
 40
2.286999999999999
 50
186.0001484329002
 51
189.34448069819999
  0
ARC
  5
ACD
  8
0
 10
-32.173361764799992
 20
41.578453842900011
 30
0.0
 40
2.282
 50
172.05937443770009
 51
175.04381276230029
  0
ARC
  5
ACE
  8
0
 10
-32.173361764799992
 20
41.578453842900011
 30
0.0
 40
2.2370000000000001
 50
172.05937443770009
 51
175.04381276219971
  0
ARC
  5
ACF
  8
0
 10
-32.187204699289722
 20
40.382810756974813
 30
0.0
 40
2.201551147522387
 50
185.99285574929991
 51
190.171271822687
  0
ARC
  5
AD0
  8
0
 10
-32.529879929400003
 20
41.768160595300003
 30
0.0
 40
0.25
 50
7.2671664829000822
 51
76.310194888000652
  0
ARC
  5
AD1
  8
0
 10
-32.529879929400003
 20
41.768160595300003
 30
0.0
 40
0.205
 50
7.2671664830998433
 51
79.545927806399618
  0
ARC
  5
AD2
  8
0
 10
-32.434279929400013
 20
40.033460595299999
 30
0.0
 40
0.125
 50
278.37631736579908
 51
350.87415243870032
  0
ARC
  5
AD3
  8
0
 10
-32.571297856100003
 20
40.755278745799998
 30
0.0
 40
0.061
 50
284.99999999959988
 51
0.0
  0
ARC
  5
AD4
  8
0
 10
-32.416400329978458
 20
39.926262009066953
 30
0.0
 40
0.0164712919285244
 50
180.70064002542179
 51
271.14682189889601
  0
ARC
  5
AD5
  8
0
 10
-32.416870390400007
 20
39.964060595300012
 30
0.0
 40
0.016
 50
89.962787576900993
 51
180.0
  0
ARC
  5
AD6
  8
0
 10
-32.400869750799998
 20
39.996060595300001
 30
0.0
 40
0.016
 50
267.30122793800098
 51
350.58087879969992
  0
ARC
  5
AD7
  8
0
 10
-32.32174139140001
 20
40.7800605953
 30
0.0
 40
0.016
 50
358.5326853926997
 51
89.999999999899032
  0
ARC
  5
AD8
  8
0
 10
-32.494297856100012
 20
40.7800605953
 30
0.0
 40
0.016
 50
90.0
 51
180.0
  0
ARC
  5
AD9
  8
0
 10
-32.539297856099999
 20
40.825060595300002
 30
0.0
 40
0.016
 50
89.999700428099132
 51
180.0
  0
ARC
  5
ADA
  8
0
 10
-32.294381071300009
 20
40.857060595299998
 30
0.0
 40
0.016
 50
269.51477401030081
 51
358.61248754020022
  0
ARC
  5
ADB
  8
0
 10
-30.058611741404221
 20
40.965430452795701
 30
0.0
 40
4.499950266622843
 50
170.4647702508401
 51
189.68028703195981
  0
ARC
  5
ADC
  8
0
 10
-30.05856200269999
 20
40.965426336600011
 30
0.0
 40
4.4550000000000001
 50
170.87082811580029
 51
181.39647585529991
  0
ARC
  5
ADD
  8
0
 10
-30.05857225376657
 20
40.965425591707493
 30
0.0
 40
4.4299897266949779
 50
182.4068375493782
 51
189.4038311302921
  0
LINE
  5
ADE
  8
0
 10
-33.794662002700008
 20
41.310982805600013
 30
0.0
 11
-33.809662002700001
 21
41.325982805599992
 31
0.0
  0
LINE
  5
ADF
  8
0
 10
-34.169662002700008
 20
40.761252283600008
 30
0.0
 11
-34.139662002700007
 21
40.731252283600007
 31
0.0
  0
LINE
  5
AE0
  8
0
 10
-33.611662002700022
 20
41.225599792399997
 30
0.0
 11
-33.611662002700022
 21
40.987885296700007
 31
0.0
  0
LINE
  5
AE1
  8
0
 10
-33.714662002700031
 20
41.274242544600007
 30
0.0
 11
-33.714662002700031
 21
40.939242544599999
 31
0.0
  0
LINE
  5
AE2
  8
0
 10
-33.739662002700001
 20
40.674060595299991
 30
0.0
 11
-33.739662002700001
 21
41.267242544600002
 31
0.0
  0
LINE
  5
AE3
  8
0
 10
-33.794662002700008
 20
41.310982590099997
 30
0.0
 11
-33.794662002700008
 21
41.267242544600002
 31
0.0
  0
LINE
  5
AE4
  8
0
 10
-33.794662002700008
 20
40.674060595299991
 30
0.0
 11
-33.794662002700008
 21
41.267242544600002
 31
0.0
  0
LINE
  5
AE5
  8
0
 10
-33.809662002700001
 20
41.325982805599992
 30
0.0
 11
-33.809662002700001
 21
40.887502283600007
 31
0.0
  0
LINE
  5
AE6
  8
0
 10
-33.919662002700008
 20
41.4522326134
 30
0.0
 11
-33.919662002700008
 21
40.761252475799999
 31
0.0
  0
LINE
  5
AE7
  8
0
 10
-33.949662002700009
 20
41.482232805599992
 30
0.0
 11
-33.949662002700009
 21
40.731252283557779
 31
0.0
  0
LINE
  5
AE8
  8
0
 10
-34.139662002700007
 20
40.731252283600007
 30
0.0
 11
-34.139662002700007
 21
41.482232805599992
 31
0.0
  0
LINE
  5
AE9
  8
0
 10
-34.169662002700008
 20
40.761252475799999
 30
0.0
 11
-34.169662002700008
 21
41.4522326134
 31
0.0
  0
LINE
  5
AEA
  8
0
 10
-33.919662002700008
 20
40.761252283600008
 30
0.0
 11
-33.949662002757677
 21
40.731252283542339
 31
0.0
  0
LINE
  5
AEB
  8
0
 10
-33.794662002700008
 20
40.902502283600008
 30
0.0
 11
-33.809662002700001
 21
40.887502283600007
 31
0.0
  0
LINE
  5
AEC
  8
0
 10
-34.169662002700008
 20
41.4522326134
 30
0.0
 11
-34.139662002700007
 21
41.482232805599992
 31
0.0
  0
LINE
  5
AED
  8
0
 10
-33.809662002700001
 20
40.887502283600007
 30
0.0
 11
-33.919662002700008
 21
40.887502283600007
 31
0.0
  0
LINE
  5
AEE
  8
0
 10
-33.714662002700031
 20
40.939242544599999
 30
0.0
 11
-33.739662002700001
 21
40.939242544599999
 31
0.0
  0
LINE
  5
AEF
  8
0
 10
-33.649844028099992
 20
40.949703271399997
 30
0.0
 11
-33.714662002700031
 21
40.949703271399997
 31
0.0
  0
LINE
  5
AF0
  8
0
 10
-33.649844028099992
 20
41.028222907999989
 30
0.0
 11
-33.714662002700031
 21
41.028222907999989
 31
0.0
  0
LINE
  5
AF1
  8
0
 10
-33.649844028099992
 20
41.185262181200009
 30
0.0
 11
-33.714662002700031
 21
41.185262181200009
 31
0.0
  0
LINE
  5
AF2
  8
0
 10
-33.649844028099992
 20
41.263781817800002
 30
0.0
 11
-33.714662002700031
 21
41.263781817800002
 31
0.0
  0
LINE
  5
AF3
  8
0
 10
-33.714662002700031
 20
41.274242544600007
 30
0.0
 11
-33.739662002700001
 21
41.274242544600007
 31
0.0
  0
LINE
  5
AF4
  8
0
 10
-33.809662002700001
 20
41.325982805599992
 30
0.0
 11
-33.919662002700008
 21
41.325982805599992
 31
0.0
  0
ARC
  5
AF5
  8
0
 10
-33.668641446800009
 20
41.006682715499998
 30
0.0
 40
0.06
 50
288.2576322988005
 51
341.74236770120012
  0
ARC
  5
AF6
  8
0
 10
-33.668641446800009
 20
41.206802373700008
 30
0.0
 40
0.06
 50
18.25763229879945
 51
71.742367701199456
  0
ARC
  5
AF7
  8
0
 10
-33.767162002700012
 20
41.267242544600002
 30
0.0
 40
0.0275
 50
0.0
 51
180.0
  0
ARC
  5
AF8
  8
0
 10
-33.661650406098822
 20
41.224521999499999
 30
0.0
 40
0.0409966327202617
 50
286.73730490237011
 51
63.675208414526011
  0
ARC
  5
AF9
  8
0
 10
-33.740501239336297
 20
41.10674254460001
 30
0.0
 40
0.1199335786214018
 50
319.10364819490451
 51
40.896351805091719
  0
ARC
  5
AFA
  8
0
 10
-33.661650406098822
 20
40.9889630897
 30
0.0
 40
0.0409966327202617
 50
296.3247915858156
 51
73.262695097633269
  0
LINE
  5
AFB
  8
0
 10
-33.919662002700008
 20
41.4522326134
 30
0.0
 11
-33.949662002700009
 21
41.482232805599992
 31
0.0
  0
LINE
  5
AFC
  8
0
 10
-33.949662002700009
 20
41.482232805599992
 30
0.0
 11
-34.139662002700007
 21
41.482232805599992
 31
0.0
  0
LINE
  5
AFD
  8
0
 10
-33.739662002700001
 20
41.274242544600007
 30
0.0
 11
-33.739662002700001
 21
41.267242544600713
 31
0.0
  0
LINE
  5
AFE
  8
0
 10
-34.3058054392
 20
-27.76393940469999
 30
0.0
 11
-34.212870390399999
 21
-27.7639394047
 31
0.0
  0
ARC
  5
AFF
  8
0
 10
-34.296870390400002
 20
-27.779939404699991
 30
0.0
 40
0.0159999999999901
 50
90.0
 51
180.00000000002521
  0
LINE
  5
B00
  8
0
 10
-34.312870390399993
 20
-27.779939404699999
 30
0.0
 11
-34.312870390399993
 21
-27.797939404699999
 31
0.0
  0
ARC
  5
B01
  8
0
 10
-34.296870390400002
 20
-27.797939404699999
 30
0.0
 40
0.0160000000000054
 50
179.99999999998741
 51
269.99999999997391
  0
ARC
  5
B02
  8
0
 10
-36.012502798741153
 20
6.2016170116515994
 30
0.0
 40
0.1060568611768053
 50
188.62825989888651
 51
264.70122053866447
  0
ARC
  5
B03
  8
0
 10
-35.363768280063411
 20
6.6279916160894379
 30
0.0
 40
0.8737940532658814
 50
199.7551814320062
 51
210.40884040008601
  0
ARC
  5
B04
  8
0
 10
-36.012494102445302
 20
7.107863522162261
 30
0.0
 40
0.106066142513361
 50
95.320240817107475
 51
171.3700119354736
  0
ARC
  5
B05
  8
0
 10
-35.363768280063411
 20
6.68149347311057
 30
0.0
 40
0.8737940532658814
 50
149.59115959991371
 51
160.24481856799369
  0
LINE
  5
B06
  8
0
 10
-32.555297856200063
 20
40.755587229000007
 30
0.0
 11
-32.555297856200063
 21
40.825060595300002
 31
0.0
  0
LINE
  5
B07
  8
0
 10
-32.835297856200057
 20
40.818560595299999
 30
0.0
 11
-32.835297856200057
 21
40.755587229000007
 31
0.0
  0
LINE
  5
B08
  8
0
 10
-32.880297856200038
 20
40.755587229000007
 30
0.0
 11
-32.880297856200038
 21
40.818560595299999
 31
0.0
  0
LINE
  5
B09
  8
0
 10
-32.835085818000053
 20
40.696665753599987
 30
0.0
 11
-32.750722218600053
 21
40.674060595299991
 31
0.0
  0
LINE
  5
B0A
  8
0
 10
-32.744797856200037
 20
40.719060595300007
 30
0.0
 11
-32.823438960900049
 21
40.740132415800012
 31
0.0
  0
LINE
  5
B0B
  8
0
 10
-32.744797856200037
 20
40.719060595300007
 30
0.0
 11
-32.645797856200048
 21
40.719060595300007
 31
0.0
  0
LINE
  5
B0C
  8
0
 10
-32.790297856200041
 20
40.731252283600007
 30
0.0
 11
-32.600297856200037
 21
40.731252283600007
 31
0.0
  0
LINE
  5
B0D
  8
0
 10
-32.638722218600051
 20
40.674060595299991
 30
0.0
 11
-32.555509894500048
 21
40.696357270399993
 31
0.0
  0
LINE
  5
B0E
  8
0
 10
-32.567156751500072
 20
40.740132415800012
 30
0.0
 11
-32.645797856200048
 21
40.719060595300007
 31
0.0
  0
ARC
  5
B0F
  8
0
 10
-32.819297856200038
 20
40.755587229000007
 30
0.0
 40
0.061
 50
180.0
 51
255.00000000030059
  0
ARC
  5
B10
  8
0
 10
-32.857797856200037
 20
40.818560595299999
 30
0.0
 40
0.0225
 50
0.0
 51
180.0
  0
ARC
  5
B11
  8
0
 10
-32.571297856200047
 20
40.755587229000007
 30
0.0
 40
0.016
 50
284.99999999990001
 51
0.0
  0
ARC
  5
B12
  8
0
 10
-32.819297856200038
 20
40.755587229000007
 30
0.0
 40
0.016
 50
180.0
 51
254.9999999993008
  0
LINE
  5
B13
  8
0
 10
-32.945297856200042
 20
41.310982805600013
 30
0.0
 11
-32.930297856200063
 21
41.325982805599992
 31
0.0
  0
LINE
  5
B14
  8
0
 10
-32.570297856200042
 20
40.761252283600008
 30
0.0
 11
-32.600297856200037
 21
40.731252283600007
 31
0.0
  0
LINE
  5
B15
  8
0
 10
-33.128297856200028
 20
41.225599792399997
 30
0.0
 11
-33.128297856200028
 21
40.987885296700007
 31
0.0
  0
LINE
  5
B16
  8
0
 10
-33.025297856200027
 20
41.274242544600007
 30
0.0
 11
-33.025297856200027
 21
40.939242544599999
 31
0.0
  0
LINE
  5
B17
  8
0
 10
-33.000297856200049
 20
40.674060595299991
 30
0.0
 11
-33.000297856200049
 21
41.267242544600002
 31
0.0
  0
LINE
  5
B18
  8
0
 10
-32.945297856200042
 20
41.310982590099997
 30
0.0
 11
-32.945297856200042
 21
41.267242544600002
 31
0.0
  0
LINE
  5
B19
  8
0
 10
-32.945297856200042
 20
40.674060595299991
 30
0.0
 11
-32.945297856200042
 21
41.267242544600002
 31
0.0
  0
LINE
  5
B1A
  8
0
 10
-32.930297856200063
 20
41.325982805599992
 30
0.0
 11
-32.930297856200063
 21
40.887502283600007
 31
0.0
  0
LINE
  5
B1B
  8
0
 10
-32.820297856200042
 20
41.4522326134
 30
0.0
 11
-32.820297856200042
 21
40.761252475799999
 31
0.0
  0
LINE
  5
B1C
  8
0
 10
-32.790297856200041
 20
41.482232805599992
 30
0.0
 11
-32.790297856200041
 21
40.731252283557779
 31
0.0
  0
LINE
  5
B1D
  8
0
 10
-32.600297856200037
 20
40.731252283600007
 30
0.0
 11
-32.600297856200037
 21
41.482232805599992
 31
0.0
  0
LINE
  5
B1E
  8
0
 10
-32.570297856200042
 20
40.761252475799999
 30
0.0
 11
-32.570297856200042
 21
41.4522326134
 31
0.0
  0
LINE
  5
B1F
  8
0
 10
-32.820297856200042
 20
40.761252283600008
 30
0.0
 11
-32.790297856142381
 21
40.731252283542339
 31
0.0
  0
LINE
  5
B20
  8
0
 10
-32.945297856200042
 20
40.902502283600008
 30
0.0
 11
-32.930297856200063
 21
40.887502283600007
 31
0.0
  0
LINE
  5
B21
  8
0
 10
-32.570297856200042
 20
41.4522326134
 30
0.0
 11
-32.600297856200037
 21
41.482232805599992
 31
0.0
  0
LINE
  5
B22
  8
0
 10
-32.930297856200063
 20
40.887502283600007
 30
0.0
 11
-32.820297856200042
 21
40.887502283600007
 31
0.0
  0
LINE
  5
B23
  8
0
 10
-33.025297856200027
 20
40.939242544599999
 30
0.0
 11
-33.000297856200049
 21
40.939242544599999
 31
0.0
  0
LINE
  5
B24
  8
0
 10
-33.090115830800059
 20
40.949703271399997
 30
0.0
 11
-33.025297856200027
 21
40.949703271399997
 31
0.0
  0
LINE
  5
B25
  8
0
 10
-33.090115830800059
 20
41.028222907999989
 30
0.0
 11
-33.025297856200027
 21
41.028222907999989
 31
0.0
  0
LINE
  5
B26
  8
0
 10
-33.090115830800059
 20
41.185262181200009
 30
0.0
 11
-33.025297856200027
 21
41.185262181200009
 31
0.0
  0
LINE
  5
B27
  8
0
 10
-33.090115830800059
 20
41.263781817800002
 30
0.0
 11
-33.025297856200027
 21
41.263781817800002
 31
0.0
  0
LINE
  5
B28
  8
0
 10
-33.025297856200027
 20
41.274242544600007
 30
0.0
 11
-33.000297856200049
 21
41.274242544600007
 31
0.0
  0
LINE
  5
B29
  8
0
 10
-32.930297856200063
 20
41.325982805599992
 30
0.0
 11
-32.820297856200042
 21
41.325982805599992
 31
0.0
  0
ARC
  5
B2A
  8
0
 10
-33.071318412100041
 20
41.006682715499998
 30
0.0
 40
0.06
 50
198.2576322987999
 51
251.7423677011995
  0
ARC
  5
B2B
  8
0
 10
-33.071318412100041
 20
41.206802373700008
 30
0.0
 40
0.06
 50
108.2576322988005
 51
161.74236770120001
  0
ARC
  5
B2C
  8
0
 10
-32.972797856200053
 20
41.267242544600002
 30
0.0
 40
0.0275
 50
0.0
 51
180.0
  0
ARC
  5
B2D
  8
0
 10
-33.078309452801243
 20
41.224521999499999
 30
0.0
 40
0.0409966327202617
 50
116.324791585474
 51
253.26269509762989
  0
ARC
  5
B2E
  8
0
 10
-32.999458619563761
 20
41.10674254460001
 30
0.0
 40
0.1199335786214018
 50
139.10364819490829
 51
220.89635180509549
  0
ARC
  5
B2F
  8
0
 10
-33.078309452801243
 20
40.9889630897
 30
0.0
 40
0.0409966327202617
 50
106.7373049023667
 51
243.6752084141844
  0
LINE
  5
B30
  8
0
 10
-32.820297856200042
 20
41.4522326134
 30
0.0
 11
-32.790297856200041
 21
41.482232805599992
 31
0.0
  0
LINE
  5
B31
  8
0
 10
-32.790297856200041
 20
41.482232805599992
 30
0.0
 11
-32.600297856200037
 21
41.482232805599992
 31
0.0
  0
LINE
  5
B32
  8
0
 10
-33.000297856200049
 20
41.274242544600007
 30
0.0
 11
-33.000297856200049
 21
41.267242544600713
 31
0.0
  0
LINE
  5
DD3
  8
0
 10
-32.376063928100031
 20
38.84841602720001
 30
0.0
 11
-32.35702557060003
 21
38.752742544600011
 31
0.0
  0
ATTDEF
  5
E74
  8
DEFPOINTS
 10
-33.37159752802944
 20
-27.823123502730219
 30
0.0
 40
0.001
  1
5975-59
  3

  2
MODELNUMBER
 70
     0
1001
ACDBATTR
1070
     0
1070
     1
  0
ATTDEF
  5
E75
  8
DEFPOINTS
 10
-33.37159752802944
 20
-27.824790169396881
 30
0.0
 40
0.001
  1
DELUXE
  3

  2
TRADENAME
 70
     0
1001
ACDBATTR
1070
     0
1070
     1
  0
ATTDEF
  5
E76
  8
DEFPOINTS
 10
-33.37159752802944
 20
-27.826456836063549
 30
0.0
 40
0.001
  1
SHOWER DOOR
  3

  2
PRODUCT
 70
     0
1001
ACDBATTR
1070
     0
1070
     1
  0
ATTDEF
  5
E77
  8
DEFPOINTS
 10
-33.37159752802944
 20
-27.828123502730211
 30
0.0
 40
0.001
  1
ALUMINUM/GLASS
  3

  2
MATERIAL
 70
     0
1001
ACDBATTR
1070
     0
1070
     1
  0
ENDSEC
  0
EOF
