  0
SECTION
  2
HEADER
  9
$ACADVER
  1
AC1009
  9
$INSBASE
 10
-88.734556707800024
 20
-27.814006973100021
 30
0.0
  9
$EXTMIN
 10
-118.4223067078
 20
-27.828123502730211
 30
0.0
  9
$EXTMAX
 10
-59.046806707800023
 20
42.119993026899991
 30
0.0
  9
$LIMMIN
 10
0.0
 20
0.0
  9
$LIMMAX
 10
22.0
 20
17.0
  9
$ORTHOMODE
 70
     0
  9
$REGENMODE
 70
     1
  9
$FILLMODE
 70
     1
  9
$QTEXTMODE
 70
     0
  9
$MIRRTEXT
 70
     0
  9
$DRAGMODE
 70
     2
  9
$LTSCALE
 40
1.2099999999999991
  9
$OSMODE
 70
    39
  9
$ATTMODE
 70
     1
  9
$TEXTSIZE
 40
0.2
  9
$TRACEWID
 40
0.05
  9
$TEXTSTYLE
  7
STANDARD
  9
$CLAYER
  8
0
  9
$CELTYPE
  6
BYLAYER
  9
$CECOLOR
 62
   256
  9
$DIMSCALE
 40
1.0
  9
$DIMASZ
 40
0.1875
  9
$DIMEXO
 40
0.0625
  9
$DIMDLI
 40
0.8359999999999999
  9
$DIMRND
 40
0.0
  9
$DIMDLE
 40
0.0
  9
$DIMEXE
 40
0.125
  9
$DIMTP
 40
0.0
  9
$DIMTM
 40
0.0
  9
$DIMTXT
 40
0.15625
  9
$DIMCEN
 40
0.198
  9
$DIMTSZ
 40
0.0
  9
$DIMTOL
 70
     0
  9
$DIMLIM
 70
     0
  9
$DIMTIH
 70
     1
  9
$DIMTOH
 70
     1
  9
$DIMSE1
 70
     0
  9
$DIMSE2
 70
     0
  9
$DIMTAD
 70
     0
  9
$DIMZIN
 70
     0
  9
$DIMBLK
  1

  9
$DIMASO
 70
     1
  9
$DIMSHO
 70
     1
  9
$DIMPOST
  1

  9
$DIMAPOST
  1

  9
$DIMALT
 70
     0
  9
$DIMALTD
 70
     2
  9
$DIMALTF
 40
25.399999999999999
  9
$DIMLFAC
 40
1.0
  9
$DIMTOFL
 70
     0
  9
$DIMTVP
 40
0.0
  9
$DIMTIX
 70
     0
  9
$DIMSOXD
 70
     0
  9
$DIMSAH
 70
     0
  9
$DIMBLK1
  1

  9
$DIMBLK2
  1

  9
$DIMSTYLE
  2
STANDARD
  9
$DIMCLRD
 70
     0
  9
$DIMCLRE
 70
     0
  9
$DIMCLRT
 70
     0
  9
$DIMTFAC
 40
1.0
  9
$DIMGAP
 40
0.09
  9
$LUNITS
 70
     2
  9
$LUPREC
 70
     4
  9
$SKETCHINC
 40
0.1
  9
$FILLETRAD
 40
0.0
  9
$AUNITS
 70
     0
  9
$AUPREC
 70
     0
  9
$MENU
  1
.
  9
$ELEVATION
 40
0.0
  9
$PELEVATION
 40
0.0
  9
$THICKNESS
 40
0.0
  9
$LIMCHECK
 70
     0
  9
$BLIPMODE
 70
     0
  9
$CHAMFERA
 40
0.0
  9
$CHAMFERB
 40
0.0
  9
$SKPOLY
 70
     0
  9
$TDCREATE
 40
2458131.4935805672
  9
$TDUPDATE
 40
2458134.4906744682
  9
$TDINDWG
 40
2.8755695486000001
  9
$TDUSRTIMER
 40
2.8755695486000001
  9
$USRTIMER
 70
     1
  9
$ANGBASE
 50
0.0
  9
$ANGDIR
 70
     0
  9
$PDMODE
 70
     0
  9
$PDSIZE
 40
0.3125
  9
$PLINEWID
 40
0.0
  9
$COORDS
 70
     1
  9
$SPLFRAME
 70
     0
  9
$SPLINETYPE
 70
     6
  9
$SPLINESEGS
 70
     8
  9
$ATTDIA
 70
     1
  9
$ATTREQ
 70
     1
  9
$HANDLING
 70
     1
  9
$HANDSEED
  5
10C4
  9
$SURFTAB1
 70
     6
  9
$SURFTAB2
 70
     6
  9
$SURFTYPE
 70
     6
  9
$SURFU
 70
     6
  9
$SURFV
 70
     6
  9
$UCSNAME
  2

  9
$UCSORG
 10
0.0
 20
0.0
 30
0.0
  9
$UCSXDIR
 10
1.0
 20
0.0
 30
0.0
  9
$UCSYDIR
 10
0.0
 20
1.0
 30
0.0
  9
$PUCSNAME
  2

  9
$PUCSORG
 10
0.0
 20
0.0
 30
0.0
  9
$PUCSXDIR
 10
1.0
 20
0.0
 30
0.0
  9
$PUCSYDIR
 10
0.0
 20
1.0
 30
0.0
  9
$USERI1
 70
     0
  9
$USERI2
 70
     0
  9
$USERI3
 70
     0
  9
$USERI4
 70
     0
  9
$USERI5
 70
     0
  9
$USERR1
 40
0.0
  9
$USERR2
 40
0.0
  9
$USERR3
 40
0.0
  9
$USERR4
 40
0.0
  9
$USERR5
 40
0.0
  9
$WORLDVIEW
 70
     1
  9
$SHADEDGE
 70
     3
  9
$SHADEDIF
 70
    70
  9
$TILEMODE
 70
     1
  9
$MAXACTVP
 70
    48
  9
$PLIMCHECK
 70
     0
  9
$PEXTMIN
 10
1.0000000000000000E+020
 20
1.0000000000000000E+020
 30
1.0000000000000000E+020
  9
$PEXTMAX
 10
-1.0000000000000000E+020
 20
-1.0000000000000000E+020
 30
-1.0000000000000000E+020
  9
$PLIMMIN
 10
0.0
 20
0.0
  9
$PLIMMAX
 10
12.0
 20
9.0
  9
$UNITMODE
 70
     0
  9
$VISRETAIN
 70
     1
  9
$PLINEGEN
 70
     0
  9
$PSLTSCALE
 70
     1
  0
ENDSEC
  0
SECTION
  2
TABLES
  0
TABLE
  2
VPORT
 70
     1
  0
VPORT
  2
*ACTIVE
 70
     0
 10
0.0
 20
0.0
 11
1.0
 21
1.0
 12
-58.497483590302117
 22
11.25546113549257
 13
0.0
 23
0.0
 14
1.0
 24
1.0
 15
0.0
 25
0.0
 16
-0.0000000000000012
 26
0.0
 36
5.48607689483919
 17
0.0
 27
0.0
 37
0.0
 40
169.67659571548751
 41
2.0329087048832268
 42
50.0
 43
0.0
 44
0.0
 50
0.0
 51
0.0
 71
     0
 72
   100
 73
     1
 74
     1
 75
     0
 76
     0
 77
     0
 78
     0
  0
ENDTAB
  0
TABLE
  2
LTYPE
 70
     2
  0
LTYPE
  2
CONTINUOUS
 70
     0
  3
Solid line
 72
    65
 73
     0
 40
0.0
  0
LTYPE
  2
PHANTOM2
 70
     0
  3
___ _ _ ___ _ _ ___ _ _ ___ _ _
 72
    65
 73
     6
 40
1.25
 49
0.625
 49
-0.125
 49
0.125
 49
-0.125
 49
0.125
 49
-0.125
  0
ENDTAB
  0
TABLE
  2
LAYER
 70
     2
  0
LAYER
  2
0
 70
     0
 62
     7
  6
CONTINUOUS
  0
LAYER
  2
DEFPOINTS
 70
     0
 62
     7
  6
CONTINUOUS
  0
ENDTAB
  0
TABLE
  2
STYLE
 70
     1
  0
STYLE
  2
STANDARD
 70
     0
 40
0.0
 41
0.8
 50
0.0
 71
     0
 42
0.2
  3
txt
  4

  0
ENDTAB
  0
TABLE
  2
VIEW
 70
     0
  0
ENDTAB
  0
TABLE
  2
UCS
 70
     0
  0
ENDTAB
  0
TABLE
  2
APPID
 70
     5
  0
APPID
  2
ACAD
 70
     0
  0
APPID
  2
ACAD_MLEADERVER
 70
     0
  0
APPID
  2
ACAD_NAV_VCDISPLAY
 70
     0
  0
APPID
  2
ACAD_EXEMPT_FROM_CAD_STANDARDS
 70
     0
  0
APPID
  2
ACDBATTR
 70
     0
  0
ENDTAB
  0
TABLE
  2
DIMSTYLE
 70
     1
  0
DIMSTYLE
  2
STANDARD
 70
     0
  3

  4

  5

  6

  7

 40
1.0
 41
0.1875
 42
0.0625
 43
0.38
 44
0.125
 45
0.0
 46
0.0
 47
1.5
 48
1.5
140
0.15625
141
0.09
142
0.0
143
25.399999999999999
144
1.0
145
0.0
146
1.0
147
0.09
 71
     0
 72
     0
 73
     1
 74
     1
 75
     0
 76
     0
 77
     0
 78
     4
170
     0
171
     2
172
     0
173
     0
174
     0
175
     0
176
     0
177
     0
178
     0
  0
ENDTAB
  0
ENDSEC
  0
SECTION
  2
BLOCKS
  0
BLOCK
  8
0
  2
$MODEL_SPACE
 70
     0
 10
0.0
 20
0.0
 30
0.0
  3
$MODEL_SPACE
  1

  0
ENDBLK
  5
21
  8
0
  0
BLOCK
 67
     1
  8
0
  2
$PAPER_SPACE
 70
     0
 10
0.0
 20
0.0
 30
0.0
  3
$PAPER_SPACE
  1

  0
ENDBLK
  5
1D
 67
     1
  8
0
  0
ENDSEC
  0
SECTION
  2
ENTITIES
  0
LINE
  5
9B3
  8
0
 10
-59.109306707800009
 20
-27.81400697310001
 30
0.0
 11
-118.3593067078
 21
-27.81400697310001
 31
0.0
  0
LINE
  5
9B4
  8
0
 10
-118.4223067078
 20
-27.76400697310001
 30
0.0
 11
-59.046806707800023
 21
-27.76400697310001
 31
0.0
  0
LINE
  5
9B5
  8
0
 10
-89.489540898399994
 20
-26.9082364834
 30
0.0
 11
-116.48954089839999
 21
-26.908257455300021
 31
0.0
  0
LINE
  5
9B6
  8
0
 10
-117.3883067078
 20
-26.45794821760002
 30
0.0
 11
-116.48954089839999
 21
-26.45794821760002
 31
0.0
  0
LINE
  5
9B7
  8
0
 10
-89.489540898399994
 20
-26.457927245700009
 30
0.0
 11
-60.080806707800001
 21
-26.45794821760002
 31
0.0
  0
LINE
  5
9B8
  8
0
 10
-116.48954089839999
 20
-25.908257455300021
 30
0.0
 11
-89.489540898399994
 21
-25.90823648340001
 31
0.0
  0
LINE
  5
9B9
  8
0
 10
-87.969806746656133
 20
-25.9083250238
 30
0.0
 11
-60.969801986299991
 21
-25.90832502380001
 31
0.0
  0
LINE
  5
9BA
  8
0
 10
-118.4223067078
 20
42.119993026899991
 30
0.0
 11
-118.4223067078
 21
-27.76400697310001
 31
0.0
  0
LINE
  5
9BB
  8
0
 10
-118.3593067078
 20
-27.76400697310001
 30
0.0
 11
-118.3593067078
 21
-27.81400697310001
 31
0.0
  0
LINE
  5
9BC
  8
0
 10
-118.24130670780001
 20
39.90997205499999
 30
0.0
 11
-118.24130670780001
 21
-27.76400697310001
 31
0.0
  0
LINE
  5
9BD
  8
0
 10
-117.5693067078
 20
-27.76400697310001
 30
0.0
 11
-117.5693067078
 21
39.90997205499999
 31
0.0
  0
LINE
  5
9BE
  8
0
 10
-117.3883067078
 20
39.90997205499999
 30
0.0
 11
-117.3883067078
 21
-27.76400697310001
 31
0.0
  0
LINE
  5
9BF
  8
0
 10
-117.3180855316
 20
-26.45794821760002
 30
0.0
 11
-117.3180855316
 21
39.90997205499999
 31
0.0
  0
LINE
  5
9C0
  8
0
 10
-117.1393067078
 20
6.2254485937999808
 30
0.0
 11
-117.1393067078
 21
7.0840358724999808
 31
0.0
  0
LINE
  5
9C1
  8
0
 10
-116.8893067078
 20
7.0840177079999833
 30
0.0
 11
-116.889306647
 21
6.2253303352999856
 31
0.0
  0
LINE
  5
9C2
  8
0
 10
-116.70822838799999
 20
7.2069870298514607
 30
0.0
 11
-116.70822838799999
 21
39.90997205499999
 31
0.0
  0
LINE
  5
9C3
  8
0
 10
-116.70822838799999
 20
7.2069870298514607
 30
0.0
 11
-116.70822838799999
 21
6.1024986824485117
 31
0.0
  0
LINE
  5
9C4
  8
0
 10
-116.48954089839999
 20
39.90997205499999
 30
0.0
 11
-116.48954089839999
 21
7.2047425446999824
 31
0.0
  0
LINE
  5
9C5
  8
0
 10
-116.48954089839999
 20
-25.908257455300021
 30
0.0
 11
-116.48954089839999
 21
-26.908257455300021
 31
0.0
  0
LINE
  5
9C6
  8
0
 10
-89.489540898399994
 20
7.2047635165999964
 30
0.0
 11
-89.489540898399994
 21
39.90999302689999
 31
0.0
  0
LINE
  5
9C7
  8
0
 10
-89.27127065587743
 20
6.1025310968070272
 30
0.0
 11
-89.271270656799999
 21
7.206994413020098
 31
0.0
  0
LINE
  5
9C8
  8
0
 10
-89.271270656799999
 20
39.90999302689999
 30
0.0
 11
-89.271270656799999
 21
7.206994413020098
 31
0.0
  0
LINE
  5
9C9
  8
0
 10
-89.089775088999986
 20
6.2254883531999994
 30
0.0
 11
-89.089775149800005
 21
7.084175725999998
 31
0.0
  0
LINE
  5
9CA
  8
0
 10
-88.839775089000014
 20
7.0840574674000001
 30
0.0
 11
-88.839775089000014
 21
6.225470188700001
 31
0.0
  0
LINE
  5
9CB
  8
0
 10
-88.660992860600004
 20
39.90999302689999
 30
0.0
 11
-88.660992860600004
 21
-26.457927245700009
 31
0.0
  0
LINE
  5
9CC
  8
0
 10
-88.489775089000005
 20
39.90999302689999
 30
0.0
 11
-88.489775089000005
 21
-26.457927245700009
 31
0.0
  0
LINE
  5
9CD
  8
0
 10
-88.960412332700002
 20
6.1005507711999982
 30
0.0
 11
-89.210455632077668
 21
6.1005492591849579
 31
0.0
  0
LINE
  5
9CE
  8
0
 10
-116.76866877649999
 20
6.1005297752999823
 30
0.0
 11
-117.0186694711
 21
6.100529799499987
 31
0.0
  0
LINE
  5
9CF
  8
0
 10
-89.339775088999986
 20
6.104763516600002
 30
0.0
 11
-116.6393067078
 21
6.1047425446999881
 31
0.0
  0
LINE
  5
9D0
  8
0
 10
-116.70822838799999
 20
6.3326475784289382
 30
0.0
 11
-89.271270656069674
 21
6.3326686478223557
 31
0.0
  0
LINE
  5
9D1
  8
0
 10
-116.70822838799999
 20
6.9768374136289326
 30
0.0
 11
-89.271270656607783
 21
6.976858483022351
 31
0.0
  0
LINE
  5
9D2
  8
0
 10
-116.6393067078
 20
7.2047425446999824
 30
0.0
 11
-89.339775088999986
 21
7.2047635165999964
 31
0.0
  0
LINE
  5
9D3
  8
0
 10
-117.0186694642
 20
7.2089552900999863
 30
0.0
 11
-116.76866875410001
 21
7.2089553147999856
 31
0.0
  0
LINE
  5
9D4
  8
0
 10
-89.210413020399997
 20
7.2089762859999951
 30
0.0
 11
-88.960412325700005
 21
7.2089762617000011
 31
0.0
  0
LINE
  5
9D5
  8
0
 10
-88.173885546800022
 20
39.909904486500011
 30
0.0
 11
-88.173885546800022
 21
-26.458015786099988
 31
0.0
  0
LINE
  5
9D6
  8
0
 10
-87.969811399165394
 20
39.909904486500011
 30
0.0
 11
-87.969806707800004
 21
-26.458015786099988
 31
0.0
  0
LINE
  5
9D7
  8
0
 10
-60.969801986300013
 20
-26.457927245699999
 30
0.0
 11
-60.969801986300013
 21
39.90999302689999
 31
0.0
  0
LINE
  5
9D8
  8
0
 10
-60.76572786869999
 20
-26.457927245700009
 30
0.0
 11
-60.76572786869999
 21
39.90999302689999
 31
0.0
  0
LINE
  5
9D9
  8
0
 10
-60.080806707800001
 20
-27.76400697310001
 30
0.0
 11
-60.080806707800001
 21
39.90997205499999
 31
0.0
  0
LINE
  5
9DA
  8
0
 10
-59.899806707799989
 20
39.90997205499999
 30
0.0
 11
-59.899806707799989
 21
-27.76400697310001
 31
0.0
  0
LINE
  5
9DB
  8
0
 10
-59.227806707799992
 20
-27.76400697310001
 30
0.0
 11
-59.227806707799992
 21
39.90997205499999
 31
0.0
  0
LINE
  5
9DC
  8
0
 10
-59.109306707800009
 20
-27.81400697310001
 30
0.0
 11
-59.109306707800009
 21
-27.76400697310001
 31
0.0
  0
LINE
  5
9DD
  8
0
 10
-59.046806707800023
 20
39.909996250799992
 30
0.0
 11
-59.046806707800023
 21
-27.76400697310001
 31
0.0
  0
LINE
  5
9DE
  8
0
 10
-59.046806707800023
 20
39.909996250799992
 30
0.0
 11
-59.046806707800023
 21
42.119993026899991
 31
0.0
  0
LINE
  5
9DF
  8
0
 10
-60.969806707700002
 20
39.232763516599981
 30
0.0
 11
-87.969806707800004
 21
39.232674976199988
 31
0.0
  0
LINE
  5
9E0
  8
0
 10
-89.489540898399994
 20
39.232763516599981
 30
0.0
 11
-116.48954089839999
 21
39.232742544699981
 31
0.0
  0
LINE
  5
9E1
  8
0
 10
-59.046806707800023
 20
39.90997205499999
 30
0.0
 11
-118.4223067078
 21
39.90997205499999
 31
0.0
  0
LINE
  5
9E2
  8
0
 10
-118.4223067078
 20
40.178310595699983
 30
0.0
 11
-59.046806707800023
 21
40.178310595699983
 31
0.0
  0
LINE
  5
9E3
  8
0
 10
-118.4223067078
 20
41.775604837400003
 30
0.0
 11
-59.046806707800023
 21
41.775604837400003
 31
0.0
  0
LINE
  5
9E4
  8
0
 10
-59.046806707800023
 20
42.119993026899991
 30
0.0
 11
-118.4223067078
 21
42.119993026899991
 31
0.0
  0
ARC
  5
9E5
  8
0
 10
-116.7643067078
 20
6.225453641499981
 30
0.0
 40
0.125
 50
179.97220820519991
 51
268.00016841790671
  0
ARC
  5
9E6
  8
0
 10
-117.0143067077739
 20
6.2254536415105051
 30
0.0
 40
0.1250000000260312
 50
180.00231369612149
 51
267.99985037267641
  0
ARC
  5
9E7
  8
0
 10
-116.7643067078
 20
7.0840314477999859
 30
0.0
 40
0.125
 50
91.999821074087436
 51
180.00629784909961
  0
ARC
  5
9E8
  8
0
 10
-117.0143067078
 20
7.0840314477999859
 30
0.0
 40
0.125
 50
91.997759643700135
 51
179.99797185999969
  0
ARC
  5
9E9
  8
0
 10
-89.214775102060671
 20
6.2254746186764862
 30
0.0
 40
0.1250000130600829
 50
271.98029323608699
 51
0.0062954298792179
  0
ARC
  5
9EA
  8
0
 10
-88.964775089
 20
6.225474613399995
 30
0.0
 40
0.125
 50
271.99775964370008
 51
359.99797186000018
  0
ARC
  5
9EB
  8
0
 10
-89.214775089
 20
7.0840524196999999
 30
0.0
 40
0.125
 50
359.97220820519988
 51
88.000169381011233
  0
ARC
  5
9EC
  8
0
 10
-88.964775089
 20
7.0840524196999999
 30
0.0
 40
0.125
 50
0.0023136912996959
 51
88.001974734000001
  0
LINE
  5
9ED
  8
0
 10
-89.339775088999986
 20
7.2047635165999964
 30
0.0
 11
-89.210413020399997
 21
7.2089762859999951
 31
0.0
  0
LINE
  5
9EE
  8
0
 10
-89.339775088999986
 20
6.104763516600002
 30
0.0
 11
-89.210455632077668
 21
6.1005492591849579
 31
0.0
  0
LINE
  5
9EF
  8
0
 10
-116.6393067078
 20
6.1047425446999881
 30
0.0
 11
-116.76866877649999
 21
6.1005297752999823
 31
0.0
  0
LINE
  5
9F0
  8
0
 10
-116.6393067078
 20
7.2047425446999824
 30
0.0
 11
-116.76866875476981
 21
7.2089553147999794
 31
0.0
  0
LINE
  5
9F1
  8
0
 10
-116.70822838799999
 20
6.1024986824485117
 30
0.0
 11
-116.70822838799999
 21
-26.45794821760002
 31
0.0
  0
LINE
  5
9F2
  8
0
 10
-116.48954089839999
 20
-26.60048634270002
 30
0.0
 11
-116.48954089839999
 21
6.1047431675999837
 31
0.0
  0
LINE
  5
9F3
  8
0
 10
-89.489540898399994
 20
6.1047641394999976
 30
0.0
 11
-89.489540898399994
 21
-26.9082364834
 31
0.0
  0
LINE
  5
9F4
  8
0
 10
-89.271270656799999
 20
-26.457927245700009
 30
0.0
 11
-89.27127065587743
 21
6.1025310968070272
 31
0.0
  0
ATTDEF
  5
BC4
  8
DEFPOINTS
 10
-88.739267549722115
 20
-27.823123502730208
 30
0.0
 40
0.001
  1
5975-59
  3

  2
MODELNUMBER
 70
     0
1001
ACDBATTR
1070
     0
1070
     1
  0
ATTDEF
  5
BC5
  8
DEFPOINTS
 10
-88.739267549722115
 20
-27.824790169396881
 30
0.0
 40
0.001
  1
DELUXE
  3

  2
TRADENAME
 70
     0
1001
ACDBATTR
1070
     0
1070
     1
  0
ATTDEF
  5
BC6
  8
DEFPOINTS
 10
-88.739267549722115
 20
-27.826456836063539
 30
0.0
 40
0.001
  1
SHOWER DOOR
  3

  2
PRODUCT
 70
     0
1001
ACDBATTR
1070
     0
1070
     1
  0
ATTDEF
  5
BC7
  8
DEFPOINTS
 10
-88.739267549722115
 20
-27.828123502730211
 30
0.0
 40
0.001
  1
ALUMINUM/GLASS
  3

  2
MATERIAL
 70
     0
1001
ACDBATTR
1070
     0
1070
     1
  0
ENDSEC
  0
EOF
