  0
SECTION
  2
HEADER
  9
$ACADVER
  1
AC1009
  9
$INSBASE
 10
14.628071954799999
 20
-25.510371213999999
 30
0.0
  9
$EXTMIN
 10
11.7555337274
 20
-25.523858309468348
 30
0.0
  9
$EXTMAX
 10
15.7633999241
 20
44.423628786000002
 30
0.0
  9
$LIMMIN
 10
0.0
 20
0.0
  9
$LIMMAX
 10
22.0
 20
17.0
  9
$ORTHOMODE
 70
     1
  9
$REGENMODE
 70
     1
  9
$FILLMODE
 70
     1
  9
$QTEXTMODE
 70
     0
  9
$MIRRTEXT
 70
     0
  9
$DRAGMODE
 70
     2
  9
$LTSCALE
 40
1.2099999999999991
  9
$OSMODE
 70
    39
  9
$ATTMODE
 70
     1
  9
$TEXTSIZE
 40
0.2
  9
$TRACEWID
 40
0.05
  9
$TEXTSTYLE
  7
STANDARD
  9
$CLAYER
  8
0
  9
$CELTYPE
  6
BYLAYER
  9
$CECOLOR
 62
   256
  9
$DIMSCALE
 40
1.0
  9
$DIMASZ
 40
0.1875
  9
$DIMEXO
 40
0.0625
  9
$DIMDLI
 40
0.8359999999999999
  9
$DIMRND
 40
0.0
  9
$DIMDLE
 40
0.0
  9
$DIMEXE
 40
0.125
  9
$DIMTP
 40
0.0
  9
$DIMTM
 40
0.0
  9
$DIMTXT
 40
0.15625
  9
$DIMCEN
 40
0.198
  9
$DIMTSZ
 40
0.0
  9
$DIMTOL
 70
     0
  9
$DIMLIM
 70
     0
  9
$DIMTIH
 70
     1
  9
$DIMTOH
 70
     1
  9
$DIMSE1
 70
     0
  9
$DIMSE2
 70
     0
  9
$DIMTAD
 70
     0
  9
$DIMZIN
 70
     0
  9
$DIMBLK
  1

  9
$DIMASO
 70
     1
  9
$DIMSHO
 70
     1
  9
$DIMPOST
  1
\X
  9
$DIMAPOST
  1

  9
$DIMALT
 70
     1
  9
$DIMALTD
 70
     2
  9
$DIMALTF
 40
25.399999999999999
  9
$DIMLFAC
 40
1.0
  9
$DIMTOFL
 70
     0
  9
$DIMTVP
 40
0.0
  9
$DIMTIX
 70
     0
  9
$DIMSOXD
 70
     0
  9
$DIMSAH
 70
     0
  9
$DIMBLK1
  1

  9
$DIMBLK2
  1

  9
$DIMSTYLE
  2
STANDARD
  9
$DIMCLRD
 70
     0
  9
$DIMCLRE
 70
     0
  9
$DIMCLRT
 70
     0
  9
$DIMTFAC
 40
1.0
  9
$DIMGAP
 40
0.09
  9
$LUNITS
 70
     2
  9
$LUPREC
 70
     4
  9
$SKETCHINC
 40
0.1
  9
$FILLETRAD
 40
0.0
  9
$AUNITS
 70
     0
  9
$AUPREC
 70
     0
  9
$MENU
  1
.
  9
$ELEVATION
 40
0.0
  9
$PELEVATION
 40
0.0
  9
$THICKNESS
 40
0.0
  9
$LIMCHECK
 70
     0
  9
$BLIPMODE
 70
     0
  9
$CHAMFERA
 40
0.0
  9
$CHAMFERB
 40
0.0
  9
$SKPOLY
 70
     0
  9
$TDCREATE
 40
2458131.589154433
  9
$TDUPDATE
 40
2458134.5042203469
  9
$TDINDWG
 40
0.0748146528
  9
$TDUSRTIMER
 40
0.0748146528
  9
$USRTIMER
 70
     1
  9
$ANGBASE
 50
0.0
  9
$ANGDIR
 70
     0
  9
$PDMODE
 70
     0
  9
$PDSIZE
 40
0.3125
  9
$PLINEWID
 40
0.0
  9
$COORDS
 70
     1
  9
$SPLFRAME
 70
     0
  9
$SPLINETYPE
 70
     6
  9
$SPLINESEGS
 70
     8
  9
$ATTDIA
 70
     1
  9
$ATTREQ
 70
     1
  9
$HANDLING
 70
     1
  9
$HANDSEED
  5
138A
  9
$SURFTAB1
 70
     6
  9
$SURFTAB2
 70
     6
  9
$SURFTYPE
 70
     6
  9
$SURFU
 70
     6
  9
$SURFV
 70
     6
  9
$UCSNAME
  2

  9
$UCSORG
 10
0.0
 20
0.0
 30
0.0
  9
$UCSXDIR
 10
1.0
 20
0.0
 30
0.0
  9
$UCSYDIR
 10
0.0
 20
1.0
 30
0.0
  9
$PUCSNAME
  2

  9
$PUCSORG
 10
0.0
 20
0.0
 30
0.0
  9
$PUCSXDIR
 10
1.0
 20
0.0
 30
0.0
  9
$PUCSYDIR
 10
0.0
 20
1.0
 30
0.0
  9
$USERI1
 70
     0
  9
$USERI2
 70
     0
  9
$USERI3
 70
     0
  9
$USERI4
 70
     0
  9
$USERI5
 70
     0
  9
$USERR1
 40
0.0
  9
$USERR2
 40
0.0
  9
$USERR3
 40
0.0
  9
$USERR4
 40
0.0
  9
$USERR5
 40
0.0
  9
$WORLDVIEW
 70
     1
  9
$SHADEDGE
 70
     3
  9
$SHADEDIF
 70
    70
  9
$TILEMODE
 70
     1
  9
$MAXACTVP
 70
    48
  9
$PLIMCHECK
 70
     0
  9
$PEXTMIN
 10
1.0000000000000000E+020
 20
1.0000000000000000E+020
 30
1.0000000000000000E+020
  9
$PEXTMAX
 10
-1.0000000000000000E+020
 20
-1.0000000000000000E+020
 30
-1.0000000000000000E+020
  9
$PLIMMIN
 10
0.0
 20
0.0
  9
$PLIMMAX
 10
12.0
 20
9.0
  9
$UNITMODE
 70
     0
  9
$VISRETAIN
 70
     1
  9
$PLINEGEN
 70
     0
  9
$PSLTSCALE
 70
     1
  0
ENDSEC
  0
SECTION
  2
TABLES
  0
TABLE
  2
VPORT
 70
     1
  0
VPORT
  2
*ACTIVE
 70
     0
 10
0.0
 20
0.0
 11
1.0
 21
1.0
 12
29.16728302487812
 22
-1.5123229795672011
 13
0.0
 23
0.0
 14
1.0
 24
1.0
 15
0.0
 25
0.0
 16
0.0
 26
0.0
 36
1.0
 17
0.0
 27
0.0
 37
0.0
 40
123.4817261333164
 41
2.0329087048832268
 42
50.0
 43
0.0
 44
0.0
 50
0.0
 51
0.0
 71
     0
 72
   100
 73
     1
 74
     1
 75
     0
 76
     0
 77
     0
 78
     0
  0
ENDTAB
  0
TABLE
  2
LTYPE
 70
     2
  0
LTYPE
  2
CONTINUOUS
 70
     0
  3
Solid line
 72
    65
 73
     0
 40
0.0
  0
LTYPE
  2
PHANTOM2
 70
     0
  3
___ _ _ ___ _ _ ___ _ _ ___ _ _
 72
    65
 73
     6
 40
1.25
 49
0.625
 49
-0.125
 49
0.125
 49
-0.125
 49
0.125
 49
-0.125
  0
ENDTAB
  0
TABLE
  2
LAYER
 70
     2
  0
LAYER
  2
0
 70
     0
 62
     7
  6
CONTINUOUS
  0
LAYER
  2
DEFPOINTS
 70
     0
 62
     7
  6
CONTINUOUS
  0
ENDTAB
  0
TABLE
  2
STYLE
 70
     1
  0
STYLE
  2
STANDARD
 70
     0
 40
0.0
 41
0.8
 50
0.0
 71
     0
 42
0.2
  3
txt
  4

  0
ENDTAB
  0
TABLE
  2
VIEW
 70
     0
  0
ENDTAB
  0
TABLE
  2
UCS
 70
     0
  0
ENDTAB
  0
TABLE
  2
APPID
 70
     7
  0
APPID
  2
ACAD
 70
     0
  0
APPID
  2
ACAD_MLEADERVER
 70
     0
  0
APPID
  2
ACAD_NAV_VCDISPLAY
 70
     0
  0
APPID
  2
ACAD_DSTYLE_DIMJAG
 70
     0
  0
APPID
  2
ACAD_DSTYLE_DIMTALN
 70
     0
  0
APPID
  2
ACAD_EXEMPT_FROM_CAD_STANDARDS
 70
     0
  0
APPID
  2
ACDBATTR
 70
     0
  0
ENDTAB
  0
TABLE
  2
DIMSTYLE
 70
     1
  0
DIMSTYLE
  2
STANDARD
 70
     0
  3

  4

  5

  6

  7

 40
1.0
 41
0.1875
 42
0.0625
 43
0.38
 44
0.125
 45
0.0
 46
0.0
 47
1.5
 48
1.5
140
0.15625
141
0.09
142
0.0
143
25.399999999999999
144
1.0
145
0.0
146
1.0
147
0.09
 71
     0
 72
     0
 73
     1
 74
     1
 75
     0
 76
     0
 77
     0
 78
     4
170
     0
171
     2
172
     0
173
     0
174
     0
175
     0
176
     0
177
     0
178
     0
  0
ENDTAB
  0
ENDSEC
  0
SECTION
  2
BLOCKS
  0
BLOCK
  8
0
  2
$MODEL_SPACE
 70
     0
 10
0.0
 20
0.0
 30
0.0
  3
$MODEL_SPACE
  1

  0
ENDBLK
  5
21
  8
0
  0
BLOCK
 67
     1
  8
0
  2
$PAPER_SPACE
 70
     0
 10
0.0
 20
0.0
 30
0.0
  3
$PAPER_SPACE
  1

  0
ENDBLK
  5
1D
 67
     1
  8
0
  0
ENDSEC
  0
SECTION
  2
ENTITIES
  0
LINE
  5
B7A
  8
0
 10
15.5310915364
 20
-25.510371213999999
 30
0.0
 11
15.1750915364
 21
-25.510371213999999
 31
0.0
  0
LINE
  5
B7B
  8
0
 10
13.816091536399989
 20
-25.510371213999999
 30
0.0
 11
13.6980915364
 21
-25.510371213999999
 31
0.0
  0
LINE
  5
B7C
  8
0
 10
15.47409153640001
 20
-25.460371213999998
 30
0.0
 11
15.56699417000001
 21
-25.460371213999991
 31
0.0
  0
LINE
  5
B7D
  8
0
 10
15.1718109837
 20
-25.447266128300001
 30
0.0
 11
15.47409153640001
 21
-25.457821997817561
 31
0.0
  0
LINE
  5
B7E
  8
0
 10
15.4310915364
 20
-25.050371213999998
 30
0.0
 11
15.4130915364
 21
-25.050371213999998
 31
0.0
  0
LINE
  5
B84
  8
0
 10
13.8701309516
 20
-24.214371080799999
 30
0.0
 11
13.85809204840001
 21
-24.214371080799999
 31
0.0
  0
LINE
  5
B85
  8
0
 10
15.065583066497849
 20
-24.854091452739599
 30
0.0
 11
13.8685623639476
 21
-24.812290668755939
 31
0.0
  0
LINE
  5
B86
  8
0
 10
15.38158306649888
 20
-24.845114224939639
 30
0.0
 11
15.147562363947291
 21
-24.836942142055928
 31
0.0
  0
LINE
  5
B87
  8
0
 10
13.857600006301739
 20
-24.741864806760379
 30
0.0
 11
15.43164992839999
 21
-24.7968319812
 31
0.0
  0
LINE
  5
B88
  8
0
 10
15.47409153640001
 20
-24.765371214000002
 30
0.0
 11
13.907091536399999
 21
-24.7106503682
 31
0.0
  0
LINE
  5
B8C
  8
0
 10
15.394664070699999
 20
43.034820474300012
 30
0.0
 11
15.4246640707
 21
43.064820474300006
 31
0.0
  0
LINE
  5
B8D
  8
0
 10
13.689149739599999
 20
-25.460371214000009
 30
0.0
 11
13.689149739599999
 21
42.97762878599999
 31
0.0
  0
LINE
  5
B8E
  8
0
 10
13.76529992409999
 20
43.083628785999998
 30
0.0
 11
13.76529992409999
 21
43.058846936499997
 31
0.0
  0
LINE
  5
B8F
  8
0
 10
13.782091536399999
 20
42.97762878599999
 30
0.0
 11
13.782091536399999
 21
-25.460371213999998
 31
0.0
  0
LINE
  5
B90
  8
0
 10
13.81029992410001
 20
43.059155419700012
 30
0.0
 11
13.81029992410001
 21
43.128628786
 31
0.0
  0
LINE
  5
B91
  8
0
 10
13.8420915364
 20
-24.230371214000002
 30
0.0
 11
13.8420915364
 21
-24.7258723586
 31
0.0
  0
LINE
  5
B92
  8
0
 10
13.85209177623878
 20
-24.8281961339578
 30
0.0
 11
13.852091576399999
 21
-25.30937428950001
 31
0.0
  0
LINE
  5
B93
  8
0
 10
13.907091536399999
 20
-24.184871214000001
 30
0.0
 11
13.907091536399999
 21
-24.7106503682
 31
0.0
  0
LINE
  5
B94
  8
0
 10
11.9726648431
 20
8.3995815575999977
 30
0.0
 11
13.689149739599999
 21
8.3995805429000008
 31
0.0
  0
LINE
  5
B95
  8
0
 10
11.97263312340001
 20
9.5170409228999961
 30
0.0
 11
13.689149739599999
 21
9.5170409276000036
 31
0.0
  0
LINE
  5
B96
  8
0
 10
14.090299924100011
 20
43.122128785999998
 30
0.0
 11
14.090299924100011
 21
43.059155419700012
 31
0.0
  0
LINE
  5
B97
  8
0
 10
14.135299924099989
 20
43.059155419700012
 30
0.0
 11
14.135299924099989
 21
43.122128785999998
 31
0.0
  0
LINE
  5
B9B
  8
0
 10
15.031091536400909
 20
-25.366371720696169
 30
0.0
 11
15.03109163810001
 21
-25.129182555
 31
0.0
  0
LINE
  5
B9F
  8
0
 10
15.08109153640001
 20
-25.053872869599999
 30
0.0
 11
15.08109153640001
 21
-24.870083900899999
 31
0.0
  0
LINE
  5
BA0
  8
0
 10
15.08109153640001
 20
-25.129371213999999
 30
0.0
 11
15.08109153640001
 21
-25.3533233906
 31
0.0
  0
LINE
  5
BA1
  8
0
 10
15.1146640707
 20
43.122128785999998
 30
0.0
 11
15.1146640707
 21
43.059155419700012
 31
0.0
  0
LINE
  5
BA2
  8
0
 10
15.131091776238771
 20
-24.8528476072578
 30
0.0
 11
15.13109153639968
 21
-25.068543418003991
 31
0.0
  0
LINE
  5
BA3
  8
0
 10
15.159664070700019
 20
43.059155419700012
 30
0.0
 11
15.159664070700019
 21
43.122128785999998
 31
0.0
  0
LINE
  5
BAE
  8
0
 10
15.39709153640001
 20
-25.034371214
 30
0.0
 11
15.39709153640001
 21
-24.8611066731
 31
0.0
  0
LINE
  5
BB1
  8
0
 10
15.43966407069999
 20
43.128628786
 30
0.0
 11
15.43966407069999
 21
43.059155419700012
 31
0.0
  0
LINE
  5
BB2
  8
0
 10
15.4470913956907
 20
-24.812889336394552
 30
0.0
 11
15.447091484
 21
-25.034371415500001
 31
0.0
  0
LINE
  5
BB3
  8
0
 10
15.47409153640001
 20
42.97762878599999
 30
0.0
 11
15.47409153640001
 21
-25.460371213999998
 31
0.0
  0
LINE
  5
BB4
  8
0
 10
15.484664070699999
 20
43.058846936499997
 30
0.0
 11
15.484664070699999
 21
43.083628785999998
 31
0.0
  0
LINE
  5
BB5
  8
0
 10
15.5470913956907
 20
-25.475889336394552
 30
0.0
 11
15.54709148399999
 21
-25.494371415500002
 31
0.0
  0
LINE
  5
BB6
  8
0
 10
15.562091536400001
 20
42.267628786000003
 30
0.0
 11
15.562091536400001
 21
42.229628785999999
 31
0.0
  0
LINE
  5
BB7
  8
0
 10
15.56699417000001
 20
42.97762878599999
 30
0.0
 11
15.56699417000001
 21
42.279154776585813
 31
0.0
  0
LINE
  5
BB8
  8
0
 10
15.56699417000001
 20
42.218104241617482
 30
0.0
 11
15.56699417000001
 21
-25.460371213999998
 31
0.0
  0
LINE
  5
BBA
  8
0
 10
15.6378581091
 20
41.056310725899998
 30
0.0
 11
15.6378643565
 21
-23.108688599899999
 31
0.0
  0
LINE
  5
BBC
  8
0
 10
15.6378643565
 20
-23.108688599899999
 30
0.0
 11
15.61920963283228
 21
-23.2203628241
 31
0.0
  0
LINE
  5
BBD
  8
0
 10
15.6378581091
 20
41.056310725899998
 30
0.0
 11
15.61882594588465
 21
41.1519842947
 31
0.0
  0
LINE
  5
BBE
  8
0
 10
15.61920963283228
 20
-23.2203628241
 30
0.0
 11
15.56699417000001
 21
-23.297935730083001
 31
0.0
  0
LINE
  5
BBF
  8
0
 10
15.61882594588465
 20
41.1519842947
 30
0.0
 11
15.56699417000001
 21
41.229557200583208
 31
0.0
  0
LINE
  5
BC4
  8
0
 10
15.4394520324
 20
42.999925461099991
 30
0.0
 11
15.35623970829999
 21
42.97762878599999
 31
0.0
  0
LINE
  5
BC6
  8
0
 10
14.090087885899999
 20
43.000233944299993
 30
0.0
 11
14.0057242865
 21
42.97762878599999
 31
0.0
  0
LINE
  5
BC7
  8
0
 10
13.999799924099991
 20
43.022628786000013
 30
0.0
 11
14.0784410288
 21
43.043700606500011
 31
0.0
  0
LINE
  5
BC8
  8
0
 10
15.59333881531313
 20
42.28364653185124
 30
0.0
 11
15.578101928068151
 21
42.283628782625406
 31
0.0
  0
LINE
  5
BC9
  8
0
 10
13.673091536399991
 20
42.283628786000008
 30
0.0
 11
13.656676456399991
 21
42.283628786000008
 31
0.0
  0
LINE
  5
BCA
  8
0
 10
13.689149739599999
 20
42.97762878599999
 30
0.0
 11
15.56699417000001
 21
42.97762878599999
 31
0.0
  0
LINE
  5
BCB
  8
0
 10
15.349164070700001
 20
43.022628786000013
 30
0.0
 11
15.250164070700009
 21
43.022628786000013
 31
0.0
  0
LINE
  5
BCC
  8
0
 10
13.999799924099991
 20
43.022628786000013
 30
0.0
 11
13.900799924099999
 21
43.022628786000013
 31
0.0
  0
LINE
  5
BCD
  8
0
 10
14.045299924099989
 20
43.034820474300012
 30
0.0
 11
13.85529992409999
 21
43.034820474300012
 31
0.0
  0
LINE
  5
BCE
  8
0
 10
15.2046640707
 20
43.034820474300012
 30
0.0
 11
15.385299924099989
 21
43.034820474300012
 31
0.0
  0
LINE
  5
BCF
  8
0
 10
15.385299924099989
 20
43.034820474300012
 30
0.0
 11
15.394664070699999
 21
43.034820474300012
 31
0.0
  0
LINE
  5
BD0
  8
0
 10
13.526084703200009
 20
43.099628786000011
 30
0.0
 11
13.74930012541634
 21
43.099628785998753
 31
0.0
  0
LINE
  5
BD1
  8
0
 10
15.500664070699999
 20
43.099628786000011
 30
0.0
 11
15.67322053539999
 21
43.099628786000011
 31
0.0
  0
LINE
  5
BD2
  8
0
 10
15.70044535190001
 20
43.144628785999991
 30
0.0
 11
15.45566407070001
 21
43.144628785999991
 31
0.0
  0
LINE
  5
BD3
  8
0
 10
13.79429992409999
 20
43.144628785999991
 30
0.0
 11
13.4987228441
 21
43.144628785999991
 31
0.0
  0
LINE
  5
BDE
  8
0
 10
13.893724286499999
 20
42.97762878599999
 30
0.0
 11
13.8105119624
 21
42.999925461099991
 31
0.0
  0
LINE
  5
BDF
  8
0
 10
13.822158819400009
 20
43.043700606500011
 30
0.0
 11
13.900799924099999
 21
43.022628786000013
 31
0.0
  0
LINE
  5
BE0
  8
0
 10
15.2442397083
 20
42.97762878599999
 30
0.0
 11
15.15987610889999
 21
43.000233944299993
 31
0.0
  0
LINE
  5
BE1
  8
0
 10
15.171522965999999
 20
43.043700606500011
 30
0.0
 11
15.250164070700009
 21
43.022628786000013
 31
0.0
  0
ARC
  5
BE2
  8
0
 10
12.75553372740001
 20
8.9583107352999995
 30
0.0
 40
1.0
 50
161.2103359690999
 51
198.7896640309001
  0
ARC
  5
BE3
  8
0
 10
9.4983999240999992
 20
43.3108542652
 30
0.0
 40
6.2649999999999988
 50
350.87415243889978
 51
7.2671664815999089
  0
ARC
  5
BE4
  8
0
 10
9.4983999240999992
 20
43.3108542652
 30
0.0
 40
6.2199999999999989
 50
358.61248754389987
 51
7.2671664815999089
  0
ARC
  5
BE5
  8
0
 10
9.4986425406892181
 20
43.310821933726253
 30
0.0
 40
6.1947553632557488
 50
350.58080656853508
 51
357.8944093900642
  0
ARC
  5
BE6
  8
0
 10
13.68978199739999
 20
42.337228785999997
 30
0.0
 40
0.125
 50
189.3444806984001
 51
261.5753324727998
  0
ARC
  5
BE7
  8
0
 10
13.685281997399979
 20
44.180004750199998
 30
0.0
 40
0.125
 50
104.52405696
 51
172.05937443520011
  0
ARC
  5
BE8
  8
0
 10
13.508830503997981
 20
42.445025549162231
 30
0.0
 40
0.110010131826066
 50
6.0012889026302201
 51
54.779111314842162
  0
ARC
  5
BE9
  8
0
 10
13.50828199739999
 20
44.082628786000001
 30
0.0
 40
0.085
 50
308.67014332380012
 51
355.04381276819981
  0
ARC
  5
BEA
  8
0
 10
13.685281997399979
 20
44.180004750199998
 30
0.0
 40
0.08
 50
101.3853599980998
 51
172.0593744341999
  0
ARC
  5
BEB
  8
0
 10
13.602007381100011
 20
43.9655153689
 30
0.0
 40
0.065
 50
128.6701432995998
 51
170.87082812850011
  0
ARC
  5
BEC
  8
0
 10
13.53908199739999
 20
44.007628785999998
 30
0.0
 40
0.0410779871
 50
112.3263217827994
 51
170.46482348049989
  0
ARC
  5
BED
  8
0
 10
13.508840351400011
 20
42.445028785999988
 30
0.0
 40
0.04
 50
6.0001484331998478
 51
67.109512854700284
  0
ARC
  5
BEE
  8
0
 10
13.539958031199999
 20
42.51872878599999
 30
0.0
 40
0.04
 50
189.20373979499999
 51
247.10951197750049
  0
ARC
  5
BEF
  8
0
 10
13.50828199739999
 20
44.082628786000001
 30
0.0
 40
0.04
 50
292.32632177099941
 51
355.04381277149997
  0
ARC
  5
BF0
  8
0
 10
13.498723599499529
 20
43.160630630460894
 30
0.0
 40
0.0160018444787407
 50
180.74306358634291
 51
269.99729523663768
  0
ARC
  5
BF1
  8
0
 10
13.5262961473868
 20
43.083627928526077
 30
0.0
 40
0.0160022544831982
 50
90.757094075472907
 51
182.40342944691301
  0
ARC
  5
BF2
  8
0
 10
13.581712753999989
 20
42.547817953399999
 30
0.0
 40
0.016
 50
189.5289747120998
 51
233.8603499976002
  0
ARC
  5
BF3
  8
0
 10
13.656676456399991
 20
42.299628786
 30
0.0
 40
0.016
 50
187.2691484610998
 51
270.00000000009942
  0
ARC
  5
BF4
  8
0
 10
13.67304995034487
 20
42.267528388381749
 30
0.0
 40
0.0161004513249341
 50
0.5196033997740436
 51
89.852009856930593
  0
ARC
  5
BF5
  8
0
 10
13.67285776859214
 20
42.229811262189983
 30
0.0
 40
0.016292992876724
 50
265.10815440514108
 51
359.35829259807622
  0
ARC
  5
BF6
  8
0
 10
13.957091536399981
 20
-25.478371213999999
 30
0.0
 40
0.175
 50
9.1883710031999257
 51
117.7729253227001
  0
ARC
  5
BF7
  8
0
 10
13.95665870812971
 20
-25.478929123388461
 30
0.0
 40
0.1255206693544753
 50
9.8122443823136756
 51
187.06667501247949
  0
ARC
  5
BF8
  8
0
 10
13.844591536399999
 20
-24.184871214000001
 30
0.0
 40
0.0625
 50
0.0
 51
180.0
  0
ARC
  5
BF9
  8
0
 10
13.838091536400009
 20
-24.210371213999998
 30
0.0
 40
0.056
 50
88.999080148099068
 51
180.0
  0
ARC
  5
BFA
  8
0
 10
13.84009153639999
 20
-24.200371214
 30
0.0
 40
0.046
 50
3.5994985801998891
 51
91.272616818499756
  0
ARC
  5
BFB
  8
0
 10
14.105004637200519
 20
-25.453355989742541
 30
0.0
 40
0.0250134916996246
 50
189.62421311587789
 51
6.7243986431455678
  0
ARC
  5
BFC
  8
0
 10
13.86809153640001
 20
-24.82828373980001
 30
0.0
 40
0.0160000000000095
 50
88.313729614634269
 51
179.68628311875719
  0
ARC
  5
BFD
  8
0
 10
13.86809153501488
 20
-25.309374220102661
 30
0.0
 40
0.0159999586150276
 50
180.00024851159071
 51
297.77300897372862
  0
ARC
  5
BFE
  8
0
 10
13.816091536399989
 20
-25.494371214000001
 30
0.0
 40
0.016
 50
270.0
 51
0.0
  0
ARC
  5
BFF
  8
0
 10
13.870024795499999
 20
-24.198371214000002
 30
0.0
 40
0.016
 50
270.57272398810119
 51
3.5021092517000749
  0
ARC
  5
C00
  8
0
 10
13.858091536399989
 20
-24.230371214000002
 30
0.0
 40
0.016
 50
89.998166580900588
 51
180.0
  0
ARC
  5
C01
  8
0
 10
13.858091536399989
 20
-24.7258723586
 30
0.0
 40
0.016
 50
180.0
 51
268.2395605130003
  0
ARC
  5
C07
  8
0
 10
15.1750915364
 20
-25.366371214000001
 30
0.0
 40
0.144
 50
180.0002016079998
 51
270.0
  0
ARC
  5
C08
  8
0
 10
15.1750915364
 20
-25.3533233906
 30
0.0
 40
0.094
 50
180.0
 51
267.9999999999996
  0
ARC
  5
C09
  8
0
 10
15.09722514558416
 20
-25.129412591368801
 30
0.0
 40
0.0661339075579772
 50
112.1263625196631
 51
179.80070526404879
  0
ARC
  5
C0A
  8
0
 10
15.0850915364
 20
-25.068543588699999
 30
0.0
 40
0.046
 50
281.15993686040031
 51
0.0002126122000087
  0
ARC
  5
C14
  8
0
 10
15.4310915364
 20
-25.034371214
 30
0.0
 40
0.016
 50
270.0
 51
359.99927824270009
  0
ARC
  5
C15
  8
0
 10
15.4130915364
 20
-25.034371214
 30
0.0
 40
0.016
 50
180.0
 51
270.0
  0
ARC
  5
C16
  8
0
 10
15.381091536400019
 20
-24.8611066731
 30
0.0
 40
0.016
 50
0.0
 51
88.239560510799279
  0
ARC
  5
C17
  8
0
 10
15.14709153640001
 20
-24.8529352131
 30
0.0
 40
0.016
 50
88.313729615800753
 51
179.68628311879999
  0
ARC
  5
C18
  8
0
 10
15.097091536400001
 20
-25.129371213999999
 30
0.0
 40
0.016
 50
101.1599369061004
 51
180.0
  0
ARC
  5
C19
  8
0
 10
15.5310915364
 20
-25.475822234399999
 30
0.0
 40
0.016
 50
359.75970797780008
 51
74.947612488102891
  0
ARC
  5
C1A
  8
0
 10
15.5310915364
 20
-25.494371214000001
 30
0.0
 40
0.016
 50
270.0
 51
359.99927824270009
  0
ARC
  5
C1B
  8
0
 10
15.06509153639999
 20
-25.053872869599999
 30
0.0
 40
0.016
 50
296.84091752139972
 51
0.0
  0
ARC
  5
C1C
  8
0
 10
15.06509153639999
 20
-24.870083900899999
 30
0.0
 40
0.0160000000000054
 50
359.99999999998738
 51
88.239560514461758
  0
ARC
  5
C1D
  8
0
 10
15.4310915364
 20
-24.812822234399999
 30
0.0
 40
0.016
 50
359.75970797780008
 51
88.000000000599243
  0
ARC
  5
C1E
  8
0
 10
14.6244879905
 20
39.515911656999997
 30
0.0
 40
4.8377171289999987
 50
79.545927806399618
 51
101.3853599972992
  0
ARC
  5
C1F
  8
0
 10
14.616181997399989
 20
40.586706214900012
 30
0.0
 40
3.8369225711000001
 50
76.310194888099574
 51
104.5240569593995
  0
ARC
  5
C20
  8
0
 10
14.074299924099989
 20
43.059155419700012
 30
0.0
 40
0.061
 50
284.99999999969953
 51
0.0
  0
ARC
  5
C21
  8
0
 10
13.826299924100001
 20
43.058846936499997
 30
0.0
 40
0.061
 50
180.0
 51
254.99999999970041
  0
ARC
  5
C22
  8
0
 10
14.11279992409999
 20
43.122128785999998
 30
0.0
 40
0.0225
 50
0.0
 51
180.0
  0
ARC
  5
C23
  8
0
 10
13.79429992409999
 20
43.128628786
 30
0.0
 40
0.016
 50
0.0
 51
90.0
  0
ARC
  5
C24
  8
0
 10
13.826299924100001
 20
43.059155419700012
 30
0.0
 40
0.016
 50
180.0
 51
255.0000000000999
  0
ARC
  5
C25
  8
0
 10
14.074299924099989
 20
43.059155419700012
 30
0.0
 40
0.016
 50
285.00000000069917
 51
0.0
  0
ARC
  5
C26
  8
0
 10
13.749299924100001
 20
43.08362878600002
 30
0.0
 40
0.0159999999999911
 50
359.99999999994913
 51
89.999279089013413
  0
ARC
  5
C27
  8
0
 10
15.823092171800001
 20
42.688272515400001
 30
0.0
 40
2.286999999999999
 50
186.00014843289981
 51
189.34448069819999
  0
ARC
  5
C28
  8
0
 10
15.82160016200001
 20
43.882022033600009
 30
0.0
 40
2.282
 50
172.05937443770009
 51
175.04381276229989
  0
ARC
  5
C29
  8
0
 10
15.82160016200001
 20
43.882022033600009
 30
0.0
 40
2.2370000000000001
 50
172.05937443770009
 51
175.0438127622001
  0
ARC
  5
C2A
  8
0
 10
15.80775722751028
 20
42.686378947674811
 30
0.0
 40
2.201551147522387
 50
185.99285574929991
 51
190.1712718226874
  0
ARC
  5
C2B
  8
0
 10
15.4650819974
 20
44.071728785999987
 30
0.0
 40
0.25
 50
7.2671664829000822
 51
76.310194888000609
  0
ARC
  5
C2C
  8
0
 10
15.4650819974
 20
44.071728785999987
 30
0.0
 40
0.205
 50
7.2671664830998433
 51
79.545927806399618
  0
ARC
  5
C2D
  8
0
 10
15.560681997399991
 20
42.337028785999998
 30
0.0
 40
0.125
 50
278.37631736579908
 51
350.87415243870032
  0
ARC
  5
C2E
  8
0
 10
15.423664070699999
 20
43.058846936499997
 30
0.0
 40
0.061
 50
284.99999999959988
 51
0.0
  0
ARC
  5
C2F
  8
0
 10
15.175664070700011
 20
43.059155419700012
 30
0.0
 40
0.061
 50
180.0
 51
255.00000000049951
  0
ARC
  5
C33
  8
0
 10
15.13716407070001
 20
43.122128785999998
 30
0.0
 40
0.0225
 50
0.0
 51
180.0
  0
ARC
  5
C34
  8
0
 10
15.57856159682154
 20
42.229830199766951
 30
0.0
 40
0.0164712919285244
 50
180.70064002542171
 51
271.14682189889601
  0
ARC
  5
C35
  8
0
 10
15.57809153639999
 20
42.267628786000003
 30
0.0
 40
0.016
 50
89.962787576900993
 51
180.0
  0
ARC
  5
C36
  8
0
 10
15.594092176
 20
42.299628786
 30
0.0
 40
0.016
 50
267.30122793800098
 51
350.58087879969992
  0
ARC
  5
C37
  8
0
 10
15.67322053539999
 20
43.083628785999998
 30
0.0
 40
0.016
 50
358.5326853927001
 51
89.999999999899032
  0
ARC
  5
C38
  8
0
 10
15.500664070699999
 20
43.083628785999998
 30
0.0
 40
0.016
 50
90.0
 51
180.0
  0
ARC
  5
C39
  8
0
 10
15.175664070700011
 20
43.059155419700012
 30
0.0
 40
0.016
 50
180.0
 51
255.00000000190039
  0
ARC
  5
C3A
  8
0
 10
15.423664070699999
 20
43.059155419700012
 30
0.0
 40
0.016
 50
285.00000000020009
 51
0.0
  0
ARC
  5
C3B
  8
0
 10
15.45566407070001
 20
43.128628786
 30
0.0
 40
0.016
 50
89.999700428099132
 51
180.0
  0
ARC
  5
C3C
  8
0
 10
15.700580855499989
 20
43.160628785999997
 30
0.0
 40
0.016
 50
269.51477401030081
 51
358.61248754020022
  0
ARC
  5
C3D
  8
0
 10
17.936350185395781
 20
43.268998643495699
 30
0.0
 40
4.499950266622843
 50
170.46477025083971
 51
189.68028703195981
  0
ARC
  5
C3E
  8
0
 10
17.936399924100009
 20
43.268994527300009
 30
0.0
 40
4.4550000000000001
 50
170.87082811579981
 51
181.39647585529991
  0
ARC
  5
C3F
  8
0
 10
17.936389673033428
 20
43.268993782407478
 30
0.0
 40
4.4299897266949779
 50
182.4068375493782
 51
189.4038311302921
  0
LINE
  5
C43
  8
0
 10
14.200299924099991
 20
43.614550996300011
 30
0.0
 11
14.185299924100001
 21
43.62955099629999
 31
0.0
  0
LINE
  5
C44
  8
0
 10
13.825299924099991
 20
43.064820474300006
 30
0.0
 11
13.85529992409999
 21
43.034820474300012
 31
0.0
  0
LINE
  5
C45
  8
0
 10
14.38329992409999
 20
43.529167983099988
 30
0.0
 11
14.38329992409999
 21
43.291453487399998
 31
0.0
  0
LINE
  5
C46
  8
0
 10
14.28029992409998
 20
43.577810735299998
 30
0.0
 11
14.28029992409998
 21
43.24281073529999
 31
0.0
  0
LINE
  5
C47
  8
0
 10
14.255299924099999
 20
42.97762878599999
 30
0.0
 11
14.255299924099999
 21
43.570810735299993
 31
0.0
  0
LINE
  5
C48
  8
0
 10
14.200299924099991
 20
43.614550780800002
 30
0.0
 11
14.200299924099991
 21
43.570810735299993
 31
0.0
  0
LINE
  5
C49
  8
0
 10
14.200299924099991
 20
42.97762878599999
 30
0.0
 11
14.200299924099991
 21
43.570810735299993
 31
0.0
  0
LINE
  5
C4A
  8
0
 10
14.185299924100001
 20
43.62955099629999
 30
0.0
 11
14.185299924100001
 21
43.191070474300012
 31
0.0
  0
LINE
  5
C4B
  8
0
 10
14.075299924099991
 20
43.755800804099998
 30
0.0
 11
14.075299924099991
 21
43.064820666499998
 31
0.0
  0
LINE
  5
C4C
  8
0
 10
14.045299924099989
 20
43.78580099629999
 30
0.0
 11
14.045299924099989
 21
43.034820474257778
 31
0.0
  0
LINE
  5
C4D
  8
0
 10
13.85529992409999
 20
43.034820474300012
 30
0.0
 11
13.85529992409999
 21
43.78580099629999
 31
0.0
  0
LINE
  5
C4E
  8
0
 10
13.825299924099991
 20
43.064820666499998
 30
0.0
 11
13.825299924099991
 21
43.755800804099998
 31
0.0
  0
LINE
  5
C4F
  8
0
 10
14.075299924099991
 20
43.064820474300006
 30
0.0
 11
14.04529992404232
 21
43.034820474242338
 31
0.0
  0
LINE
  5
C50
  8
0
 10
14.200299924099991
 20
43.206070474300013
 30
0.0
 11
14.185299924100001
 21
43.191070474300012
 31
0.0
  0
LINE
  5
C51
  8
0
 10
13.825299924099991
 20
43.755800804099998
 30
0.0
 11
13.85529992409999
 21
43.78580099629999
 31
0.0
  0
LINE
  5
C52
  8
0
 10
14.185299924100001
 20
43.191070474300012
 30
0.0
 11
14.075299924099991
 21
43.191070474300012
 31
0.0
  0
LINE
  5
C53
  8
0
 10
14.28029992409998
 20
43.24281073529999
 30
0.0
 11
14.255299924099999
 21
43.24281073529999
 31
0.0
  0
LINE
  5
C54
  8
0
 10
14.345117898700011
 20
43.253271462100003
 30
0.0
 11
14.28029992409998
 21
43.253271462100003
 31
0.0
  0
LINE
  5
C55
  8
0
 10
14.345117898700011
 20
43.331791098699988
 30
0.0
 11
14.28029992409998
 21
43.331791098699988
 31
0.0
  0
LINE
  5
C56
  8
0
 10
14.345117898700011
 20
43.488830371900008
 30
0.0
 11
14.28029992409998
 21
43.488830371900008
 31
0.0
  0
LINE
  5
C57
  8
0
 10
14.345117898700011
 20
43.5673500085
 30
0.0
 11
14.28029992409998
 21
43.5673500085
 31
0.0
  0
LINE
  5
C58
  8
0
 10
14.28029992409998
 20
43.577810735299998
 30
0.0
 11
14.255299924099999
 21
43.577810735299998
 31
0.0
  0
LINE
  5
C59
  8
0
 10
14.185299924100001
 20
43.62955099629999
 30
0.0
 11
14.075299924099991
 21
43.62955099629999
 31
0.0
  0
ARC
  5
C5A
  8
0
 10
14.326320479999991
 20
43.31025090619999
 30
0.0
 40
0.06
 50
288.25763229879891
 51
341.74236770120012
  0
ARC
  5
C5B
  8
0
 10
14.326320479999991
 20
43.510370564399999
 30
0.0
 40
0.06
 50
18.257632298799919
 51
71.742367701199555
  0
ARC
  5
C5C
  8
0
 10
14.22779992409999
 20
43.570810735299993
 30
0.0
 40
0.0275
 50
0.0
 51
180.0
  0
ARC
  5
C5D
  8
0
 10
14.333311520701191
 20
43.528090190199997
 30
0.0
 40
0.0409966327202617
 50
286.73730490237011
 51
63.675208414525827
  0
ARC
  5
C5E
  8
0
 10
14.2544606874637
 20
43.410310735300008
 30
0.0
 40
0.1199335786214018
 50
319.1036481949057
 51
40.896351805091719
  0
ARC
  5
C5F
  8
0
 10
14.333311520701191
 20
43.292531280399999
 30
0.0
 40
0.0409966327202617
 50
296.32479158581577
 51
73.262695097633198
  0
LINE
  5
C60
  8
0
 10
14.075299924099991
 20
43.755800804099998
 30
0.0
 11
14.045299924099989
 21
43.78580099629999
 31
0.0
  0
LINE
  5
C61
  8
0
 10
14.045299924099989
 20
43.78580099629999
 30
0.0
 11
13.85529992409999
 21
43.78580099629999
 31
0.0
  0
LINE
  5
C62
  8
0
 10
14.255299924099999
 20
43.577810735299998
 30
0.0
 11
14.255299924099999
 21
43.570810735300697
 31
0.0
  0
LINE
  5
C63
  8
0
 10
13.689149739599999
 20
-25.460371213999998
 30
0.0
 11
13.782091536399999
 21
-25.460371213999998
 31
0.0
  0
ARC
  5
C64
  8
0
 10
13.6980915364
 20
-25.47637121399999
 30
0.0
 40
0.0159999999999901
 50
90.0
 51
180.00000000002561
  0
LINE
  5
C65
  8
0
 10
13.68209153640001
 20
-25.476371214
 30
0.0
 11
13.68209153640001
 21
-25.494371214000001
 31
0.0
  0
ARC
  5
C66
  8
0
 10
13.6980915364
 20
-25.494371214000001
 30
0.0
 40
0.0160000000000054
 50
179.99999999998741
 51
269.99999999997391
  0
ARC
  5
C6C
  8
0
 10
11.982459128058849
 20
8.5051852023515941
 30
0.0
 40
0.1060568611768053
 50
188.62825989888651
 51
264.70122053866447
  0
ARC
  5
C6D
  8
0
 10
12.631193646736589
 20
8.9315598067894335
 30
0.0
 40
0.8737940532658814
 50
199.75518143200631
 51
210.40884040008601
  0
ARC
  5
C6E
  8
0
 10
11.9824678243547
 20
9.4114317128622567
 30
0.0
 40
0.106066142513361
 50
95.320240817107475
 51
171.37001193547371
  0
ARC
  5
C6F
  8
0
 10
12.631193646736589
 20
8.9850616638105656
 30
0.0
 40
0.8737940532658814
 50
149.59115959991391
 51
160.24481856799369
  0
LINE
  5
DA8
  8
0
 10
15.40009206920001
 20
-25.243689264699999
 30
0.0
 11
15.1910920692
 21
-25.243689264699999
 31
0.0
  0
LINE
  5
DA9
  8
0
 10
15.231092069200001
 20
-25.203689264699999
 30
0.0
 11
15.23909206920001
 21
-25.203689264699999
 31
0.0
  0
LINE
  5
DAA
  8
0
 10
15.311092069200001
 20
-25.1986892647
 30
0.0
 11
15.40009206920001
 21
-25.1986892647
 31
0.0
  0
LINE
  5
DAB
  8
0
 10
15.1910920692
 20
-25.153689264699999
 30
0.0
 11
15.199092069200001
 21
-25.153689264699999
 31
0.0
  0
LINE
  5
DAC
  8
0
 10
15.199092069200001
 20
-25.053689264700001
 30
0.0
 11
15.1910920692
 21
-25.053689264700001
 31
0.0
  0
LINE
  5
DAD
  8
0
 10
15.23909206920001
 20
-25.0036892647
 30
0.0
 11
15.231092069200001
 21
-25.0036892647
 31
0.0
  0
LINE
  5
DAE
  8
0
 10
15.1910920692
 20
-24.963689264700001
 30
0.0
 11
15.279092069200001
 21
-24.963689264700001
 31
0.0
  0
LINE
  5
DAF
  8
0
 10
15.1750920692
 20
-25.2276892647
 30
0.0
 11
15.1750920692
 21
-25.169689264700001
 31
0.0
  0
LINE
  5
DB0
  8
0
 10
15.1750920692
 20
-25.037689264699999
 30
0.0
 11
15.1750920692
 21
-24.979689264699999
 31
0.0
  0
LINE
  5
DB1
  8
0
 10
15.21509206920001
 20
-25.019689264699998
 30
0.0
 11
15.21509206920001
 21
-25.037689264699999
 31
0.0
  0
LINE
  5
DB2
  8
0
 10
15.21509206920001
 20
-25.169689264700001
 30
0.0
 11
15.21509206920001
 21
-25.187689264700001
 31
0.0
  0
LINE
  5
DB3
  8
0
 10
15.2550920692
 20
-25.187689264700001
 30
0.0
 11
15.2550920692
 21
-25.019689264699998
 31
0.0
  0
LINE
  5
DB4
  8
0
 10
15.295092069200001
 20
-24.979689264699999
 30
0.0
 11
15.295092069200001
 21
-25.182689264699999
 31
0.0
  0
ARC
  5
DB5
  8
0
 10
15.23909206920001
 20
-25.187689264700001
 30
0.0
 40
0.016
 50
270.0
 51
0.0
  0
ARC
  5
DB6
  8
0
 10
15.231092069200001
 20
-25.187689264700001
 30
0.0
 40
0.016
 50
180.0
 51
270.0
  0
ARC
  5
DB7
  8
0
 10
15.199092069200001
 20
-25.169689264700001
 30
0.0
 40
0.016
 50
0.0
 51
90.0
  0
ARC
  5
DB8
  8
0
 10
15.1910920692
 20
-25.169689264700001
 30
0.0
 40
0.016
 50
90.0
 51
180.0
  0
ARC
  5
DB9
  8
0
 10
15.1910920692
 20
-25.2276892647
 30
0.0
 40
0.016
 50
180.0
 51
270.0
  0
ARC
  5
DBA
  8
0
 10
15.311092069200001
 20
-25.182689264699999
 30
0.0
 40
0.016
 50
180.0
 51
270.0
  0
ARC
  5
DBB
  8
0
 10
15.40009206920001
 20
-25.004689264700001
 30
0.0
 40
0.239
 50
270.0
 51
288.03640383472811
  0
ARC
  5
DBC
  8
0
 10
15.40009206920001
 20
-25.004689264700001
 30
0.0
 40
0.194
 50
270.0
 51
292.42294237998402
  0
ARC
  5
DBD
  8
0
 10
15.231092069200001
 20
-25.019689264699998
 30
0.0
 40
0.016
 50
90.0
 51
180.0
  0
ARC
  5
DBE
  8
0
 10
15.23909206920001
 20
-25.019689264699998
 30
0.0
 40
0.016
 50
0.0
 51
90.0
  0
ARC
  5
DBF
  8
0
 10
15.279092069200001
 20
-24.979689264699999
 30
0.0
 40
0.016
 50
0.0
 51
90.0
  0
ARC
  5
DC0
  8
0
 10
15.1910920692
 20
-24.979689264699999
 30
0.0
 40
0.016
 50
90.0
 51
180.0
  0
ARC
  5
DC1
  8
0
 10
15.1910920692
 20
-25.037689264699999
 30
0.0
 40
0.016
 50
180.0
 51
270.0
  0
ARC
  5
DC2
  8
0
 10
15.199092069200001
 20
-25.037689264699999
 30
0.0
 40
0.016
 50
270.0
 51
0.0
  0
LINE
  5
DCE
  8
0
 10
15.5940920692
 20
-25.004689264700001
 30
0.0
 11
15.594092069200009
 21
-24.728689264700002
 31
0.0
  0
LINE
  5
DCF
  8
0
 10
15.6390920692
 20
-24.728689264700002
 30
0.0
 11
15.6390920692
 21
-25.004689264700001
 31
0.0
  0
ARC
  5
DD0
  8
0
 10
15.40009206920001
 20
-25.004689264700009
 30
0.0
 40
0.2389999999999937
 50
314.29358498005291
 51
0.0000000000008142
  0
ARC
  5
DD1
  8
0
 10
15.40009206919985
 20
-25.004689264699941
 30
0.0
 40
0.1940000000001593
 50
329.35254352869191
 51
0.000000611781983
  0
ARC
  5
DD2
  8
0
 10
15.45009206919983
 20
-24.72868926470003
 30
0.0
 40
0.1890000000001723
 50
0.0000000000097707
 51
51.791160125389901
  0
ARC
  5
DD3
  8
0
 10
15.459965369814091
 20
-24.725646126518338
 30
0.0
 40
0.1341612171163924
 50
358.7002657480736
 51
37.083026423117403
  0
LINE
  5
E03
  8
0
 10
15.049592069199999
 20
43.614550996300018
 30
0.0
 11
15.064592069199991
 21
43.629550996299997
 31
0.0
  0
LINE
  5
E04
  8
0
 10
14.86659206920001
 20
43.529167983100002
 30
0.0
 11
14.86659206920001
 21
43.291453487400013
 31
0.0
  0
LINE
  5
E05
  8
0
 10
14.96959206920001
 20
43.577810735300012
 30
0.0
 11
14.96959206920001
 21
43.242810735299997
 31
0.0
  0
LINE
  5
E06
  8
0
 10
14.994592069199991
 20
42.977628785999997
 30
0.0
 11
14.994592069199991
 21
43.5708107353
 31
0.0
  0
LINE
  5
E07
  8
0
 10
15.049592069199999
 20
43.614550780800009
 30
0.0
 11
15.049592069199999
 21
43.5708107353
 31
0.0
  0
LINE
  5
E08
  8
0
 10
15.049592069199999
 20
42.977628785999997
 30
0.0
 11
15.049592069199999
 21
43.5708107353
 31
0.0
  0
LINE
  5
E09
  8
0
 10
15.064592069199991
 20
43.629550996299997
 30
0.0
 11
15.064592069199991
 21
43.191070474300012
 31
0.0
  0
LINE
  5
E0A
  8
0
 10
15.174592069199999
 20
43.755800804100012
 30
0.0
 11
15.174592069199999
 21
43.064820666499998
 31
0.0
  0
LINE
  5
E0B
  8
0
 10
15.2045920692
 20
43.785800996299997
 30
0.0
 11
15.2045920692
 21
43.034820474257792
 31
0.0
  0
LINE
  5
E0C
  8
0
 10
15.3945920692
 20
43.034820474300012
 30
0.0
 11
15.3945920692
 21
43.785800996299997
 31
0.0
  0
LINE
  5
E0D
  8
0
 10
15.424592069199999
 20
43.064820666499998
 30
0.0
 11
15.424592069199999
 21
43.755800804100012
 31
0.0
  0
LINE
  5
E0E
  8
0
 10
15.049592069199999
 20
43.206070474300013
 30
0.0
 11
15.064592069199991
 21
43.191070474300012
 31
0.0
  0
LINE
  5
E0F
  8
0
 10
15.424592069199999
 20
43.755800804100012
 30
0.0
 11
15.3945920692
 21
43.785800996299997
 31
0.0
  0
LINE
  5
E10
  8
0
 10
15.064592069199991
 20
43.191070474300012
 30
0.0
 11
15.174592069199999
 21
43.191070474300012
 31
0.0
  0
LINE
  5
E11
  8
0
 10
14.96959206920001
 20
43.242810735299997
 30
0.0
 11
14.994592069199991
 21
43.242810735299997
 31
0.0
  0
LINE
  5
E12
  8
0
 10
14.904774094599979
 20
43.25327146210001
 30
0.0
 11
14.96959206920001
 21
43.25327146210001
 31
0.0
  0
LINE
  5
E13
  8
0
 10
14.904774094599979
 20
43.331791098700002
 30
0.0
 11
14.96959206920001
 21
43.331791098700002
 31
0.0
  0
LINE
  5
E14
  8
0
 10
14.904774094599979
 20
43.488830371900022
 30
0.0
 11
14.96959206920001
 21
43.488830371900022
 31
0.0
  0
LINE
  5
E15
  8
0
 10
14.904774094599979
 20
43.5673500085
 30
0.0
 11
14.96959206920001
 21
43.5673500085
 31
0.0
  0
LINE
  5
E16
  8
0
 10
14.96959206920001
 20
43.577810735300012
 30
0.0
 11
14.994592069199991
 21
43.577810735300012
 31
0.0
  0
LINE
  5
E17
  8
0
 10
15.064592069199991
 20
43.629550996299997
 30
0.0
 11
15.174592069199999
 21
43.629550996299997
 31
0.0
  0
ARC
  5
E18
  8
0
 10
14.923571513300001
 20
43.310250906199997
 30
0.0
 40
0.06
 50
198.2576322988001
 51
251.7423677011995
  0
ARC
  5
E19
  8
0
 10
14.923571513300001
 20
43.510370564400013
 30
0.0
 40
0.06
 50
108.2576322988005
 51
161.74236770119981
  0
ARC
  5
E1A
  8
0
 10
15.022092069199999
 20
43.5708107353
 30
0.0
 40
0.0275
 50
0.0
 51
180.0
  0
ARC
  5
E1B
  8
0
 10
14.91658047259881
 20
43.528090190200011
 30
0.0
 40
0.0409966327202617
 50
116.324791585474
 51
253.26269509762989
  0
ARC
  5
E1C
  8
0
 10
14.99543130583629
 20
43.410310735300023
 30
0.0
 40
0.1199335786214018
 50
139.103648194908
 51
220.89635180509569
  0
ARC
  5
E1D
  8
0
 10
14.91658047259881
 20
43.292531280399999
 30
0.0
 40
0.0409966327202617
 50
106.7373049023667
 51
243.6752084141844
  0
LINE
  5
E1E
  8
0
 10
15.174592069199999
 20
43.755800804100012
 30
0.0
 11
15.2045920692
 21
43.785800996299997
 31
0.0
  0
LINE
  5
E1F
  8
0
 10
15.2045920692
 20
43.785800996299997
 30
0.0
 11
15.3945920692
 21
43.785800996299997
 31
0.0
  0
LINE
  5
E20
  8
0
 10
14.994592069199991
 20
43.577810735300012
 30
0.0
 11
14.994592069199991
 21
43.570810735300711
 31
0.0
  0
LINE
  5
E21
  8
0
 10
15.174592069199999
 20
43.064820666499998
 30
0.0
 11
15.20466407091568
 21
43.034820474199996
 31
0.0
  0
LINE
  5
E22
  8
0
 10
15.349164070700001
 20
43.022628786000013
 30
0.0
 11
15.427805175421691
 21
43.043700606479391
 31
0.0
  0
ATTDEF
  5
F4D
  8
DEFPOINTS
 10
14.623661007561671
 20
-25.523858309468348
 30
0.0
 40
0.001
  1
ALUMINUM/GLASS
  3

  2
MATERIAL
 70
     0
1001
ACDBATTR
1070
     0
1070
     1
  0
ATTDEF
  5
F4E
  8
DEFPOINTS
 10
14.623661007561671
 20
-25.52219164280169
 30
0.0
 40
0.001
  1
SHOWER DOOR
  3

  2
PRODUCT
 70
     0
1001
ACDBATTR
1070
     0
1070
     1
  0
ATTDEF
  5
F4F
  8
DEFPOINTS
 10
14.623661007561671
 20
-25.520524976135022
 30
0.0
 40
0.001
  1
DELUXE
  3

  2
TRADENAME
 70
     0
1001
ACDBATTR
1070
     0
1070
     1
  0
ATTDEF
  5
F50
  8
DEFPOINTS
 10
14.623661007561671
 20
-25.51885830946836
 30
0.0
 40
0.001
  1
5975-48
  3

  2
MODELNUMBER
 70
     0
1001
ACDBATTR
1070
     0
1070
     1
  0
ENDSEC
  0
EOF
