  0
SECTION
  2
HEADER
  9
$ACADVER
  1
AC1009
  9
$INSBASE
 10
-38.182437398200001
 20
65.912759367999996
 30
0.0
  9
$EXTMIN
 10
-62.619937398199987
 20
63.067998944372647
 30
0.0
  9
$EXTMAX
 10
-13.74493739819999
 20
67.076259367999995
 30
0.0
  9
$LIMMIN
 10
0.0
 20
0.0
  9
$LIMMAX
 10
22.0
 20
17.0
  9
$ORTHOMODE
 70
     0
  9
$REGENMODE
 70
     1
  9
$FILLMODE
 70
     1
  9
$QTEXTMODE
 70
     0
  9
$MIRRTEXT
 70
     0
  9
$DRAGMODE
 70
     2
  9
$LTSCALE
 40
1.2099999999999991
  9
$OSMODE
 70
    39
  9
$ATTMODE
 70
     1
  9
$TEXTSIZE
 40
0.2
  9
$TRACEWID
 40
0.05
  9
$TEXTSTYLE
  7
STANDARD
  9
$CLAYER
  8
0
  9
$CELTYPE
  6
BYLAYER
  9
$CECOLOR
 62
   256
  9
$DIMSCALE
 40
1.0
  9
$DIMASZ
 40
0.1875
  9
$DIMEXO
 40
0.0625
  9
$DIMDLI
 40
0.8359999999999999
  9
$DIMRND
 40
0.0
  9
$DIMDLE
 40
0.0
  9
$DIMEXE
 40
0.125
  9
$DIMTP
 40
0.0
  9
$DIMTM
 40
0.0
  9
$DIMTXT
 40
0.15625
  9
$DIMCEN
 40
0.198
  9
$DIMTSZ
 40
0.0
  9
$DIMTOL
 70
     0
  9
$DIMLIM
 70
     0
  9
$DIMTIH
 70
     1
  9
$DIMTOH
 70
     1
  9
$DIMSE1
 70
     0
  9
$DIMSE2
 70
     0
  9
$DIMTAD
 70
     0
  9
$DIMZIN
 70
     0
  9
$DIMBLK
  1

  9
$DIMASO
 70
     1
  9
$DIMSHO
 70
     1
  9
$DIMPOST
  1
\X
  9
$DIMAPOST
  1

  9
$DIMALT
 70
     1
  9
$DIMALTD
 70
     2
  9
$DIMALTF
 40
25.399999999999999
  9
$DIMLFAC
 40
1.0
  9
$DIMTOFL
 70
     0
  9
$DIMTVP
 40
0.0
  9
$DIMTIX
 70
     0
  9
$DIMSOXD
 70
     0
  9
$DIMSAH
 70
     0
  9
$DIMBLK1
  1

  9
$DIMBLK2
  1

  9
$DIMSTYLE
  2
STANDARD
  9
$DIMCLRD
 70
     0
  9
$DIMCLRE
 70
     0
  9
$DIMCLRT
 70
     0
  9
$DIMTFAC
 40
1.0
  9
$DIMGAP
 40
0.09
  9
$LUNITS
 70
     2
  9
$LUPREC
 70
     4
  9
$SKETCHINC
 40
0.1
  9
$FILLETRAD
 40
0.0
  9
$AUNITS
 70
     0
  9
$AUPREC
 70
     0
  9
$MENU
  1
.
  9
$ELEVATION
 40
0.0
  9
$PELEVATION
 40
0.0
  9
$THICKNESS
 40
0.0
  9
$LIMCHECK
 70
     0
  9
$BLIPMODE
 70
     0
  9
$CHAMFERA
 40
0.0
  9
$CHAMFERB
 40
0.0
  9
$SKPOLY
 70
     0
  9
$TDCREATE
 40
2458131.589154433
  9
$TDUPDATE
 40
2458134.5047597229
  9
$TDINDWG
 40
0.0780848264
  9
$TDUSRTIMER
 40
0.0780848264
  9
$USRTIMER
 70
     1
  9
$ANGBASE
 50
0.0
  9
$ANGDIR
 70
     0
  9
$PDMODE
 70
     0
  9
$PDSIZE
 40
0.3125
  9
$PLINEWID
 40
0.0
  9
$COORDS
 70
     1
  9
$SPLFRAME
 70
     0
  9
$SPLINETYPE
 70
     6
  9
$SPLINESEGS
 70
     8
  9
$ATTDIA
 70
     1
  9
$ATTREQ
 70
     1
  9
$HANDLING
 70
     1
  9
$HANDSEED
  5
12AC
  9
$SURFTAB1
 70
     6
  9
$SURFTAB2
 70
     6
  9
$SURFTYPE
 70
     6
  9
$SURFU
 70
     6
  9
$SURFV
 70
     6
  9
$UCSNAME
  2

  9
$UCSORG
 10
0.0
 20
0.0
 30
0.0
  9
$UCSXDIR
 10
1.0
 20
0.0
 30
0.0
  9
$UCSYDIR
 10
0.0
 20
1.0
 30
0.0
  9
$PUCSNAME
  2

  9
$PUCSORG
 10
0.0
 20
0.0
 30
0.0
  9
$PUCSXDIR
 10
1.0
 20
0.0
 30
0.0
  9
$PUCSYDIR
 10
0.0
 20
1.0
 30
0.0
  9
$USERI1
 70
     0
  9
$USERI2
 70
     0
  9
$USERI3
 70
     0
  9
$USERI4
 70
     0
  9
$USERI5
 70
     0
  9
$USERR1
 40
0.0
  9
$USERR2
 40
0.0
  9
$USERR3
 40
0.0
  9
$USERR4
 40
0.0
  9
$USERR5
 40
0.0
  9
$WORLDVIEW
 70
     1
  9
$SHADEDGE
 70
     3
  9
$SHADEDIF
 70
    70
  9
$TILEMODE
 70
     1
  9
$MAXACTVP
 70
    48
  9
$PLIMCHECK
 70
     0
  9
$PEXTMIN
 10
1.0000000000000000E+020
 20
1.0000000000000000E+020
 30
1.0000000000000000E+020
  9
$PEXTMAX
 10
-1.0000000000000000E+020
 20
-1.0000000000000000E+020
 30
-1.0000000000000000E+020
  9
$PLIMMIN
 10
0.0
 20
0.0
  9
$PLIMMAX
 10
12.0
 20
9.0
  9
$UNITMODE
 70
     0
  9
$VISRETAIN
 70
     1
  9
$PLINEGEN
 70
     0
  9
$PSLTSCALE
 70
     1
  0
ENDSEC
  0
SECTION
  2
TABLES
  0
TABLE
  2
VPORT
 70
     1
  0
VPORT
  2
*ACTIVE
 70
     0
 10
0.0
 20
0.0
 11
1.0
 21
1.0
 12
-38.288053681800541
 22
63.023061599917192
 13
0.0
 23
0.0
 14
1.0
 24
1.0
 15
0.0
 25
0.0
 16
0.0
 26
0.0
 36
1.0
 17
0.0
 27
0.0
 37
0.0
 40
31.3789609963993
 41
2.0329087048832268
 42
50.0
 43
0.0
 44
0.0
 50
0.0
 51
0.0
 71
     0
 72
   100
 73
     1
 74
     1
 75
     0
 76
     0
 77
     0
 78
     0
  0
ENDTAB
  0
TABLE
  2
LTYPE
 70
     2
  0
LTYPE
  2
CONTINUOUS
 70
     0
  3
Solid line
 72
    65
 73
     0
 40
0.0
  0
LTYPE
  2
PHANTOM2
 70
     0
  3
___ _ _ ___ _ _ ___ _ _ ___ _ _
 72
    65
 73
     6
 40
1.25
 49
0.625
 49
-0.125
 49
0.125
 49
-0.125
 49
0.125
 49
-0.125
  0
ENDTAB
  0
TABLE
  2
LAYER
 70
     2
  0
LAYER
  2
0
 70
     0
 62
     7
  6
CONTINUOUS
  0
LAYER
  2
DEFPOINTS
 70
     0
 62
     7
  6
CONTINUOUS
  0
ENDTAB
  0
TABLE
  2
STYLE
 70
     1
  0
STYLE
  2
STANDARD
 70
     0
 40
0.0
 41
0.8
 50
0.0
 71
     0
 42
0.2
  3
txt
  4

  0
ENDTAB
  0
TABLE
  2
VIEW
 70
     0
  0
ENDTAB
  0
TABLE
  2
UCS
 70
     0
  0
ENDTAB
  0
TABLE
  2
APPID
 70
     7
  0
APPID
  2
ACAD
 70
     0
  0
APPID
  2
ACAD_MLEADERVER
 70
     0
  0
APPID
  2
ACAD_NAV_VCDISPLAY
 70
     0
  0
APPID
  2
ACAD_DSTYLE_DIMJAG
 70
     0
  0
APPID
  2
ACAD_DSTYLE_DIMTALN
 70
     0
  0
APPID
  2
ACAD_EXEMPT_FROM_CAD_STANDARDS
 70
     0
  0
APPID
  2
ACDBATTR
 70
     0
  0
ENDTAB
  0
TABLE
  2
DIMSTYLE
 70
     1
  0
DIMSTYLE
  2
STANDARD
 70
     0
  3

  4

  5

  6

  7

 40
1.0
 41
0.1875
 42
0.0625
 43
0.38
 44
0.125
 45
0.0
 46
0.0
 47
1.5
 48
1.5
140
0.15625
141
0.09
142
0.0
143
25.399999999999999
144
1.0
145
0.0
146
1.0
147
0.09
 71
     0
 72
     0
 73
     1
 74
     1
 75
     0
 76
     0
 77
     0
 78
     4
170
     0
171
     2
172
     0
173
     0
174
     0
175
     0
176
     0
177
     0
178
     0
  0
ENDTAB
  0
ENDSEC
  0
SECTION
  2
BLOCKS
  0
BLOCK
  8
0
  2
$MODEL_SPACE
 70
     0
 10
0.0
 20
0.0
 30
0.0
  3
$MODEL_SPACE
  1

  0
ENDBLK
  5
21
  8
0
  0
BLOCK
 67
     1
  8
0
  2
$PAPER_SPACE
 70
     0
 10
0.0
 20
0.0
 30
0.0
  3
$PAPER_SPACE
  1

  0
ENDBLK
  5
1D
 67
     1
  8
0
  0
ENDSEC
  0
SECTION
  2
ENTITIES
  0
LINE
  5
B57
  8
0
 10
-62.619937398199987
 20
67.076259367999995
 30
0.0
 11
-62.619937398199987
 21
64.749259367999997
 31
0.0
  0
LINE
  5
B58
  8
0
 10
-61.211855398388167
 20
63.202797644172641
 30
0.0
 11
-61.211855398388167
 21
64.023356079872656
 31
0.0
  0
LINE
  5
B59
  8
0
 10
-60.961855427952379
 20
63.627687726842758
 30
0.0
 11
-60.967396729588181
 21
63.067998944372647
 31
0.0
  0
LINE
  5
B5A
  8
0
 10
-60.711855398388167
 20
64.023356079872656
 30
0.0
 11
-60.711855398388167
 21
63.68098987817266
 31
0.0
  0
LINE
  5
B5B
  8
0
 10
-38.783043342300019
 20
63.078290339900001
 30
0.0
 11
-38.907478729400012
 21
63.073944960399977
 31
0.0
  0
LINE
  5
B5C
  8
0
 10
-38.907478729400012
 20
63.068393171299981
 30
0.0
 11
-60.967396729588181
 21
63.067998944372647
 31
0.0
  0
LINE
  5
B5D
  8
0
 10
-60.966070940729303
 20
63.201907762372649
 30
0.0
 11
-38.90865750423221
 21
63.202301989299997
 31
0.0
  0
LINE
  5
B5E
  8
0
 10
-61.091217835488173
 20
63.07787351567265
 30
0.0
 11
-60.967341793420793
 21
63.073547668959399
 31
0.0
  0
LINE
  5
B5F
  8
0
 10
-39.162405779399997
 20
64.023772903999998
 30
0.0
 11
-39.162405779399997
 21
63.681406702299988
 31
0.0
  0
LINE
  5
B60
  8
0
 10
-38.662405779400011
 20
63.203214194599987
 30
0.0
 11
-38.662405779400011
 21
64.023772903999998
 31
0.0
  0
LINE
  5
B61
  8
0
 10
-60.768036078388171
 20
63.644804397372667
 30
0.0
 11
-39.106182931500008
 21
63.645198624300001
 31
0.0
  0
LINE
  5
B62
  8
0
 10
-39.162405779399997
 20
63.728393171299999
 30
0.0
 11
-60.711855398388167
 21
63.727998944372658
 31
0.0
  0
LINE
  5
B63
  8
0
 10
-13.74493739819999
 20
64.749259367999997
 30
0.0
 11
-62.619937398199987
 21
64.749259367999997
 31
0.0
  0
LINE
  5
B64
  8
0
 10
-62.619937398199987
 20
64.836336687799985
 30
0.0
 11
-13.74493739819999
 21
64.836336687799985
 31
0.0
  0
LINE
  5
B65
  8
0
 10
-13.74493739819999
 20
67.076259367999995
 30
0.0
 11
-62.619937398199987
 21
67.076259367999995
 31
0.0
  0
LINE
  5
B66
  8
0
 10
-13.74493739819999
 20
64.749259367999997
 30
0.0
 11
-13.74493739819999
 21
67.076259367999995
 31
0.0
  0
ARC
  5
B67
  8
0
 10
-59.961855398388167
 20
65.05413248627265
 30
0.0
 40
1.5
 50
191.7423812516212
 51
207.26604445060039
  0
ARC
  5
B68
  8
0
 10
-39.912405779400011
 20
65.054549310399992
 30
0.0
 40
1.5
 50
332.73395554939958
 51
348.25673714788212
  0
ARC
  5
B69
  8
0
 10
-61.961855398388167
 20
64.023356079872656
 30
0.0
 40
1.25
 50
0.0
 51
27.26604445070009
  0
ARC
  5
B6A
  8
0
 10
-37.912405779399997
 20
64.023772903999998
 30
0.0
 40
1.25
 50
152.73395554929991
 51
180.0
  0
ARC
  5
B6B
  8
0
 10
-59.961855398388167
 20
65.05413248627265
 30
0.0
 40
1.0
 50
197.77424875209149
 51
207.26604445070009
  0
ARC
  5
B6C
  8
0
 10
-39.912405779400011
 20
65.054549310399992
 30
0.0
 40
1.0
 50
332.73395554929988
 51
342.22439161921659
  0
ARC
  5
B6D
  8
0
 10
-61.961855398388167
 20
64.023356079872656
 30
0.0
 40
0.75
 50
0.0
 51
27.26604445090015
  0
ARC
  5
B6E
  8
0
 10
-37.912405779399997
 20
64.023772903999998
 30
0.0
 40
0.75
 50
152.73395554909979
 51
180.00000000049991
  0
ARC
  5
B6F
  8
0
 10
-61.086855398388167
 20
63.202797369072663
 30
0.0
 40
0.125
 50
180.0
 51
267.9999999999996
  0
ARC
  5
B70
  8
0
 10
-38.787405779399997
 20
63.20321419319999
 30
0.0
 40
0.125
 50
271.99999999999881
 51
0.0
  0
ARC
  5
B71
  8
0
 10
-60.769437157785809
 20
63.708684784065213
 30
0.0
 40
0.0638957496843467
 50
271.25645878313151
 51
334.31399738616102
  0
ARC
  5
B72
  8
0
 10
-60.96772254908511
 20
64.8000314909346
 30
0.0
 40
1.172358445320953
 50
270.2867405300575
 51
279.80693988288903
  0
ARC
  5
B73
  8
0
 10
-39.096742203728986
 20
63.721612549688579
 30
0.0
 40
0.0769949045985405
 50
211.47916102594399
 51
262.95695603436621
  0
ARC
  5
B74
  8
0
 10
-38.906412001080973
 20
64.802913336979969
 30
0.0
 40
1.1748241487968121
 50
260.20966559644421
 51
269.70768484476218
  0
LINE
  5
B75
  8
0
 10
-38.907478729400012
 20
63.068393171299981
 30
0.0
 11
-38.912405765657738
 21
63.628104477895931
 31
0.0
  0
ATTDEF
  5
F45
  8
DEFPOINTS
 10
-38.186851719438337
 20
65.899272272531647
 30
0.0
 40
0.001
  1
ALUMINUM/GLASS
  3

  2
MATERIAL
 70
     0
1001
ACDBATTR
1070
     0
1070
     1
  0
ATTDEF
  5
F46
  8
DEFPOINTS
 10
-38.186851719438337
 20
65.900938939198312
 30
0.0
 40
0.001
  1
SHOWER DOOR
  3

  2
PRODUCT
 70
     0
1001
ACDBATTR
1070
     0
1070
     1
  0
ATTDEF
  5
F47
  8
DEFPOINTS
 10
-38.186851719438337
 20
65.902605605864963
 30
0.0
 40
0.001
  1
DELUXE
  3

  2
TRADENAME
 70
     0
1001
ACDBATTR
1070
     0
1070
     1
  0
ATTDEF
  5
F48
  8
DEFPOINTS
 10
-38.186851719438337
 20
65.904272272531642
 30
0.0
 40
0.001
  1
5975-48
  3

  2
MODELNUMBER
 70
     0
1001
ACDBATTR
1070
     0
1070
     1
  0
ENDSEC
  0
EOF
