  0
SECTION
  2
HEADER
  9
$ACADVER
  1
AC1009
  9
$INSBASE
 10
1078.0086880453488902
 20
18.5727247955616193
 30
0.0
  9
$EXTMIN
 10
1048.3211880453488902
 20
15.6733621869206807
 30
0.0
  9
$EXTMAX
 10
1107.6961880453488902
 20
21.4720875270025502
 30
0.0
  9
$LIMMIN
 10
0.0
 20
0.0
  9
$LIMMAX
 10
11.6929133858000007
 20
8.2677165353999982
  9
$ORTHOMODE
 70
     1
  9
$REGENMODE
 70
     1
  9
$FILLMODE
 70
     1
  9
$QTEXTMODE
 70
     0
  9
$MIRRTEXT
 70
     0
  9
$DRAGMODE
 70
     2
  9
$LTSCALE
 40
0.6431102362
  9
$OSMODE
 70
  4095
  9
$ATTMODE
 70
     1
  9
$TEXTSIZE
 40
0.2
  9
$TRACEWID
 40
0.05
  9
$TEXTSTYLE
  7
STANDARD
  9
$CLAYER
  8
0
  9
$CELTYPE
  6
BYLAYER
  9
$CECOLOR
 62
   256
  9
$DIMSCALE
 40
1.0
  9
$DIMASZ
 40
0.1875
  9
$DIMEXO
 40
0.0625
  9
$DIMDLI
 40
0.4443307087
  9
$DIMRND
 40
0.0
  9
$DIMDLE
 40
0.0
  9
$DIMEXE
 40
0.125
  9
$DIMTP
 40
0.01
  9
$DIMTM
 40
0.01
  9
$DIMTXT
 40
2.0
  9
$DIMCEN
 40
0.1052362205
  9
$DIMTSZ
 40
0.0
  9
$DIMTOL
 70
     1
  9
$DIMLIM
 70
     0
  9
$DIMTIH
 70
     1
  9
$DIMTOH
 70
     1
  9
$DIMSE1
 70
     0
  9
$DIMSE2
 70
     0
  9
$DIMTAD
 70
     0
  9
$DIMZIN
 70
     0
  9
$DIMBLK
  1

  9
$DIMASO
 70
     1
  9
$DIMSHO
 70
     1
  9
$DIMPOST
  1
\X
  9
$DIMAPOST
  1

  9
$DIMALT
 70
     1
  9
$DIMALTD
 70
     2
  9
$DIMALTF
 40
25.3999999999999986
  9
$DIMLFAC
 40
1.0
  9
$DIMTOFL
 70
     0
  9
$DIMTVP
 40
0.0
  9
$DIMTIX
 70
     0
  9
$DIMSOXD
 70
     0
  9
$DIMSAH
 70
     0
  9
$DIMBLK1
  1

  9
$DIMBLK2
  1

  9
$DIMSTYLE
  2
STANDARD
  9
$DIMCLRD
 70
     0
  9
$DIMCLRE
 70
     0
  9
$DIMCLRT
 70
     0
  9
$DIMTFAC
 40
1.0
  9
$DIMGAP
 40
0.09
  9
$LUNITS
 70
     2
  9
$LUPREC
 70
     4
  9
$SKETCHINC
 40
0.1
  9
$FILLETRAD
 40
0.0
  9
$AUNITS
 70
     0
  9
$AUPREC
 70
     0
  9
$MENU
  1
.
  9
$ELEVATION
 40
0.0
  9
$PELEVATION
 40
0.0
  9
$THICKNESS
 40
0.0
  9
$LIMCHECK
 70
     0
  9
$BLIPMODE
 70
     0
  9
$CHAMFERA
 40
0.0
  9
$CHAMFERB
 40
0.0
  9
$SKPOLY
 70
     0
  9
$TDCREATE
 40
2458060.468368056230247
  9
$TDUPDATE
 40
2458726.81167824100703
  9
$TDINDWG
 40
0.2576395255
  9
$TDUSRTIMER
 40
0.2576395255
  9
$USRTIMER
 70
     1
  9
$ANGBASE
 50
0.0
  9
$ANGDIR
 70
     0
  9
$PDMODE
 70
     0
  9
$PDSIZE
 40
0.3125
  9
$PLINEWID
 40
0.0
  9
$COORDS
 70
     1
  9
$SPLFRAME
 70
     0
  9
$SPLINETYPE
 70
     6
  9
$SPLINESEGS
 70
     8
  9
$ATTDIA
 70
     1
  9
$ATTREQ
 70
     1
  9
$HANDLING
 70
     1
  9
$HANDSEED
  5
4B84
  9
$SURFTAB1
 70
     6
  9
$SURFTAB2
 70
     6
  9
$SURFTYPE
 70
     6
  9
$SURFU
 70
     6
  9
$SURFV
 70
     6
  9
$UCSNAME
  2

  9
$UCSORG
 10
0.0
 20
0.0
 30
0.0
  9
$UCSXDIR
 10
1.0
 20
0.0
 30
0.0
  9
$UCSYDIR
 10
0.0
 20
1.0
 30
0.0
  9
$PUCSNAME
  2

  9
$PUCSORG
 10
0.0
 20
0.0
 30
0.0
  9
$PUCSXDIR
 10
1.0
 20
0.0
 30
0.0
  9
$PUCSYDIR
 10
0.0
 20
1.0
 30
0.0
  9
$USERI1
 70
     0
  9
$USERI2
 70
     0
  9
$USERI3
 70
     0
  9
$USERI4
 70
     0
  9
$USERI5
 70
     0
  9
$USERR1
 40
0.0
  9
$USERR2
 40
0.0
  9
$USERR3
 40
0.0
  9
$USERR4
 40
0.0
  9
$USERR5
 40
0.0
  9
$WORLDVIEW
 70
     1
  9
$SHADEDGE
 70
     3
  9
$SHADEDIF
 70
    70
  9
$TILEMODE
 70
     1
  9
$MAXACTVP
 70
    64
  9
$PLIMCHECK
 70
     0
  9
$PEXTMIN
 10
1.0000000000000000E+20
 20
1.0000000000000000E+20
 30
1.0000000000000000E+20
  9
$PEXTMAX
 10
-1.0000000000000000E+20
 20
-1.0000000000000000E+20
 30
-1.0000000000000000E+20
  9
$PLIMMIN
 10
0.0
 20
0.0
  9
$PLIMMAX
 10
12.0
 20
9.0
  9
$UNITMODE
 70
     0
  9
$VISRETAIN
 70
     1
  9
$PLINEGEN
 70
     0
  9
$PSLTSCALE
 70
     1
  0
ENDSEC
  0
SECTION
  2
TABLES
  0
TABLE
  2
VPORT
 70
     1
  0
VPORT
  2
*ACTIVE
 70
     0
 10
0.0
 20
0.0
 11
1.0
 21
1.0
 12
0.0
 22
0.0
 13
0.0
 23
0.0
 14
1.0
 24
1.0
 15
0.0
 25
0.0
 16
0.0
 26
0.0
 36
170.6023858726532865
 17
1078.0086669921870453
 27
18.5727248191833496
 37
0.0
 40
59.6662303481999601
 41
2.1433408577878099
 42
50.0
 43
0.0
 44
0.0
 50
0.0
 51
0.0
 71
     0
 72
   100
 73
     1
 74
     1
 75
     0
 76
     0
 77
     0
 78
     0
  0
ENDTAB
  0
TABLE
  2
LTYPE
 70
     2
  0
LTYPE
  2
CONTINUOUS
 70
     0
  3
Solid line
 72
    65
 73
     0
 40
0.0
  0
LTYPE
  2
PHANTOM2
 70
     0
  3
___ _ _ ___ _ _ ___ _ _ ___ _ _
 72
    65
 73
     6
 40
1.25
 49
0.625
 49
-0.125
 49
0.125
 49
-0.125
 49
0.125
 49
-0.125
  0
ENDTAB
  0
TABLE
  2
LAYER
 70
     2
  0
LAYER
  2
0
 70
     0
 62
   255
  6
CONTINUOUS
  0
LAYER
  2
DEFPOINTS
 70
     0
 62
     7
  6
CONTINUOUS
  0
ENDTAB
  0
TABLE
  2
STYLE
 70
     1
  0
STYLE
  2
STANDARD
 70
     0
 40
0.0
 41
0.8
 50
0.0
 71
     0
 42
0.2
  3
txt
  4

  0
ENDTAB
  0
TABLE
  2
VIEW
 70
     0
  0
ENDTAB
  0
TABLE
  2
UCS
 70
     0
  0
ENDTAB
  0
TABLE
  2
APPID
 70
     9
  0
APPID
  2
ACAD
 70
     0
  0
APPID
  2
ACAD_MLEADERVER
 70
     0
  0
APPID
  2
ACAD_EXEMPT_FROM_CAD_STANDARDS
 70
     0
  0
APPID
  2
ACAD_NAV_VCDISPLAY
 70
     0
  0
APPID
  2
ACAECLAYERSTANDARD
 70
     0
  0
APPID
  2
ACCMTRANSPARENCY
 70
     0
  0
APPID
  2
ACAD_DSTYLE_DIMJAG
 70
     0
  0
APPID
  2
ACAD_DSTYLE_DIMTALN
 70
     0
  0
APPID
  2
ACDBATTR
 70
     0
  0
ENDTAB
  0
TABLE
  2
DIMSTYLE
 70
     1
  0
DIMSTYLE
  2
STANDARD
 70
     0
  3

  4

  5

  6

  7

 40
1.0
 41
0.1875
 42
0.0625
 43
0.38
 44
0.125
 45
0.0
 46
0.0
 47
0.01
 48
0.01
140
0.15625
141
0.09
142
0.0
143
25.3999999999999986
144
1.0
145
0.0
146
1.0
147
0.09
 71
     1
 72
     0
 73
     1
 74
     1
 75
     0
 76
     0
 77
     0
 78
     4
170
     0
171
     2
172
     0
173
     0
174
     0
175
     0
176
     0
177
     0
178
     0
  0
ENDTAB
  0
ENDSEC
  0
SECTION
  2
BLOCKS
  0
BLOCK
  8
0
  2
$MODEL_SPACE
 70
     0
 10
0.0
 20
0.0
 30
0.0
  3
$MODEL_SPACE
  1

  0
ENDBLK
  5
21
  8
0
  0
BLOCK
 67
     1
  8
0
  2
$PAPER_SPACE
 70
     0
 10
0.0
 20
0.0
 30
0.0
  3
$PAPER_SPACE
  1

  0
ENDBLK
  5
1D
 67
     1
  8
0
  0
ENDSEC
  0
SECTION
  2
ENTITIES
  0
ATTDEF
  5
3930
  8
DEFPOINTS
 10
1078.0054603032929208
 20
18.5768244620505598
 30
0.0
 40
0.001
  1
581075-59*
  3

  2
MODELNUMBER
 70
     0
1001
ACDBATTR
1070
     0
1070
     1
  0
ATTDEF
  5
3931
  8
DEFPOINTS
 10
1078.0054603032929208
 20
18.5751577953838911
 30
0.0
 40
0.001
  1
MERITOR
  3

  2
TRADENAME
 70
     0
1001
ACDBATTR
1070
     0
1070
     1
  0
ATTDEF
  5
3932
  8
DEFPOINTS
 10
1078.0054603032929208
 20
18.5734911287172295
 30
0.0
 40
0.001
  1
SHOWER DOOR
  3

  2
PRODUCT
 70
     0
1001
ACDBATTR
1070
     0
1070
     1
  0
LINE
  5
4A60
  8
0
 10
1107.6961880453488902
 20
17.4847247955616112
 30
0.0
 11
1107.6961880453488902
 21
19.6607247955616309
 31
0.0
  0
LINE
  5
4A61
  8
0
 10
1048.3211880453488902
 20
17.4847247955616112
 30
0.0
 11
1048.3211880453488902
 21
19.6607247955616309
 31
0.0
  0
LINE
  5
4A62
  8
0
 10
1051.6804816084490994
 20
17.4847247955616112
 30
0.0
 11
1051.8464216082491021
 21
16.3587146089615985
 31
0.0
  0
LINE
  5
4A63
  8
0
 10
1052.8312900328489832
 20
15.7198479019615895
 30
0.0
 11
1052.831290033049072
 21
15.7468831384615999
 31
0.0
  0
LINE
  5
4A64
  8
0
 10
1052.9922898937491027
 20
16.2542557547615907
 30
0.0
 11
1052.992294675148969
 21
16.2753976263615989
 31
0.0
  0
LINE
  5
4A65
  8
0
 10
1052.4298278979490533
 20
16.5485935631615888
 30
0.0
 11
1052.4301298489490364
 21
17.4847247955616112
 31
0.0
  0
LINE
  5
4A66
  8
0
 10
1052.7993161087449607
 20
15.6815161231508995
 30
0.0
 11
1052.8286009728490171
 21
15.7130240318616003
 31
0.0
  0
LINE
  5
4A67
  8
0
 10
1052.973337014946992
 20
16.295370036025691
 30
0.0
 11
1052.5816772316491097
 21
16.3168975457615986
 31
0.0
  0
LINE
  5
4A68
  8
0
 10
1052.8312900329640343
 20
15.7353761145363507
 30
0.0
 11
1075.2075860517340971
 21
15.7353759939868407
 31
0.0
  0
LINE
  5
4A69
  8
0
 10
1052.9917734024679703
 20
16.2354176185280501
 30
0.0
 11
1075.0471026833808992
 21
16.2354174997992295
 31
0.0
  0
LINE
  5
4A6A
  8
0
 10
1107.6961880453488902
 20
17.4847247955616112
 30
0.0
 11
1048.3211880453488902
 21
17.4847247955616112
 31
0.0
  0
LINE
  5
4A6B
  8
0
 10
1048.3211880453488902
 20
17.6347247955616204
 30
0.0
 11
1107.6961880453488902
 21
17.6347247955616204
 31
0.0
  0
LINE
  5
4A6C
  8
0
 10
1048.3211880453488902
 20
19.5107247955615897
 30
0.0
 11
1107.6961880453488902
 21
19.5107247955615897
 31
0.0
  0
LINE
  5
4A6D
  8
0
 10
1048.3211880453488902
 20
19.6607247955616309
 30
0.0
 11
1107.6961880453488902
 21
19.6607247955616309
 31
0.0
  0
ARC
  5
4A6E
  8
0
 10
1052.9722849541828964
 20
16.2753879892293192
 30
0.0
 40
0.0200097232870689
 50
0.0275949357457906
 51
86.9861428054409487
  0
ARC
  5
4A6F
  8
0
 10
1058.0855637245010712
 20
17.2435329058395617
 30
0.0
 40
6.301571055282257
 50
188.071706907005904
 51
189.992841383896689
  0
ARC
  5
4A70
  8
0
 10
1053.1545145864570259
 20
16.40100151537629
 30
0.0
 40
1.2993866920249619
 50
191.1354597191908908
 51
198.450254777992086
  0
ARC
  5
4A71
  8
0
 10
1052.3154377733069396
 20
16.1097164786742617
 30
0.0
 40
0.4113939646727224
 50
196.9514292977409013
 51
269.1353651432880838
  0
ARC
  5
4A72
  8
0
 10
1053.6509759176219632
 20
38.4449195161332611
 30
0.0
 40
22.7860884505173615
 50
266.624217126159806
 51
267.2259191939597258
  0
ARC
  5
4A73
  8
0
 10
1076.7509220610199918
 20
477.9515347641726066
 30
0.0
 40
462.8991563938877221
 50
267.002915740089577
 51
267.0316176059271243
  0
ARC
  5
4A74
  8
0
 10
1052.7819246588530859
 20
15.6959861807188901
 30
0.0
 40
0.0226239937982181
 50
264.4788258575381974
 51
320.2388209162473913
  0
ARC
  5
4A75
  8
0
 10
1052.8173195310780557
 20
15.7214114419945403
 30
0.0
 40
0.0140577230438872
 50
323.3703154203541885
 51
353.6141876479455846
  0
ARC
  5
4A76
  8
0
 10
1053.3011919239679628
 20
15.7470277881707208
 30
0.0
 40
0.4699019131819925
 50
175.4788520081617946
 51
180.017637336084988
  0
ARC
  5
4A77
  8
0
 10
1054.0993410972530455
 20
15.5883094706667205
 30
0.0
 40
1.28162753337302
 50
149.911547402216712
 51
171.2140941314206088
  0
ARC
  5
4A78
  8
0
 10
1052.9832541487580784
 20
16.2354595433738389
 30
0.0
 40
0.0085193563041457
 50
327.1313280495725166
 51
359.7179665680976086
  0
ARC
  5
4A79
  8
0
 10
1052.6780136610138925
 20
16.2534462194832017
 30
0.0
 40
0.3142772753629299
 50
356.7114047816564266
 51
0.1475862550285902
  0
ARC
  5
4A7A
  8
0
 10
1052.6049119778770091
 20
16.4893161045795793
 30
0.0
 40
0.1739770469261444
 50
198.0585768015992869
 51
262.3251811394699189
  0
ARC
  5
4A7B
  8
0
 10
1053.0955911424839542
 20
16.5484855697301505
 30
0.0
 40
0.6657632532930667
 50
179.9907060537913139
 51
189.7808945726966101
  0
LINE
  5
4A7C
  8
0
 10
1076.3583944762490319
 20
17.4847247955616112
 30
0.0
 11
1076.1924544764490292
 21
16.3587146089615985
 31
0.0
  0
LINE
  5
4A7D
  8
0
 10
1075.2075860518489208
 20
15.7198479019615895
 30
0.0
 11
1075.2075860516490593
 21
15.7468831384615999
 31
0.0
  0
LINE
  5
4A7E
  8
0
 10
1075.0465861909490286
 20
16.2542557547615907
 30
0.0
 11
1075.046581409548935
 21
16.2753976263615989
 31
0.0
  0
LINE
  5
4A7F
  8
0
 10
1075.609048186749078
 20
16.5485935631615888
 30
0.0
 11
1075.6087462357490949
 21
17.4847247955616112
 31
0.0
  0
LINE
  5
4A80
  8
0
 10
1075.2395599759529432
 20
15.6815161231508995
 30
0.0
 11
1075.2102751118488868
 21
15.7130240318616003
 31
0.0
  0
LINE
  5
4A81
  8
0
 10
1075.0655390697509119
 20
16.295370036025691
 30
0.0
 11
1075.4571988530490216
 21
16.3168975457615986
 31
0.0
  0
ARC
  5
4A82
  8
0
 10
1075.0665911305150075
 20
16.2753879892293192
 30
0.0
 40
0.0200097232870689
 50
93.0138571945590371
 51
179.9724050642541897
  0
ARC
  5
4A83
  8
0
 10
1069.9533123601970601
 20
17.2435329058395617
 30
0.0
 40
6.301571055282257
 50
350.0071586161025152
 51
351.9282930929940107
  0
ARC
  5
4A84
  8
0
 10
1074.8843614982411054
 20
16.40100151537629
 30
0.0
 40
1.2993866920249619
 50
341.549745222007175
 51
348.8645402808090239
  0
ARC
  5
4A85
  8
0
 10
1075.7234383113909644
 20
16.1097164786742617
 30
0.0
 40
0.4113939646727224
 50
270.8646348567118025
 51
343.0485707022590987
  0
ARC
  5
4A86
  8
0
 10
1074.3879001670759408
 20
38.4449195161332611
 30
0.0
 40
22.7860884505173615
 50
272.7740808060402173
 51
273.3757828738271769
  0
ARC
  5
4A87
  8
0
 10
1051.2879540236779121
 20
477.9515347641726066
 30
0.0
 40
462.8991563938877221
 50
272.9683823940728189
 51
272.997084259910423
  0
ARC
  5
4A88
  8
0
 10
1075.2569514258459549
 20
15.6959861807188901
 30
0.0
 40
0.0226239937982181
 50
219.7611790837526087
 51
275.5211741424618026
  0
ARC
  5
4A89
  8
0
 10
1075.2215565536200756
 20
15.7214114419945403
 30
0.0
 40
0.0140577230438872
 50
186.3858123520535059
 51
216.6296845796458115
  0
ARC
  5
4A8A
  8
0
 10
1074.737684160731078
 20
15.7470277881707208
 30
0.0
 40
0.4699019131819925
 50
359.9823626639141025
 51
4.5211479918382373
  0
ARC
  5
4A8B
  8
0
 10
1073.9395349874450858
 20
15.5883094706667205
 30
0.0
 40
1.28162753337302
 50
8.7859058685793983
 51
30.0884525977832418
  0
ARC
  5
4A8C
  8
0
 10
1075.0556219359409624
 20
16.2354595433738389
 30
0.0
 40
0.0085193563041457
 50
180.2820334319015956
 51
212.8686719504275118
  0
ARC
  5
4A8D
  8
0
 10
1075.3608624236840114
 20
16.2534462194832017
 30
0.0
 40
0.3142772753629299
 50
179.8524137449713862
 51
183.2885952183426923
  0
ARC
  5
4A8E
  8
0
 10
1075.4339641068208948
 20
16.4893161045795793
 30
0.0
 40
0.1739770469261444
 50
277.6748188605300243
 51
341.9414231984006847
  0
ARC
  5
4A8F
  8
0
 10
1074.9432849422150866
 20
16.5484855697301505
 30
0.0
 40
0.6657632532930667
 50
350.2191054273030204
 51
0.0092939462086294
  0
LINE
  5
4A90
  8
0
 10
1079.6589820002488977
 20
19.6607249183616197
 30
0.0
 11
1079.8249220000489004
 21
20.7867351049616396
 31
0.0
  0
LINE
  5
4A91
  8
0
 10
1080.8097904246490089
 20
21.4256018119616414
 30
0.0
 11
1080.8097904248490977
 21
21.3985665754616292
 31
0.0
  0
LINE
  5
4A92
  8
0
 10
1080.970790285548901
 20
20.8911939591616402
 30
0.0
 11
1080.9707950669489946
 21
20.8700520875616284
 31
0.0
  0
LINE
  5
4A93
  8
0
 10
1080.408328289749079
 20
20.5968561507616386
 30
0.0
 11
1080.4086302407490621
 21
19.6607249183616197
 31
0.0
  0
LINE
  5
4A94
  8
0
 10
1080.7778165005449864
 20
21.4639335907723314
 30
0.0
 11
1080.8071013646490428
 21
21.4324256820616306
 31
0.0
  0
LINE
  5
4A95
  8
0
 10
1080.9518374067470177
 20
20.8500796778975399
 30
0.0
 11
1080.560177623448908
 21
20.8285521681616395
 31
0.0
  0
LINE
  5
4A96
  8
0
 10
1080.8097904247640599
 20
21.4100735993868803
 30
0.0
 11
1103.1860864435338954
 21
21.4100737199363884
 31
0.0
  0
LINE
  5
4A97
  8
0
 10
1080.970273794267996
 20
20.9100320953951808
 30
0.0
 11
1103.0256030751809249
 21
20.9100322141240014
 31
0.0
  0
ARC
  5
4A98
  8
0
 10
1080.9507853459829221
 20
20.8700617246939117
 30
0.0
 40
0.0200097232870689
 50
273.0138571945590229
 51
359.9724050642541897
  0
ARC
  5
4A99
  8
0
 10
1086.0640641163010969
 20
19.9019168080836693
 30
0.0
 40
6.301571055282257
 50
170.007158616103311
 51
171.9282930929940107
  0
ARC
  5
4A9A
  8
0
 10
1081.1330149782570516
 20
20.7444481985469515
 30
0.0
 40
1.2993866920249619
 50
161.549745222007914
 51
168.8645402808089955
  0
ARC
  5
4A9B
  8
0
 10
1080.2939381651069652
 20
21.0357332352489692
 30
0.0
 40
0.4113939646727224
 50
90.8646348567118451
 51
163.0485707022590987
  0
ARC
  5
4A9C
  8
0
 10
1081.6294763094219888
 20
-1.2994698022100191
 30
0.0
 40
22.7860884505173615
 50
92.7740808060402742
 51
93.3757828738402083
  0
ARC
  5
4A9D
  8
0
 10
1104.7294224528200175
 20
-440.8060850502494077
 30
0.0
 40
462.8991563938877221
 50
92.9683823940728757
 51
92.9970842599104657
  0
ARC
  5
4A9E
  8
0
 10
1080.7604250506531116
 20
21.4494635332043408
 30
0.0
 40
0.0226239937982181
 50
39.7611790837526229
 51
95.5211741424618168
  0
ARC
  5
4A9F
  8
0
 10
1080.7958199228780813
 20
21.4240382719287012
 30
0.0
 40
0.0140577230438872
 50
6.3858123520543746
 51
36.6296845796457973
  0
ARC
  5
4AA0
  8
0
 10
1081.279692315767079
 20
21.3984219257525083
 30
0.0
 40
0.4699019131819925
 50
179.9823626639148983
 51
184.5211479918382054
  0
ARC
  5
4AA1
  8
0
 10
1082.0778414890530712
 20
21.5571402432565087
 30
0.0
 40
1.28162753337302
 50
188.7859058685793912
 51
210.0884525977828901
  0
ARC
  5
4AA2
  8
0
 10
1080.9617545405569672
 20
20.9099901705493885
 30
0.0
 40
0.0085193563041457
 50
0.2820334319024509
 51
32.8686719504275118
  0
ARC
  5
4AA3
  8
0
 10
1080.6565140528139182
 20
20.8920034944400292
 30
0.0
 40
0.3142772753629299
 50
359.8524137449713862
 51
3.2885952183435689
  0
ARC
  5
4AA4
  8
0
 10
1080.5834123696770348
 20
20.6561336093436516
 30
0.0
 40
0.1739770469261444
 50
97.674818860530138
 51
161.9414231984007131
  0
ARC
  5
4AA5
  8
0
 10
1081.0740915342839799
 20
20.5969641441930804
 30
0.0
 40
0.6657632532930667
 50
170.2191054273029067
 51
180.0092939462086008
  0
LINE
  5
4AA6
  8
0
 10
1104.3368948680490575
 20
19.6607249183616197
 30
0.0
 11
1104.1709548682490549
 21
20.7867351049616396
 31
0.0
  0
LINE
  5
4AA7
  8
0
 10
1103.1860864436489464
 20
21.4256018119616414
 30
0.0
 11
1103.186086443449085
 21
21.3985665754616292
 31
0.0
  0
LINE
  5
4AA8
  8
0
 10
1103.0250865827490543
 20
20.8911939591616402
 30
0.0
 11
1103.0250818013489607
 21
20.8700520875616284
 31
0.0
  0
LINE
  5
4AA9
  8
0
 10
1103.5875485785491037
 20
20.5968561507616386
 30
0.0
 11
1103.5872466275488932
 21
19.6607249183616197
 31
0.0
  0
LINE
  5
4AAA
  8
0
 10
1103.2180603677529689
 20
21.4639335907723314
 30
0.0
 11
1103.1887755036489125
 21
21.4324256820616306
 31
0.0
  0
LINE
  5
4AAB
  8
0
 10
1103.0440394615509376
 20
20.8500796778975399
 30
0.0
 11
1103.4356992448490473
 21
20.8285521681616395
 31
0.0
  0
ARC
  5
4AAC
  8
0
 10
1103.0450915223159427
 20
20.8700617246939117
 30
0.0
 40
0.0200097232870689
 50
180.0275949357456966
 51
266.9861428054409771
  0
ARC
  5
4AAD
  8
0
 10
1097.9318127519970858
 20
19.9019168080836693
 30
0.0
 40
6.301571055282257
 50
8.0717069070059804
 51
9.9928413838975061
  0
ARC
  5
4AAE
  8
0
 10
1102.8628618900420406
 20
20.7444481985469515
 30
0.0
 40
1.2993866920249619
 50
11.1354597191909797
 51
18.4502547779920789
  0
ARC
  5
4AAF
  8
0
 10
1103.7019387031909901
 20
21.0357332352489692
 30
0.0
 40
0.4113939646727224
 50
16.9514292977409013
 51
89.1353651432881549
  0
ARC
  5
4AB0
  8
0
 10
1102.3664005588759665
 20
-1.2994698022100191
 30
0.0
 40
22.7860884505173615
 50
86.6242171261597775
 51
87.2259191939597542
  0
ARC
  5
4AB1
  8
0
 10
1079.2664544154779378
 20
-440.8060850502494077
 30
0.0
 40
462.8991563938877221
 50
87.0029157400895343
 51
87.0316176059271243
  0
ARC
  5
4AB2
  8
0
 10
1103.2354518176459806
 20
21.4494635332043408
 30
0.0
 40
0.0226239937982181
 50
84.4788258575381832
 51
140.2388209162473913
  0
ARC
  5
4AB3
  8
0
 10
1103.2000569454210108
 20
21.4240382719287012
 30
0.0
 40
0.0140577230438872
 50
143.3703154203541885
 51
173.6141876479464088
  0
ARC
  5
4AB4
  8
0
 10
1102.7161845525311037
 20
21.3984219257525083
 30
0.0
 40
0.4699019131819925
 50
355.4788520081618231
 51
0.0176373360858814
  0
ARC
  5
4AB5
  8
0
 10
1101.9180353792451115
 20
21.5571402432565087
 30
0.0
 40
1.28162753337302
 50
329.9115474022167973
 51
351.2140941314206088
  0
ARC
  5
4AB6
  8
0
 10
1103.0341223277409881
 20
20.9099901705493885
 30
0.0
 40
0.0085193563041457
 50
147.1313280495724882
 51
179.7179665680982907
  0
ARC
  5
4AB7
  8
0
 10
1103.3393628154840371
 20
20.8920034944400292
 30
0.0
 40
0.3142772753629299
 50
176.711404781657194
 51
180.1475862550286138
  0
ARC
  5
4AB8
  8
0
 10
1103.4124644986209205
 20
20.6561336093436516
 30
0.0
 40
0.1739770469261444
 50
18.0585768015992905
 51
82.3251811394699757
  0
ARC
  5
4AB9
  8
0
 10
1102.9217853340151123
 20
20.5969641441930804
 30
0.0
 40
0.6657632532930667
 50
359.9907060537914276
 51
9.7808945726974734
  0
ENDSEC
  0
EOF
