  0
SECTION
  2
HEADER
  9
$ACADVER
  1
AC1009
  9
$INSBASE
 10
790.3516588306412132
 20
8.663736123470926
 30
0.0
  9
$EXTMIN
 10
766.5391588306412132
 20
8.6585202734586311
 30
0.0
  9
$EXTMAX
 10
814.1641588306410995
 20
78.3767361234709341
 30
0.0
  9
$LIMMIN
 10
0.0
 20
0.0
  9
$LIMMAX
 10
11.6929133858000007
 20
8.2677165353999982
  9
$ORTHOMODE
 70
     1
  9
$REGENMODE
 70
     1
  9
$FILLMODE
 70
     1
  9
$QTEXTMODE
 70
     0
  9
$MIRRTEXT
 70
     0
  9
$DRAGMODE
 70
     2
  9
$LTSCALE
 40
0.6431102362
  9
$OSMODE
 70
  4095
  9
$ATTMODE
 70
     1
  9
$TEXTSIZE
 40
0.2
  9
$TRACEWID
 40
0.05
  9
$TEXTSTYLE
  7
STANDARD
  9
$CLAYER
  8
0
  9
$CELTYPE
  6
BYLAYER
  9
$CECOLOR
 62
   256
  9
$DIMSCALE
 40
1.0
  9
$DIMASZ
 40
0.1875
  9
$DIMEXO
 40
0.0625
  9
$DIMDLI
 40
0.4443307087
  9
$DIMRND
 40
0.0
  9
$DIMDLE
 40
0.0
  9
$DIMEXE
 40
0.125
  9
$DIMTP
 40
0.01
  9
$DIMTM
 40
0.01
  9
$DIMTXT
 40
2.0
  9
$DIMCEN
 40
0.1052362205
  9
$DIMTSZ
 40
0.0
  9
$DIMTOL
 70
     1
  9
$DIMLIM
 70
     0
  9
$DIMTIH
 70
     1
  9
$DIMTOH
 70
     1
  9
$DIMSE1
 70
     0
  9
$DIMSE2
 70
     0
  9
$DIMTAD
 70
     0
  9
$DIMZIN
 70
     0
  9
$DIMBLK
  1

  9
$DIMASO
 70
     1
  9
$DIMSHO
 70
     1
  9
$DIMPOST
  1
\X
  9
$DIMAPOST
  1

  9
$DIMALT
 70
     1
  9
$DIMALTD
 70
     2
  9
$DIMALTF
 40
25.3999999999999986
  9
$DIMLFAC
 40
1.0
  9
$DIMTOFL
 70
     0
  9
$DIMTVP
 40
0.0
  9
$DIMTIX
 70
     0
  9
$DIMSOXD
 70
     0
  9
$DIMSAH
 70
     0
  9
$DIMBLK1
  1

  9
$DIMBLK2
  1

  9
$DIMSTYLE
  2
STANDARD
  9
$DIMCLRD
 70
     0
  9
$DIMCLRE
 70
     0
  9
$DIMCLRT
 70
     0
  9
$DIMTFAC
 40
1.0
  9
$DIMGAP
 40
0.09
  9
$LUNITS
 70
     2
  9
$LUPREC
 70
     4
  9
$SKETCHINC
 40
0.1
  9
$FILLETRAD
 40
0.0
  9
$AUNITS
 70
     0
  9
$AUPREC
 70
     0
  9
$MENU
  1
.
  9
$ELEVATION
 40
0.0
  9
$PELEVATION
 40
0.0
  9
$THICKNESS
 40
0.0
  9
$LIMCHECK
 70
     0
  9
$BLIPMODE
 70
     0
  9
$CHAMFERA
 40
0.0
  9
$CHAMFERB
 40
0.0
  9
$SKPOLY
 70
     0
  9
$TDCREATE
 40
2458060.468368056230247
  9
$TDUPDATE
 40
2458691.9069791659712791
  9
$TDINDWG
 40
0.2553015625
  9
$TDUSRTIMER
 40
0.2553015625
  9
$USRTIMER
 70
     1
  9
$ANGBASE
 50
0.0
  9
$ANGDIR
 70
     0
  9
$PDMODE
 70
     0
  9
$PDSIZE
 40
0.3125
  9
$PLINEWID
 40
0.0
  9
$COORDS
 70
     1
  9
$SPLFRAME
 70
     0
  9
$SPLINETYPE
 70
     6
  9
$SPLINESEGS
 70
     8
  9
$ATTDIA
 70
     1
  9
$ATTREQ
 70
     1
  9
$HANDLING
 70
     1
  9
$HANDSEED
  5
490B
  9
$SURFTAB1
 70
     6
  9
$SURFTAB2
 70
     6
  9
$SURFTYPE
 70
     6
  9
$SURFU
 70
     6
  9
$SURFV
 70
     6
  9
$UCSNAME
  2

  9
$UCSORG
 10
0.0
 20
0.0
 30
0.0
  9
$UCSXDIR
 10
1.0
 20
0.0
 30
0.0
  9
$UCSYDIR
 10
0.0
 20
1.0
 30
0.0
  9
$PUCSNAME
  2

  9
$PUCSORG
 10
0.0
 20
0.0
 30
0.0
  9
$PUCSXDIR
 10
1.0
 20
0.0
 30
0.0
  9
$PUCSYDIR
 10
0.0
 20
1.0
 30
0.0
  9
$USERI1
 70
     0
  9
$USERI2
 70
     0
  9
$USERI3
 70
     0
  9
$USERI4
 70
     0
  9
$USERI5
 70
     0
  9
$USERR1
 40
0.0
  9
$USERR2
 40
0.0
  9
$USERR3
 40
0.0
  9
$USERR4
 40
0.0
  9
$USERR5
 40
0.0
  9
$WORLDVIEW
 70
     1
  9
$SHADEDGE
 70
     3
  9
$SHADEDIF
 70
    70
  9
$TILEMODE
 70
     1
  9
$MAXACTVP
 70
    64
  9
$PLIMCHECK
 70
     0
  9
$PEXTMIN
 10
1.0000000000000000E+20
 20
1.0000000000000000E+20
 30
1.0000000000000000E+20
  9
$PEXTMAX
 10
-1.0000000000000000E+20
 20
-1.0000000000000000E+20
 30
-1.0000000000000000E+20
  9
$PLIMMIN
 10
0.0
 20
0.0
  9
$PLIMMAX
 10
12.0
 20
9.0
  9
$UNITMODE
 70
     0
  9
$VISRETAIN
 70
     1
  9
$PLINEGEN
 70
     0
  9
$PSLTSCALE
 70
     1
  0
ENDSEC
  0
SECTION
  2
TABLES
  0
TABLE
  2
VPORT
 70
     1
  0
VPORT
  2
*ACTIVE
 70
     0
 10
0.0
 20
0.0
 11
1.0
 21
1.0
 12
0.0
 22
0.0
 13
0.0
 23
0.0
 14
1.0
 24
1.0
 15
0.0
 25
0.0
 16
0.0
 26
0.0
 36
241.8852226332583086
 17
790.3516845703125
 27
43.5176298877058727
 37
0.0
 40
84.4331101549129244
 41
2.1481900452488678
 42
50.0
 43
0.0
 44
0.0
 50
0.0
 51
0.0
 71
     0
 72
   100
 73
     1
 74
     1
 75
     0
 76
     0
 77
     0
 78
     0
  0
ENDTAB
  0
TABLE
  2
LTYPE
 70
     2
  0
LTYPE
  2
CONTINUOUS
 70
     0
  3
Solid line
 72
    65
 73
     0
 40
0.0
  0
LTYPE
  2
PHANTOM2
 70
     0
  3
___ _ _ ___ _ _ ___ _ _ ___ _ _
 72
    65
 73
     6
 40
1.25
 49
0.625
 49
-0.125
 49
0.125
 49
-0.125
 49
0.125
 49
-0.125
  0
ENDTAB
  0
TABLE
  2
LAYER
 70
     2
  0
LAYER
  2
0
 70
     0
 62
   255
  6
CONTINUOUS
  0
LAYER
  2
DEFPOINTS
 70
     0
 62
     7
  6
CONTINUOUS
  0
ENDTAB
  0
TABLE
  2
STYLE
 70
     1
  0
STYLE
  2
STANDARD
 70
     0
 40
0.0
 41
0.8
 50
0.0
 71
     0
 42
0.2
  3
txt
  4

  0
ENDTAB
  0
TABLE
  2
VIEW
 70
     0
  0
ENDTAB
  0
TABLE
  2
UCS
 70
     0
  0
ENDTAB
  0
TABLE
  2
APPID
 70
     9
  0
APPID
  2
ACAD
 70
     0
  0
APPID
  2
ACAD_MLEADERVER
 70
     0
  0
APPID
  2
ACAD_EXEMPT_FROM_CAD_STANDARDS
 70
     0
  0
APPID
  2
ACAD_NAV_VCDISPLAY
 70
     0
  0
APPID
  2
ACAECLAYERSTANDARD
 70
     0
  0
APPID
  2
ACCMTRANSPARENCY
 70
     0
  0
APPID
  2
ACAD_DSTYLE_DIMJAG
 70
     0
  0
APPID
  2
ACAD_DSTYLE_DIMTALN
 70
     0
  0
APPID
  2
ACDBATTR
 70
     0
  0
ENDTAB
  0
TABLE
  2
DIMSTYLE
 70
     1
  0
DIMSTYLE
  2
STANDARD
 70
     0
  3

  4

  5

  6

  7

 40
1.0
 41
0.1875
 42
0.0625
 43
0.38
 44
0.125
 45
0.0
 46
0.0
 47
0.01
 48
0.01
140
0.15625
141
0.09
142
0.0
143
25.3999999999999986
144
1.0
145
0.0
146
1.0
147
0.09
 71
     1
 72
     0
 73
     1
 74
     1
 75
     0
 76
     0
 77
     0
 78
     4
170
     0
171
     2
172
     0
173
     0
174
     0
175
     0
176
     0
177
     0
178
     0
  0
ENDTAB
  0
ENDSEC
  0
SECTION
  2
BLOCKS
  0
BLOCK
  8
0
  2
$MODEL_SPACE
 70
     0
 10
0.0
 20
0.0
 30
0.0
  3
$MODEL_SPACE
  1

  0
ENDBLK
  5
21
  8
0
  0
BLOCK
 67
     1
  8
0
  2
$PAPER_SPACE
 70
     0
 10
0.0
 20
0.0
 30
0.0
  3
$PAPER_SPACE
  1

  0
ENDBLK
  5
1D
 67
     1
  8
0
  0
ENDSEC
  0
SECTION
  2
ENTITIES
  0
ATTDEF
  5
3930
  8
DEFPOINTS
 10
790.3469798600159493
 20
8.6618536067919631
 30
0.0
 40
0.001
  1
581075-48*
  3

  2
MODELNUMBER
 70
     0
1001
ACDBATTR
1070
     0
1070
     1
  0
ATTDEF
  5
3931
  8
DEFPOINTS
 10
790.3469798600159493
 20
8.6601869401252998
 30
0.0
 40
0.001
  1
MERITOR
  3

  2
TRADENAME
 70
     0
1001
ACDBATTR
1070
     0
1070
     1
  0
ATTDEF
  5
3932
  8
DEFPOINTS
 10
790.3469798600159493
 20
8.6585202734586346
 30
0.0
 40
0.001
  1
SHOWER DOOR
  3

  2
PRODUCT
 70
     0
1001
ACDBATTR
1070
     0
1070
     1
  0
LINE
  5
47A7
  8
0
 10
814.1641588306410995
 20
8.6637361234709296
 30
0.0
 11
766.5391588306412132
 21
8.6637361234709331
 31
0.0
  0
LINE
  5
47A8
  8
0
 10
767.948158830641205
 20
8.9227361234709335
 30
0.0
 11
812.7551588306412214
 21
8.9227361234709335
 31
0.0
  0
LINE
  5
47A9
  8
0
 10
767.948158830641205
 20
9.5887361234709338
 30
0.0
 11
812.7551588306412214
 21
9.5887361234709338
 31
0.0
  0
LINE
  5
47AA
  8
0
 10
791.1355880341134252
 20
9.6027361234709332
 30
0.0
 11
794.634530003141208
 21
9.6027361234709332
 31
0.0
  0
LINE
  5
47AB
  8
0
 10
767.948158830641205
 20
10.3381508425709292
 30
0.0
 11
812.7551588306412214
 21
10.3381508425709292
 31
0.0
  0
LINE
  5
47AC
  8
0
 10
791.1354521001411513
 20
9.8384384516709282
 30
0.0
 11
791.1522692060411828
 21
9.8382916909709337
 31
0.0
  0
LINE
  5
47AD
  8
0
 10
791.1578823037411894
 20
10.2873866498709301
 30
0.0
 11
791.0184088306411923
 21
10.3381508425709292
 31
0.0
  0
LINE
  5
47AE
  8
0
 10
766.5391588306412132
 20
8.6637361234709331
 30
0.0
 11
766.5391588306412132
 21
78.3767361234709341
 31
0.0
  0
LINE
  5
47AF
  8
0
 10
767.948158830641205
 20
75.7267361234709426
 30
0.0
 11
767.948158830641205
 21
8.6637361234709331
 31
0.0
  0
LINE
  5
47B0
  8
0
 10
770.0492608183411676
 20
42.8296226668709323
 30
0.0
 11
770.0492608183411676
 21
43.9851705890709326
 31
0.0
  0
LINE
  5
47B1
  8
0
 10
769.7694982931411687
 20
42.7649748437709292
 30
0.0
 11
769.9983911930412432
 21
42.7722617952709285
 31
0.0
  0
LINE
  5
47B2
  8
0
 10
770.0492608183411676
 20
42.8447375663709309
 30
0.0
 11
788.425556818241148
 21
42.8447375663709309
 31
0.0
  0
LINE
  5
47B3
  8
0
 10
769.9989445432412367
 20
44.0420222366709311
 30
0.0
 11
769.7776646751412954
 21
44.049082373370922
 31
0.0
  0
LINE
  5
47B4
  8
0
 10
791.1357173299186343
 20
9.5887361234709338
 30
0.0
 11
791.1334837149412351
 21
9.8305893655709298
 31
0.0
  0
LINE
  5
47B5
  8
0
 10
790.9874088306412432
 20
10.3381508425709292
 30
0.0
 11
790.9874088306412432
 21
75.7267361234709426
 31
0.0
  0
LINE
  5
47B6
  8
0
 10
791.0184088306411923
 20
10.3381508425709292
 30
0.0
 11
791.0184088306411923
 21
9.5887361234709338
 31
0.0
  0
LINE
  5
47B7
  8
0
 10
791.1684088306412832
 20
10.2723519868709303
 30
0.0
 11
791.1684088306412832
 21
9.8542910817709313
 31
0.0
  0
LINE
  5
47B8
  8
0
 10
770.0492608183411676
 20
43.9695641188709274
 30
0.0
 11
788.425556818241148
 21
43.9695641188709274
 31
0.0
  0
LINE
  5
47B9
  8
0
 10
812.7551588306412214
 20
8.6637361234709331
 30
0.0
 11
812.7551588306412214
 21
75.7267361234709426
 31
0.0
  0
LINE
  5
47BA
  8
0
 10
814.1641588306410995
 20
78.3767361234709341
 30
0.0
 11
814.1641588306410995
 21
8.6637361234709331
 31
0.0
  0
LINE
  5
47BB
  8
0
 10
814.1641588306410995
 20
75.7267361234709426
 30
0.0
 11
766.5391588306412132
 21
75.7267361234709426
 31
0.0
  0
LINE
  5
47BC
  8
0
 10
766.5391588306412132
 20
78.3767361234709341
 30
0.0
 11
814.1641588306410995
 21
78.3767361234709341
 31
0.0
  0
ARC
  5
47BD
  8
0
 10
767.1511462890845223
 20
40.6022122453303709
 30
0.0
 40
4.0454731947290901
 50
59.7702232911437221
 51
64.6496587681964598
  0
ARC
  5
47BE
  8
0
 10
768.8772169073412215
 20
42.5957123730709313
 30
0.0
 40
0.0399978743
 50
181.5327515419000122
 51
278.5138548483018894
  0
ARC
  5
47BF
  8
0
 10
767.1823661771123852
 20
46.1441034425286603
 30
0.0
 40
3.9706421005684081
 50
295.3620591366859003
 51
300.3011144835132882
  0
ARC
  5
47C0
  8
0
 10
768.8772195392530193
 20
44.2185798845493423
 30
0.0
 40
0.0400067988984609
 50
81.368227331147466
 51
178.4539045997416054
  0
ARC
  5
47C1
  8
0
 10
794.6345309621411843
 20
9.5089861234709332
 30
0.0
 40
0.09375
 50
58.2842539181857973
 51
90.0005860979037351
  0
ARC
  5
47C2
  8
0
 10
791.1524088307015745
 20
10.2723519868900102
 30
0.0
 40
0.0159999999395115
 50
359.9999999316814865
 51
69.9956145892087847
  0
ARC
  5
47C3
  8
0
 10
791.1522446338722148
 20
9.8544567176845206
 30
0.0
 40
0.0161650453894342
 50
270.0870942261365144
 51
359.4129057710761117
  0
ARC
  5
47C4
  8
0
 10
791.102995509756056
 20
42.5938108915200075
 30
0.0
 40
0.0399377333816766
 50
181.1358941494800945
 51
295.3978350427922237
  0
ARC
  5
47C5
  8
0
 10
807.1190391290559774
 20
43.4072931750254369
 30
0.0
 40
38.2904303353424993
 50
178.7843269629626093
 51
181.2160989031503107
  0
ARC
  5
47C6
  8
0
 10
791.1029916668206852
 20
44.2204929887984974
 30
0.0
 40
0.0399338477429849
 50
64.5755245472826829
 51
178.8671474139748057
  0
ARC
  5
47C7
  8
0
 10
829.3406586613410809
 20
43.4071508425709283
 30
0.0
 40
38.2862500000000026
 50
178.7815514821000136
 51
181.2184485198997947
  0
ARC
  5
47C8
  8
0
 10
791.1593320873013226
 20
9.8282784967971324
 30
0.0
 40
0.0259514636997108
 50
156.9522375398159113
 51
174.8912851093286065
  0
ARC
  5
47C9
  8
0
 10
790.363591510327069
 20
42.5850384936498898
 30
0.0
 40
1.834759277225974
 50
45.8225142221757977
 51
65.6480866057176087
  0
ARC
  5
47CA
  8
0
 10
791.1556121575291627
 20
43.36620869260733
 30
0.0
 40
0.7229567432142606
 50
3.2464848278392222
 51
47.6964004001738715
  0
ARC
  5
47CB
  8
0
 10
790.3635104560338505
 20
44.2293624996080368
 30
0.0
 40
1.834886984887802
 50
294.3525006489095972
 51
314.177139943280622
  0
ARC
  5
47CC
  8
0
 10
791.1556121575291627
 20
43.4480929925345194
 30
0.0
 40
0.7229567432142606
 50
312.3035995998261001
 51
356.7535151721608031
  0
ARC
  5
47CD
  8
0
 10
769.4097161347028759
 20
44.7861158368290404
 30
0.0
 40
0.7234025937893015
 50
252.1452100254473123
 51
267.5093326189116283
  0
ARC
  5
47CE
  8
0
 10
769.6221318058863972
 20
46.9704267139749874
 30
0.0
 40
2.9172397667758019
 50
265.205045674251096
 51
268.3244246123143739
  0
ARC
  5
47CF
  8
0
 10
769.176854028042726
 20
22.4343818724202393
 30
0.0
 40
21.6230490722160908
 50
88.407794143846445
 51
89.0461043815873694
  0
ARC
  5
47D0
  8
0
 10
769.9981615520749756
 20
44.0209038603446672
 30
0.0
 40
0.0211328865473557
 50
37.4601059357933366
 51
87.8766573301624305
  0
ARC
  5
47D1
  8
0
 10
770.6808445241684922
 20
44.558170256915183
 30
0.0
 40
0.84761010202876
 50
218.2209897509991094
 51
221.6252616108768052
  0
ARC
  5
47D2
  8
0
 10
770.0379437285644144
 20
43.9873590545066904
 30
0.0
 40
0.0121318558758988
 50
14.9983728830693703
 51
39.895434055368213
  0
ARC
  5
47D3
  8
0
 10
770.1765485294032487
 20
44.0395692776942198
 30
0.0
 40
0.1360442627703082
 50
201.1429365297082938
 51
210.9691411710709019
  0
ARC
  5
47D4
  8
0
 10
769.1138029080879051
 20
67.3326386419434613
 30
0.0
 40
24.5764122877611513
 50
270.986268296443086
 51
271.5288251262708172
  0
ARC
  5
47D5
  8
0
 10
769.6090286732270442
 20
40.106542748718617
 30
0.0
 40
2.6543066921000209
 50
91.5586432586483738
 51
96.2680813065611289
  0
ARC
  5
47D6
  8
0
 10
769.3601205743137825
 20
42.2361993162529288
 30
0.0
 40
0.5104230362930013
 50
94.594960044729433
 51
109.9777982962783938
  0
ARC
  5
47D7
  8
0
 10
769.9976633228562832
 20
42.7928812449019276
 30
0.0
 40
0.0206322926038728
 50
272.0217115819983178
 51
327.8508441413446235
  0
ARC
  5
47D8
  8
0
 10
770.1921489647953649
 20
42.7667555251868166
 30
0.0
 40
0.1535198490555874
 50
149.4719156003505987
 51
157.8740971689383912
  0
ARC
  5
47D9
  8
0
 10
770.0372261577291511
 20
42.8277598425284936
 30
0.0
 40
0.0131007365543237
 50
319.1085430055657071
 51
345.942430753533074
  0
ARC
  5
47DA
  8
0
 10
770.4159324688339439
 20
42.4702777850421214
 30
0.0
 40
0.5076916993709208
 50
136.5879888750721136
 51
142.134745748220098
  0
ARC
  5
47DB
  8
0
 10
770.5869276795826863
 20
43.9473364728656719
 30
0.0
 40
0.5389963580826557
 50
175.4069024099848946
 51
175.9748906812125142
  0
ARC
  5
47DC
  8
0
 10
770.0870148864745488
 20
42.8320971409643505
 30
0.0
 40
0.0378350721243109
 50
183.7499119513373955
 51
191.4634138532840097
  0
LINE
  5
47DD
  8
0
 10
788.425556818241148
 20
42.8296226668709323
 30
0.0
 11
788.425556818241148
 21
43.9851705890709326
 31
0.0
  0
LINE
  5
47DE
  8
0
 10
788.7053193434411469
 20
42.7649748437709292
 30
0.0
 11
788.4764264435410723
 21
42.7722617952709285
 31
0.0
  0
LINE
  5
47DF
  8
0
 10
788.4758730933411925
 20
44.0420222366709311
 30
0.0
 11
788.6971529614412475
 21
44.049082373370922
 31
0.0
  0
ARC
  5
47E0
  8
0
 10
791.3236713474979069
 20
40.6022122453303709
 30
0.0
 40
4.0454731947290901
 50
115.3503412318034975
 51
120.2297767088563063
  0
ARC
  5
47E1
  8
0
 10
789.5976007292412078
 20
42.5957123730709313
 30
0.0
 40
0.0399978743
 50
261.4861451516981106
 51
358.4672484581000163
  0
ARC
  5
47E2
  8
0
 10
791.2924514594699303
 20
46.1441034425286603
 30
0.0
 40
3.9706421005684081
 50
239.6988855164867118
 51
244.6379408633140997
  0
ARC
  5
47E3
  8
0
 10
789.5975980973294099
 20
44.2185798845493423
 30
0.0
 40
0.0400067988984609
 50
1.54609540025842
 51
98.6317726688525482
  0
ARC
  5
47E4
  8
0
 10
751.3557785075263382
 20
43.4072931750254369
 30
0.0
 40
38.2904303353424993
 50
358.7839010968496041
 51
1.215673037037367
  0
ARC
  5
47E5
  8
0
 10
789.0651015018795533
 20
44.7861158368290404
 30
0.0
 40
0.7234025937893015
 50
272.4906673810883717
 51
287.8547899745587983
  0
ARC
  5
47E6
  8
0
 10
788.8526858306961458
 20
46.9704267139749874
 30
0.0
 40
2.9172397667758019
 50
271.6755753876856261
 51
274.7949543257424239
  0
ARC
  5
47E7
  8
0
 10
789.2979636085397033
 20
22.4343818724202393
 30
0.0
 40
21.6230490722160908
 50
90.953895618406122
 51
91.5922058561535835
  0
ARC
  5
47E8
  8
0
 10
788.47665608450734
 20
44.0209038603446672
 30
0.0
 40
0.0211328865473557
 50
92.1233426698375837
 51
142.5398940642066066
  0
ARC
  5
47E9
  8
0
 10
787.7939731124138234
 20
44.558170256915183
 30
0.0
 40
0.84761010202876
 50
318.3747383891231948
 51
321.7790102490008053
  0
ARC
  5
47EA
  8
0
 10
788.4368739080180148
 20
43.9873590545066904
 30
0.0
 40
0.0121318558758988
 50
140.104565944631787
 51
165.0016271169305924
  0
ARC
  5
47EB
  8
0
 10
788.2982691071790669
 20
44.0395692776942198
 30
0.0
 40
0.1360442627703082
 50
329.0308588289291265
 51
338.8570634702912798
  0
ARC
  5
47EC
  8
0
 10
789.3610147284945242
 20
67.3326386419434613
 30
0.0
 40
24.5764122877611513
 50
268.4711748737291828
 51
269.013731703556914
  0
ARC
  5
47ED
  8
0
 10
788.8657889633551576
 20
40.106542748718617
 30
0.0
 40
2.6543066921000209
 50
83.7319186934388711
 51
88.441356741351612
  0
ARC
  5
47EE
  8
0
 10
789.1146970622686467
 20
42.2361993162529288
 30
0.0
 40
0.5104230362930013
 50
70.0222017037215778
 51
85.4050399552770756
  0
ARC
  5
47EF
  8
0
 10
788.477154313726146
 20
42.7928812449019276
 30
0.0
 40
0.0206322926038728
 50
212.1491558586554049
 51
267.9782884180016254
  0
ARC
  5
47F0
  8
0
 10
788.2826686717869507
 20
42.7667555251868166
 30
0.0
 40
0.1535198490555874
 50
22.1259028310615307
 51
30.5280843996493694
  0
ARC
  5
47F1
  8
0
 10
788.4375914788532782
 20
42.8277598425284936
 30
0.0
 40
0.0131007365543237
 50
194.0575692464668123
 51
220.8914569944344066
  0
ARC
  5
47F2
  8
0
 10
788.058885167748258
 20
42.4702777850421214
 30
0.0
 40
0.5076916993709208
 50
37.8652542517798594
 51
43.412011124927929
  0
ARC
  5
47F3
  8
0
 10
787.8878899569997429
 20
43.9473364728656719
 30
0.0
 40
0.5389963580826557
 50
4.0251093187875098
 51
4.5930975900150504
  0
ARC
  5
47F4
  8
0
 10
788.3878027501078805
 20
42.8320971409643505
 30
0.0
 40
0.0378350721243109
 50
348.5365861467158766
 51
356.2500880486625761
  0
ARC
  5
47F5
  8
0
 10
811.8288221533264277
 20
42.5938108915200075
 30
0.0
 40
0.0399377333816766
 50
244.6021649572078047
 51
358.8641058505198771
  0
ARC
  5
47F6
  8
0
 10
811.8288259962617985
 20
44.2204929887984974
 30
0.0
 40
0.0399338477429849
 50
1.1328525860251659
 51
115.4244754527173029
  0
ARC
  5
47F7
  8
0
 10
773.5911590017412891
 20
43.4071508425709283
 30
0.0
 40
38.2862500000000026
 50
358.7815514800997789
 51
1.218448517899986
  0
ARC
  5
47F8
  8
0
 10
812.5682261527551873
 20
42.5850384936498898
 30
0.0
 40
1.834759277225974
 50
114.3519133942823061
 51
134.1774857778241881
  0
ARC
  5
47F9
  8
0
 10
811.7762055055532073
 20
43.36620869260733
 30
0.0
 40
0.7229567432142606
 50
132.3035995998261001
 51
176.7535151721608031
  0
ARC
  5
47FA
  8
0
 10
812.5683072070485196
 20
44.2293624996080368
 30
0.0
 40
1.834886984887802
 50
225.8228600567194064
 51
245.6474993510904028
  0
ARC
  5
47FB
  8
0
 10
811.7762055055532073
 20
43.4480929925345194
 30
0.0
 40
0.7229567432142606
 50
183.2464848278391969
 51
227.6964004001737862
  0
ENDSEC
  0
EOF
