  0
SECTION
  2
HEADER
  9
$ACADVER
  1
AC1009
  9
$INSBASE
 10
1183.7156287218340367
 20
46.8502800718430521
 30
0.0
  9
$EXTMIN
 10
1180.8162787218329868
 20
46.8502800718430166
 30
0.0
  9
$EXTMAX
 10
1186.6149787218339497
 20
102.0002800718429938
 30
0.0
  9
$LIMMIN
 10
0.0
 20
0.0
  9
$LIMMAX
 10
11.6929133858000007
 20
8.2677165353999982
  9
$ORTHOMODE
 70
     1
  9
$REGENMODE
 70
     1
  9
$FILLMODE
 70
     1
  9
$QTEXTMODE
 70
     0
  9
$MIRRTEXT
 70
     0
  9
$DRAGMODE
 70
     2
  9
$LTSCALE
 40
0.6431102362
  9
$OSMODE
 70
  4095
  9
$ATTMODE
 70
     1
  9
$TEXTSIZE
 40
0.2
  9
$TRACEWID
 40
0.05
  9
$TEXTSTYLE
  7
STANDARD
  9
$CLAYER
  8
0
  9
$CELTYPE
  6
BYLAYER
  9
$CECOLOR
 62
   256
  9
$DIMSCALE
 40
1.0
  9
$DIMASZ
 40
0.1875
  9
$DIMEXO
 40
0.0625
  9
$DIMDLI
 40
0.4443307087
  9
$DIMRND
 40
0.0
  9
$DIMDLE
 40
0.0
  9
$DIMEXE
 40
0.125
  9
$DIMTP
 40
0.01
  9
$DIMTM
 40
0.01
  9
$DIMTXT
 40
2.0
  9
$DIMCEN
 40
0.1052362205
  9
$DIMTSZ
 40
0.0
  9
$DIMTOL
 70
     1
  9
$DIMLIM
 70
     0
  9
$DIMTIH
 70
     1
  9
$DIMTOH
 70
     1
  9
$DIMSE1
 70
     0
  9
$DIMSE2
 70
     0
  9
$DIMTAD
 70
     0
  9
$DIMZIN
 70
     0
  9
$DIMBLK
  1

  9
$DIMASO
 70
     1
  9
$DIMSHO
 70
     1
  9
$DIMPOST
  1
\X
  9
$DIMAPOST
  1

  9
$DIMALT
 70
     1
  9
$DIMALTD
 70
     2
  9
$DIMALTF
 40
25.3999999999999986
  9
$DIMLFAC
 40
1.0
  9
$DIMTOFL
 70
     0
  9
$DIMTVP
 40
0.0
  9
$DIMTIX
 70
     0
  9
$DIMSOXD
 70
     0
  9
$DIMSAH
 70
     0
  9
$DIMBLK1
  1

  9
$DIMBLK2
  1

  9
$DIMSTYLE
  2
STANDARD
  9
$DIMCLRD
 70
     0
  9
$DIMCLRE
 70
     0
  9
$DIMCLRT
 70
     0
  9
$DIMTFAC
 40
1.0
  9
$DIMGAP
 40
0.09
  9
$LUNITS
 70
     2
  9
$LUPREC
 70
     4
  9
$SKETCHINC
 40
0.1
  9
$FILLETRAD
 40
0.0
  9
$AUNITS
 70
     0
  9
$AUPREC
 70
     0
  9
$MENU
  1
.
  9
$ELEVATION
 40
0.0
  9
$PELEVATION
 40
0.0
  9
$THICKNESS
 40
0.0
  9
$LIMCHECK
 70
     0
  9
$BLIPMODE
 70
     0
  9
$CHAMFERA
 40
0.0
  9
$CHAMFERB
 40
0.0
  9
$SKPOLY
 70
     0
  9
$TDCREATE
 40
2458060.468368056230247
  9
$TDUPDATE
 40
2458726.810567129869014
  9
$TDINDWG
 40
0.2594335069
  9
$TDUSRTIMER
 40
0.2594335069
  9
$USRTIMER
 70
     1
  9
$ANGBASE
 50
0.0
  9
$ANGDIR
 70
     0
  9
$PDMODE
 70
     0
  9
$PDSIZE
 40
0.3125
  9
$PLINEWID
 40
0.0
  9
$COORDS
 70
     1
  9
$SPLFRAME
 70
     0
  9
$SPLINETYPE
 70
     6
  9
$SPLINESEGS
 70
     8
  9
$ATTDIA
 70
     1
  9
$ATTREQ
 70
     1
  9
$HANDLING
 70
     1
  9
$HANDSEED
  5
4F68
  9
$SURFTAB1
 70
     6
  9
$SURFTAB2
 70
     6
  9
$SURFTYPE
 70
     6
  9
$SURFU
 70
     6
  9
$SURFV
 70
     6
  9
$UCSNAME
  2

  9
$UCSORG
 10
0.0
 20
0.0
 30
0.0
  9
$UCSXDIR
 10
1.0
 20
0.0
 30
0.0
  9
$UCSYDIR
 10
0.0
 20
1.0
 30
0.0
  9
$PUCSNAME
  2

  9
$PUCSORG
 10
0.0
 20
0.0
 30
0.0
  9
$PUCSXDIR
 10
1.0
 20
0.0
 30
0.0
  9
$PUCSYDIR
 10
0.0
 20
1.0
 30
0.0
  9
$USERI1
 70
     0
  9
$USERI2
 70
     0
  9
$USERI3
 70
     0
  9
$USERI4
 70
     0
  9
$USERI5
 70
     0
  9
$USERR1
 40
0.0
  9
$USERR2
 40
0.0
  9
$USERR3
 40
0.0
  9
$USERR4
 40
0.0
  9
$USERR5
 40
0.0
  9
$WORLDVIEW
 70
     1
  9
$SHADEDGE
 70
     3
  9
$SHADEDIF
 70
    70
  9
$TILEMODE
 70
     1
  9
$MAXACTVP
 70
    64
  9
$PLIMCHECK
 70
     0
  9
$PEXTMIN
 10
1.0000000000000000E+20
 20
1.0000000000000000E+20
 30
1.0000000000000000E+20
  9
$PEXTMAX
 10
-1.0000000000000000E+20
 20
-1.0000000000000000E+20
 30
-1.0000000000000000E+20
  9
$PLIMMIN
 10
0.0
 20
0.0
  9
$PLIMMAX
 10
12.0
 20
9.0
  9
$UNITMODE
 70
     0
  9
$VISRETAIN
 70
     1
  9
$PLINEGEN
 70
     0
  9
$PSLTSCALE
 70
     1
  0
ENDSEC
  0
SECTION
  2
TABLES
  0
TABLE
  2
VPORT
 70
     1
  0
VPORT
  2
*ACTIVE
 70
     0
 10
0.0
 20
0.0
 11
1.0
 21
1.0
 12
0.0
 22
0.0
 13
0.0
 23
0.0
 14
1.0
 24
1.0
 15
0.0
 25
0.0
 16
0.0
 26
0.0
 36
158.5817751685196981
 17
1183.7156372070310226
 27
74.4252815246582031
 37
0.0
 40
55.4568922178394814
 41
2.1433408577878099
 42
50.0
 43
0.0
 44
0.0
 50
0.0
 51
0.0
 71
     0
 72
   100
 73
     1
 74
     1
 75
     0
 76
     0
 77
     0
 78
     0
  0
ENDTAB
  0
TABLE
  2
LTYPE
 70
     2
  0
LTYPE
  2
CONTINUOUS
 70
     0
  3
Solid line
 72
    65
 73
     0
 40
0.0
  0
LTYPE
  2
PHANTOM2
 70
     0
  3
___ _ _ ___ _ _ ___ _ _ ___ _ _
 72
    65
 73
     6
 40
1.25
 49
0.625
 49
-0.125
 49
0.125
 49
-0.125
 49
0.125
 49
-0.125
  0
ENDTAB
  0
TABLE
  2
LAYER
 70
     2
  0
LAYER
  2
0
 70
     0
 62
   255
  6
CONTINUOUS
  0
LAYER
  2
DEFPOINTS
 70
     0
 62
     7
  6
CONTINUOUS
  0
ENDTAB
  0
TABLE
  2
STYLE
 70
     1
  0
STYLE
  2
STANDARD
 70
     0
 40
0.0
 41
0.8
 50
0.0
 71
     0
 42
0.2
  3
txt
  4

  0
ENDTAB
  0
TABLE
  2
VIEW
 70
     0
  0
ENDTAB
  0
TABLE
  2
UCS
 70
     0
  0
ENDTAB
  0
TABLE
  2
APPID
 70
     9
  0
APPID
  2
ACAD
 70
     0
  0
APPID
  2
ACAD_MLEADERVER
 70
     0
  0
APPID
  2
ACAD_EXEMPT_FROM_CAD_STANDARDS
 70
     0
  0
APPID
  2
ACAD_NAV_VCDISPLAY
 70
     0
  0
APPID
  2
ACAECLAYERSTANDARD
 70
     0
  0
APPID
  2
ACCMTRANSPARENCY
 70
     0
  0
APPID
  2
ACAD_DSTYLE_DIMJAG
 70
     0
  0
APPID
  2
ACAD_DSTYLE_DIMTALN
 70
     0
  0
APPID
  2
ACDBATTR
 70
     0
  0
ENDTAB
  0
TABLE
  2
DIMSTYLE
 70
     1
  0
DIMSTYLE
  2
STANDARD
 70
     0
  3

  4

  5

  6

  7

 40
1.0
 41
0.1875
 42
0.0625
 43
0.38
 44
0.125
 45
0.0
 46
0.0
 47
0.01
 48
0.01
140
0.15625
141
0.09
142
0.0
143
25.3999999999999986
144
1.0
145
0.0
146
1.0
147
0.09
 71
     1
 72
     0
 73
     1
 74
     1
 75
     0
 76
     0
 77
     0
 78
     4
170
     0
171
     2
172
     0
173
     0
174
     0
175
     0
176
     0
177
     0
178
     0
  0
ENDTAB
  0
ENDSEC
  0
SECTION
  2
BLOCKS
  0
BLOCK
  8
0
  2
$MODEL_SPACE
 70
     0
 10
0.0
 20
0.0
 30
0.0
  3
$MODEL_SPACE
  1

  0
ENDBLK
  5
21
  8
0
  0
BLOCK
 67
     1
  8
0
  2
$PAPER_SPACE
 70
     0
 10
0.0
 20
0.0
 30
0.0
  3
$PAPER_SPACE
  1

  0
ENDBLK
  5
1D
 67
     1
  8
0
  0
ENDSEC
  0
SECTION
  2
ENTITIES
  0
ATTDEF
  5
3930
  8
DEFPOINTS
 10
1183.7117353818300671
 20
46.8622303246040914
 30
0.0
 40
0.001
  1
581005-59*
  3

  2
MODELNUMBER
 70
     0
1001
ACDBATTR
1070
     0
1070
     1
  0
ATTDEF
  5
3931
  8
DEFPOINTS
 10
1183.7117353818300671
 20
46.8605636579374192
 30
0.0
 40
0.001
  1
MERITOR
  3

  2
TRADENAME
 70
     0
1001
ACDBATTR
1070
     0
1070
     1
  0
ATTDEF
  5
3932
  8
DEFPOINTS
 10
1183.7117353818300671
 20
46.8588969912707611
 30
0.0
 40
0.001
  1
SHOWER DOOR
  3

  2
PRODUCT
 70
     0
1001
ACDBATTR
1070
     0
1070
     1
  0
LINE
  5
4CF1
  8
0
 10
1183.5986287218340749
 20
46.8502800718430592
 30
0.0
 11
1183.4794203419330643
 21
46.8502800718430592
 31
0.0
  0
LINE
  5
4CF2
  8
0
 10
1183.177837101733985
 20
46.8502800718430592
 30
0.0
 11
1183.1164959625339179
 21
46.8502800718430592
 31
0.0
  0
LINE
  5
4CF3
  8
0
 10
1182.8096287218329508
 20
46.8502800718430592
 30
0.0
 11
1182.7816287218340676
 21
46.8502800718430592
 31
0.0
  0
LINE
  5
4CF4
  8
0
 10
1182.6906287218339457
 20
46.8502800718430592
 30
0.0
 11
1182.7656287218330817
 21
46.8502800718430592
 31
0.0
  0
LINE
  5
4CF5
  8
0
 10
1183.212961448534088
 20
46.8502800718430592
 30
0.0
 11
1183.4499614485339407
 21
46.8502800718430592
 31
0.0
  0
LINE
  5
4CF6
  8
0
 10
1184.6656287218340822
 20
46.8502800718430592
 30
0.0
 11
1184.7406287218339003
 21
46.8502800718430592
 31
0.0
  0
LINE
  5
4CF7
  8
0
 10
1183.5170382451340174
 20
46.9102800718430615
 30
0.0
 11
1183.5386287218339021
 21
46.9102800718430615
 31
0.0
  0
LINE
  5
4CF8
  8
0
 10
1183.2689614485339007
 20
46.91470070264306
 30
0.0
 11
1183.3939614485339007
 21
46.91470070264306
 31
0.0
  0
LINE
  5
4CF9
  8
0
 10
1183.5263977400329622
 20
46.9767800718430593
 30
0.0
 11
1183.5170251570339133
 21
46.9767800718430593
 31
0.0
  0
LINE
  5
4CFA
  8
0
 10
1182.841628721834013
 20
47.1502800718430493
 30
0.0
 11
1183.0004959625339325
 21
47.1502800718430493
 31
0.0
  0
LINE
  5
4CFB
  8
0
 10
1183.2507614811340773
 20
47.1502800718430493
 30
0.0
 11
1183.2862364169329794
 21
47.1502800718430493
 31
0.0
  0
LINE
  5
4CFC
  8
0
 10
1183.3710210266328886
 20
47.1502800718430493
 30
0.0
 11
1183.3946287218329871
 21
47.1502800718430493
 31
0.0
  0
LINE
  5
4CFD
  8
0
 10
1182.7756287218339821
 20
47.2102800718430586
 30
0.0
 11
1183.1066287218329762
 21
47.2102800718430586
 31
0.0
  0
LINE
  5
4CFE
  8
0
 10
1183.1366287218340858
 20
47.2102800718430586
 30
0.0
 11
1183.4546287218329326
 21
47.2102800718430586
 31
0.0
  0
LINE
  5
4CFF
  8
0
 10
1183.009111697733033
 20
47.2415300718430515
 30
0.0
 11
1182.7928787218340858
 21
47.2415300718430515
 31
0.0
  0
LINE
  5
4D00
  8
0
 10
1183.1486287218340294
 20
47.2622800718430582
 30
0.0
 11
1183.4499037753339508
 21
47.2622800718430582
 31
0.0
  0
LINE
  5
4D01
  8
0
 10
1182.8881420514330784
 20
47.7260891888430621
 30
0.0
 11
1182.7871481433339795
 21
47.7438971396430532
 31
0.0
  0
LINE
  5
4D02
  8
0
 10
1182.7925746489329413
 20
47.7746723819430485
 30
0.0
 11
1182.8935685570329497
 21
47.7568644310430486
 31
0.0
  0
LINE
  5
4D03
  8
0
 10
1183.1066287218329762
 20
47.0140920503430522
 30
0.0
 11
1183.0776962424520207
 21
47.0307962250515033
 31
0.0
  0
LINE
  5
4D04
  8
0
 10
1183.0836512286750803
 20
47.050452122915182
 30
0.0
 11
1183.1066287218329762
 21
47.0371860610430517
 31
0.0
  0
LINE
  5
4D05
  8
0
 10
1183.1066287218329762
 20
47.0971860610430468
 30
0.0
 11
1183.0784857782950894
 21
47.1134343970869978
 31
0.0
  0
LINE
  5
4D06
  8
0
 10
1183.0844407645049614
 20
47.1330902949906587
 30
0.0
 11
1183.1066287218329762
 21
47.1202800718430481
 31
0.0
  0
LINE
  5
4D07
  8
0
 10
1183.3630210266330778
 20
47.1524236653430506
 30
0.0
 11
1183.3366287218339039
 21
47.1676612696430482
 31
0.0
  0
LINE
  5
4D08
  8
0
 10
1182.8042806894329715
 20
101.2491947909429939
 30
0.0
 11
1182.8218306894339094
 21
101.2667447909430933
 31
0.0
  0
LINE
  5
4D09
  8
0
 10
1183.1992806894329533
 20
101.0267058950430936
 30
0.0
 11
1183.1842792823329091
 21
101.0116947909429967
 31
0.0
  0
LINE
  5
4D0A
  8
0
 10
1183.5113683028339437
 20
46.9791232176430498
 30
0.0
 11
1183.4978726847339203
 21
46.9926188356430572
 31
0.0
  0
LINE
  5
4D0B
  8
0
 10
1183.5599371191660794
 20
47.1221834172720833
 30
0.0
 11
1183.4716122168340462
 21
47.2136465311430626
 31
0.0
  0
LINE
  5
4D0C
  8
0
 10
1183.4542198141339213
 20
47.2604480220430503
 30
0.0
 11
1183.594858434624939
 21
47.1148124672683579
 31
0.0
  0
LINE
  5
4D0D
  8
0
 10
1183.2398364239340935
 20
46.9679538996430566
 30
0.0
 11
1183.2545038672330975
 21
46.9510809362430521
 31
0.0
  0
LINE
  5
4D0E
  8
0
 10
1183.4499614485339407
 20
46.8502800718430592
 30
0.0
 11
1183.3939614485339007
 21
46.91470070264306
 31
0.0
  0
LINE
  5
4D0F
  8
0
 10
1183.4679515377340522
 20
46.8550853724430496
 30
0.0
 11
1183.4027535764339518
 21
46.9300870473430578
 31
0.0
  0
LINE
  5
4D10
  8
0
 10
1183.4757036646331017
 20
46.9494420179430634
 30
0.0
 11
1183.5055694409340958
 21
46.9150853724430519
 31
0.0
  0
LINE
  5
4D11
  8
0
 10
1183.0765901502340967
 20
47.0351056752430594
 30
0.0
 11
1183.0856672933330174
 21
46.9997401827430465
 31
0.0
  0
LINE
  5
4D12
  8
0
 10
1183.0856672933330174
 20
47.0425973255430492
 30
0.0
 11
1183.0765901502340967
 21
47.0779628181430567
 31
0.0
  0
LINE
  5
4D13
  8
0
 10
1183.0856672933330174
 20
47.0854544684430607
 30
0.0
 11
1183.0765901502340967
 21
47.1208199609430523
 31
0.0
  0
LINE
  5
4D14
  8
0
 10
1183.0856672933330174
 20
47.1283116112430491
 30
0.0
 11
1183.0765901502340967
 21
47.1636771038430567
 31
0.0
  0
LINE
  5
4D15
  8
0
 10
1183.0856672933330174
 20
47.1711687541430607
 30
0.0
 11
1183.0787144367329802
 21
47.1982578059430509
 31
0.0
  0
LINE
  5
4D16
  8
0
 10
1184.4274781011340565
 20
46.9289766219430504
 30
0.0
 11
1184.4271371892230036
 21
46.9485074541826535
 31
0.0
  0
LINE
  5
4D17
  8
0
 10
1183.4887941753340783
 20
47.0142686233430496
 30
0.0
 11
1183.4872454535059205
 21
47.1974578406584229
 31
0.0
  0
LINE
  5
4D18
  8
0
 10
1182.6276287218340713
 20
99.3702800718430836
 30
0.0
 11
1182.6276287218340713
 21
101.9802800718429978
 31
0.0
  0
LINE
  5
4D19
  8
0
 10
1182.6906287218339457
 20
101.9073665183430961
 30
0.0
 11
1182.6906287218339457
 21
100.9182800718430002
 31
0.0
  0
LINE
  5
4D1A
  8
0
 10
1182.6906287218339457
 20
46.8502800718430592
 30
0.0
 11
1182.6906287218339457
 21
100.7502800718429938
 31
0.0
  0
LINE
  5
4D1B
  8
0
 10
1182.7456287218340094
 20
47.1192800718430505
 30
0.0
 11
1182.7456287218340094
 21
47.7364881455430492
 31
0.0
  0
LINE
  5
4D1C
  8
0
 10
1182.7656287218330817
 20
46.8502800718430592
 30
0.0
 11
1182.7656287218330817
 21
47.2002800718430606
 31
0.0
  0
LINE
  5
4D1D
  8
0
 10
1182.7656287218330817
 20
47.7699192643176076
 30
0.0
 11
1182.7656287218330817
 21
100.7502800718429938
 31
0.0
  0
LINE
  5
4D1E
  8
0
 10
1182.7768787218340094
 20
47.2575300718430569
 30
0.0
 11
1182.7768787218340094
 21
47.7352800718430572
 31
0.0
  0
LINE
  5
4D1F
  8
0
 10
1182.7776287218339348
 20
101.9802800718429978
 30
0.0
 11
1182.7776287218339348
 21
101.9702800718430069
 31
0.0
  0
LINE
  5
4D20
  8
0
 10
1182.8042806894329715
 20
101.2491947909429939
 30
0.0
 11
1182.8042806894329715
 21
101.1241947909430934
 31
0.0
  0
LINE
  5
4D21
  8
0
 10
1182.8218306894339094
 20
101.2667447909430933
 30
0.0
 11
1182.8218306894339094
 21
101.1066447909430934
 31
0.0
  0
LINE
  5
4D22
  8
0
 10
1182.8221287218339057
 20
100.8822800718430983
 30
0.0
 11
1182.8221287218339057
 21
100.8563863572429966
 31
0.0
  0
LINE
  5
4D23
  8
0
 10
1182.8256287218330272
 20
47.134280071843051
 30
0.0
 11
1182.8256287218330272
 21
46.8662800718430574
 31
0.0
  0
LINE
  5
4D24
  8
0
 10
1182.8292019492339477
 20
101.4916947909431002
 30
0.0
 11
1182.8292019492339477
 21
100.8816947909430013
 31
0.0
  0
LINE
  5
4D25
  8
0
 10
1182.9143787218340549
 20
47.694821542643048
 30
0.0
 11
1182.9143787218340549
 21
47.465280071843047
 31
0.0
  0
LINE
  5
4D26
  8
0
 10
1182.9456287218340549
 20
47.694821542643048
 30
0.0
 11
1182.9456287218340549
 21
47.465280071843047
 31
0.0
  0
LINE
  5
4D27
  8
0
 10
1183.0164959625330994
 20
47.134280071843051
 30
0.0
 11
1183.0164959625330994
 21
46.9502800718430606
 31
0.0
  0
LINE
  5
4D28
  8
0
 10
1183.0792019492330382
 20
100.8816947909430013
 30
0.0
 11
1183.0792019492330382
 21
101.4916947909431002
 31
0.0
  0
LINE
  5
4D29
  8
0
 10
1183.0861287218340294
 20
100.8569463620430042
 30
0.0
 11
1183.0861287218340294
 21
100.9062800718430992
 31
0.0
  0
LINE
  5
4D2A
  8
0
 10
1183.1066287218329762
 20
46.9852800718430572
 30
0.0
 11
1183.1066287218329762
 21
47.0140920503430522
 31
0.0
  0
LINE
  5
4D2B
  8
0
 10
1183.1066287218329762
 20
47.0371860610430517
 30
0.0
 11
1183.1066287218329762
 21
47.0971860610430468
 31
0.0
  0
LINE
  5
4D2C
  8
0
 10
1183.1066287218329762
 20
47.1202800718430481
 30
0.0
 11
1183.1066287218329762
 21
47.2102800718430586
 31
0.0
  0
LINE
  5
4D2D
  8
0
 10
1183.1361287218339839
 20
100.9062800718430992
 30
0.0
 11
1183.1361287218339839
 21
100.8301379396429951
 31
0.0
  0
LINE
  5
4D2E
  8
0
 10
1183.1366287218340858
 20
47.2102800718430586
 30
0.0
 11
1183.1366287218340858
 21
47.1202800718430481
 31
0.0
  0
LINE
  5
4D2F
  8
0
 10
1183.1366287218340858
 20
47.0971860610430468
 30
0.0
 11
1183.1366287218340858
 21
47.0371860610430517
 31
0.0
  0
LINE
  5
4D30
  8
0
 10
1183.1366287218340858
 20
47.0140920503430522
 30
0.0
 11
1183.1366287218340858
 21
46.9852800718430572
 31
0.0
  0
LINE
  5
4D31
  8
0
 10
1183.1842792823329091
 20
101.0116947909429967
 30
0.0
 11
1183.1842792823329091
 21
101.3616947909430053
 31
0.0
  0
LINE
  5
4D32
  8
0
 10
1183.1962806894339337
 20
101.0281267045429985
 30
0.0
 11
1183.1962806894339337
 21
101.0320160885430028
 31
0.0
  0
LINE
  5
4D33
  8
0
 10
1183.1962806894339337
 20
101.0239887493430047
 30
0.0
 11
1183.1962806894339337
 21
101.0254441194429944
 31
0.0
  0
LINE
  5
4D34
  8
0
 10
1183.1962806894339337
 20
101.0370826708430059
 30
0.0
 11
1183.1962806894339337
 21
101.043287891743006
 31
0.0
  0
LINE
  5
4D35
  8
0
 10
1183.1962806894339337
 20
101.050584525643103
 30
0.0
 11
1183.1962806894339337
 21
101.0589170409430011
 31
0.0
  0
LINE
  5
4D36
  8
0
 10
1183.1962806894339337
 20
101.068222022043102
 30
0.0
 11
1183.1962806894339337
 21
101.0784286524429945
 31
0.0
  0
LINE
  5
4D37
  8
0
 10
1183.1962806894339337
 20
101.0894592535430974
 30
0.0
 11
1183.1962806894339337
 21
101.1012298758430035
 31
0.0
  0
LINE
  5
4D38
  8
0
 10
1183.1962806894339337
 20
101.1136509377430031
 30
0.0
 11
1183.1962806894339337
 21
101.1266279073431065
 31
0.0
  0
LINE
  5
4D39
  8
0
 10
1183.1962806894339337
 20
101.1400620223430025
 30
0.0
 11
1183.1962806894339337
 21
101.1538510408430938
 31
0.0
  0
LINE
  5
4D3A
  8
0
 10
1183.1962806894339337
 20
101.1678900200430036
 30
0.0
 11
1183.1962806894339337
 21
101.1820721149430966
 31
0.0
  0
LINE
  5
4D3B
  8
0
 10
1183.1962806894339337
 20
101.196289391242999
 30
0.0
 11
1183.1962806894339337
 21
101.2104336467429988
 31
0.0
  0
LINE
  5
4D3C
  8
0
 10
1183.1962806894339337
 20
101.2243972352430035
 30
0.0
 11
1183.1962806894339337
 21
101.2380738854431002
 31
0.0
  0
LINE
  5
4D3D
  8
0
 10
1183.1962806894339337
 20
101.2513595096429952
 30
0.0
 11
1183.1962806894339337
 21
101.2641529963430997
 31
0.0
  0
LINE
  5
4D3E
  8
0
 10
1183.1962806894339337
 20
101.2763569793430065
 30
0.0
 11
1183.1962806894339337
 21
101.2878785789429941
 31
0.0
  0
LINE
  5
4D3F
  8
0
 10
1183.1962806894339337
 20
101.2986301087430974
 30
0.0
 11
1183.1962806894339337
 21
101.3085297432429996
 31
0.0
  0
LINE
  5
4D40
  8
0
 10
1183.1962806894339337
 20
101.3175021401430058
 30
0.0
 11
1183.1962806894339337
 21
101.3254790142430011
 31
0.0
  0
LINE
  5
4D41
  8
0
 10
1183.1962806894339337
 20
101.3323996564430018
 30
0.0
 11
1183.1962806894339337
 21
101.3382113967431053
 31
0.0
  0
LINE
  5
4D42
  8
0
 10
1183.1962806894339337
 20
101.3485950470430055
 30
0.0
 11
1183.1962806894339337
 21
101.3496835079206022
 31
0.0
  0
LINE
  5
4D43
  8
0
 10
1183.1962806894339337
 20
101.3428700041429948
 30
0.0
 11
1183.1962806894339337
 21
101.3463400239430001
 31
0.0
  0
LINE
  5
4D44
  8
0
 10
1183.1992806894329533
 20
100.7502800718429938
 30
0.0
 11
1183.1992806894329533
 21
101.4316947909430979
 31
0.0
  0
LINE
  5
4D45
  8
0
 10
1183.2347614811340009
 20
47.134280071843051
 30
0.0
 11
1183.2347614811340009
 21
46.9797741084430527
 31
0.0
  0
LINE
  5
4D46
  8
0
 10
1183.2689614485339007
 20
46.91470070264306
 30
0.0
 11
1183.2689614485339007
 21
47.1502800718430493
 31
0.0
  0
LINE
  5
4D47
  8
0
 10
1183.2792806894340174
 20
101.4316947909430979
 30
0.0
 11
1183.2792806894340174
 21
100.7502800718429938
 31
0.0
  0
LINE
  5
4D48
  8
0
 10
1183.2992806894339992
 20
101.0357688806430048
 30
0.0
 11
1183.2992806894339992
 21
101.337620701342999
 31
0.0
  0
LINE
  5
4D49
  8
0
 10
1183.3042806894341084
 20
101.3356947909430943
 30
0.0
 11
1183.3042806894341084
 21
101.0376947909431067
 31
0.0
  0
LINE
  5
4D4A
  8
0
 10
1183.3492806894339537
 20
101.166194790943095
 30
0.0
 11
1183.3492806894339537
 21
101.207194790943106
 31
0.0
  0
LINE
  5
4D4B
  8
0
 10
1183.3939614485339007
 20
46.91470070264306
 30
0.0
 11
1183.3939614485339007
 21
47.1502800718430493
 31
0.0
  0
LINE
  5
4D4C
  8
0
 10
1183.410628721833973
 20
47.134280071843051
 30
0.0
 11
1183.410628721833973
 21
46.9661224096430487
 31
0.0
  0
LINE
  5
4D4D
  8
0
 10
1183.470628721833009
 20
47.1942800718430604
 30
0.0
 11
1183.470628721833009
 21
46.9612622267430595
 31
0.0
  0
LINE
  5
4D4E
  8
0
 10
1183.554628721833069
 20
47.1102800718430572
 30
0.0
 11
1183.554628721833069
 21
46.9262800718430597
 31
0.0
  0
LINE
  5
4D4F
  8
0
 10
1183.6146287218339239
 20
47.0111083709430488
 30
0.0
 11
1183.6146287218339239
 21
46.8662800718430574
 31
0.0
  0
LINE
  5
4D50
  8
0
 10
1183.5555123614531112
 20
47.1155237012021075
 30
0.0
 11
1183.5555807549740166
 21
47.1266945644525705
 31
0.0
  0
LINE
  5
4D51
  8
0
 10
1184.6656287218340822
 20
46.8502800718430592
 30
0.0
 11
1184.6656287218340822
 21
100.7502800718429938
 31
0.0
  0
LINE
  5
4D52
  8
0
 10
1183.1725430069329832
 20
47.1982578059430509
 30
0.0
 11
1183.1655901502340384
 21
47.1711687541430607
 31
0.0
  0
LINE
  5
4D53
  8
0
 10
1183.1746672933329592
 20
47.1636771038430567
 30
0.0
 11
1183.1655901502340384
 21
47.1283116112430491
 31
0.0
  0
LINE
  5
4D54
  8
0
 10
1183.1746672933329592
 20
47.1208199609430523
 30
0.0
 11
1183.1655901502340384
 21
47.0854544684430607
 31
0.0
  0
LINE
  5
4D55
  8
0
 10
1183.1746672933329592
 20
47.0779628181430567
 30
0.0
 11
1183.1655901502340384
 21
47.0425973255430492
 31
0.0
  0
LINE
  5
4D56
  8
0
 10
1183.1746672933329592
 20
47.0351056752430594
 30
0.0
 11
1183.1655901502340384
 21
46.9997401827430465
 31
0.0
  0
LINE
  5
4D57
  8
0
 10
1183.2523050186330238
 20
46.9275575614430522
 30
0.0
 11
1183.1893059059339066
 21
46.8550853724430496
 31
0.0
  0
LINE
  5
4D58
  8
0
 10
1183.212961448534088
 20
46.8502800718430592
 30
0.0
 11
1183.2689614485339007
 21
46.91470070264306
 31
0.0
  0
LINE
  5
4D59
  8
0
 10
1182.8042806894329715
 20
101.1241947909430934
 30
0.0
 11
1182.8218306894339094
 21
101.1066447909430934
 31
0.0
  0
LINE
  5
4D5A
  8
0
 10
1183.554628721833069
 20
47.0016973449757671
 30
0.0
 11
1183.5320545943329762
 21
46.9791232176430498
 31
0.0
  0
LINE
  5
4D5B
  8
0
 10
1183.1992806894329533
 20
101.3466810392293951
 30
0.0
 11
1183.1842792823329091
 21
101.3616947909430053
 31
0.0
  0
LINE
  5
4D5C
  8
0
 10
1183.1366287218340858
 20
47.1202800718430481
 30
0.0
 11
1183.1682084069871053
 21
47.1385126115836215
 31
0.0
  0
LINE
  5
4D5D
  8
0
 10
1183.1741633932019795
 20
47.1188567136833782
 30
0.0
 11
1183.1366287218340858
 21
47.0971860610430468
 31
0.0
  0
LINE
  5
4D5E
  8
0
 10
1183.3206287218340549
 20
47.1676612696430482
 30
0.0
 11
1183.2942364169339271
 21
47.1524236653430506
 31
0.0
  0
LINE
  5
4D5F
  8
0
 10
1183.1366287218340858
 20
47.0371860610430517
 30
0.0
 11
1183.1689979428178958
 21
47.0558744395081376
 31
0.0
  0
LINE
  5
4D60
  8
0
 10
1183.1747510076640992
 20
47.0361019622628334
 30
0.0
 11
1183.1366287218340858
 21
47.0140920503430522
 31
0.0
  0
LINE
  5
4D61
  8
0
 10
1182.6706287218339639
 20
99.3502800718430876
 30
0.0
 11
1182.6476287218340531
 21
99.3502800718430876
 31
0.0
  0
LINE
  5
4D62
  8
0
 10
1184.7406287218339003
 20
100.7502800718429938
 30
0.0
 11
1182.6906287218339457
 21
100.7502800718429938
 31
0.0
  0
LINE
  5
4D63
  8
0
 10
1182.9410785913330528
 20
100.7942800718431045
 30
0.0
 11
1182.9671788523339728
 21
100.7942800718431045
 31
0.0
  0
LINE
  5
4D64
  8
0
 10
1182.7106287218339276
 20
100.8982800718430042
 30
0.0
 11
1182.8061287218340567
 21
100.8982800718430042
 31
0.0
  0
LINE
  5
4D65
  8
0
 10
1183.1842792823329091
 20
101.0116947909429967
 30
0.0
 11
1183.0792019492330382
 21
101.0116947909429967
 31
0.0
  0
LINE
  5
4D66
  8
0
 10
1183.2992806894339992
 20
101.0357688806430048
 30
0.0
 11
1183.2792806894340174
 21
101.0357688806430048
 31
0.0
  0
LINE
  5
4D67
  8
0
 10
1183.3115084853338885
 20
101.0376947909431067
 30
0.0
 11
1183.3042806894341084
 21
101.0376947909431067
 31
0.0
  0
LINE
  5
4D68
  8
0
 10
1183.2792806894340174
 20
101.0762093564430018
 30
0.0
 11
1183.2992806894339992
 21
101.0762093564430018
 31
0.0
  0
LINE
  5
4D69
  8
0
 10
1183.2992806894339992
 20
101.1018419772430974
 30
0.0
 11
1183.2792806894340174
 21
101.1018419772430974
 31
0.0
  0
LINE
  5
4D6A
  8
0
 10
1182.8292019492339477
 20
101.1066447909430934
 30
0.0
 11
1182.8218306894339094
 21
101.1066447909430934
 31
0.0
  0
LINE
  5
4D6B
  8
0
 10
1183.3492806894339537
 20
101.166194790943095
 30
0.0
 11
1183.4164535561340017
 21
101.166194790943095
 31
0.0
  0
LINE
  5
4D6C
  8
0
 10
1183.4164536061339277
 20
101.207194790943106
 30
0.0
 11
1183.3492806894339537
 21
101.207194790943106
 31
0.0
  0
LINE
  5
4D6D
  8
0
 10
1182.8292019492339477
 20
101.2667447909430933
 30
0.0
 11
1182.8218306894339094
 21
101.2667447909430933
 31
0.0
  0
LINE
  5
4D6E
  8
0
 10
1183.2792806894340174
 20
101.2715476047430059
 30
0.0
 11
1183.2992806894339992
 21
101.2715476047430059
 31
0.0
  0
LINE
  5
4D6F
  8
0
 10
1183.2992806894339992
 20
101.2971802255431015
 30
0.0
 11
1183.2792806894340174
 21
101.2971802255431015
 31
0.0
  0
LINE
  5
4D70
  8
0
 10
1183.3115084853338885
 20
101.3356947909430943
 30
0.0
 11
1183.3042806894341084
 21
101.3356947909430943
 31
0.0
  0
LINE
  5
4D71
  8
0
 10
1183.2792806894340174
 20
101.337620701342999
 30
0.0
 11
1183.2992806894339992
 21
101.337620701342999
 31
0.0
  0
LINE
  5
4D72
  8
0
 10
1183.1842792823329091
 20
101.3616947909430053
 30
0.0
 11
1183.0792019492330382
 21
101.3616947909430053
 31
0.0
  0
LINE
  5
4D73
  8
0
 10
1184.615470990833046
 20
101.8872800718429943
 30
0.0
 11
1182.8157864528338905
 21
101.8872800718429943
 31
0.0
  0
LINE
  5
4D74
  8
0
 10
1182.7976287218339166
 20
101.9502800718430962
 30
0.0
 11
1184.6336287218330199
 21
101.9502800718430962
 31
0.0
  0
LINE
  5
4D75
  8
0
 10
1182.6476287218340531
 20
102.0002800718429938
 30
0.0
 11
1182.7576287218330435
 21
102.0002800718429938
 31
0.0
  0
ARC
  5
4D76
  8
0
 10
1181.6376308370340666
 20
46.6239523698430531
 30
0.0
 40
1.4853437205999991
 50
13.8159182583013393
 51
14.3564433743002802
  0
ARC
  5
4D77
  8
0
 10
1183.1164959625339179
 20
46.9502800718430606
 30
0.0
 40
0.1
 50
180.0
 51
270.0
  0
ARC
  5
4D78
  8
0
 10
1183.1256287218338912
 20
46.949280071843063
 30
0.0
 40
0.039
 50
183.4205509760996051
 51
356.580916195499583
  0
ARC
  5
4D79
  8
0
 10
1182.7827179732798868
 20
46.8673693232893598
 30
0.0
 40
0.0171239301478771
 50
183.6470409579960972
 51
266.3529590418613111
  0
ARC
  5
4D7A
  8
0
 10
1182.8096287218329508
 20
46.8662800718430574
 30
0.0
 40
0.016
 50
270.0
 51
0.0
  0
ARC
  5
4D7B
  8
0
 10
1183.1777970211298907
 20
46.8664646719091422
 30
0.0
 40
0.0161846496951221
 50
270.1418907298414069
 51
315.324386307386078
  0
ARC
  5
4D7C
  8
0
 10
1183.1216287218339858
 20
46.9852800718430572
 30
0.0
 40
0.015
 50
180.0
 51
0.0
  0
ARC
  5
4D7D
  8
0
 10
1183.1693951404570271
 20
46.9992795049263918
 30
0.0
 40
0.0038327763105503
 50
173.0966852526053117
 51
300.0080858226177156
  0
ARC
  5
4D7E
  8
0
 10
1183.1717614811329895
 20
46.9929943575430471
 30
0.0
 40
0.003
 50
345.6048213399993188
 51
98.6169611545926728
  0
ARC
  5
4D7F
  8
0
 10
1183.0794959625329739
 20
46.9929943575430471
 30
0.0
 40
0.003
 50
66.4349952600040581
 51
194.3951786600007097
  0
ARC
  5
4D80
  8
0
 10
1183.0820298716000707
 20
46.9991748416120672
 30
0.0
 40
0.0036810932879029
 50
248.7437696758736934
 51
8.8344308025906031
  0
ARC
  5
4D81
  8
0
 10
1182.841628721834013
 20
47.134280071843051
 30
0.0
 40
0.016
 50
90.0
 51
180.0
  0
ARC
  5
4D82
  8
0
 10
1183.0004959625339325
 20
47.134280071843051
 30
0.0
 40
0.016
 50
0.0000000004005972
 51
90.0
  0
ARC
  5
4D83
  8
0
 10
1182.7556287218330908
 20
47.1192652371049974
 30
0.0
 40
0.0100000110034717
 50
179.9150032742888072
 51
0.08499672571201
  0
ARC
  5
4D84
  8
0
 10
1183.0803951404570853
 20
47.0355663530597212
 30
0.0
 40
0.0038327763105514
 50
59.9919141771538165
 51
186.903314747683396
  0
ARC
  5
4D85
  8
0
 10
1183.0827614811330477
 20
47.0418515004430517
 30
0.0
 40
0.003
 50
261.3830388451967224
 51
14.3951786596997593
  0
ARC
  5
4D86
  8
0
 10
1183.0803951404570853
 20
47.0784234958597168
 30
0.0
 40
0.0038327763105576
 50
59.9919141772007976
 51
186.9033147475782073
  0
ARC
  5
4D87
  8
0
 10
1183.0827614811330477
 20
47.0847086432430615
 30
0.0
 40
0.003
 50
261.3830388451967224
 51
14.3951786596997593
  0
ARC
  5
4D88
  8
0
 10
1183.0803951404570853
 20
47.121280638759707
 30
0.0
 40
0.0038327763105504
 50
59.9919141773822915
 51
186.9033147475516046
  0
ARC
  5
4D89
  8
0
 10
1183.0827614811330477
 20
47.1275657861430588
 30
0.0
 40
0.003
 50
261.3830388451967224
 51
14.3951786598006795
  0
ARC
  5
4D8A
  8
0
 10
1183.0803951404570853
 20
47.1641377815597096
 30
0.0
 40
0.0038327763105504
 50
59.9919141773822915
 51
186.9033147475516046
  0
ARC
  5
4D8B
  8
0
 10
1183.0827614811330477
 20
47.1704229289430472
 30
0.0
 40
0.003
 50
261.3830388451967224
 51
14.3951786579017096
  0
ARC
  5
4D8C
  8
0
 10
1183.1717614811329895
 20
47.0358515004430586
 30
0.0
 40
0.003
 50
345.6048213399993188
 51
98.6169611545926728
  0
ARC
  5
4D8D
  8
0
 10
1183.1693951404570271
 20
47.0421366478263892
 30
0.0
 40
0.0038327763105349
 50
173.0966852527378137
 51
300.0080858227699991
  0
ARC
  5
4D8E
  8
0
 10
1183.1717614811329895
 20
47.0787086432430613
 30
0.0
 40
0.003
 50
345.6048213398977964
 51
98.6169611545926728
  0
ARC
  5
4D8F
  8
0
 10
1183.1693951404570271
 20
47.0849937906263918
 30
0.0
 40
0.0038327763105494
 50
173.0966852527110973
 51
300.0080858226177156
  0
ARC
  5
4D90
  8
0
 10
1183.1717614811329895
 20
47.1215657861430586
 30
0.0
 40
0.003
 50
345.6048213399993188
 51
98.6169611545926728
  0
ARC
  5
4D91
  8
0
 10
1183.1693951404570271
 20
47.127850933526382
 30
0.0
 40
0.0038327763105511
 50
173.0966852525000093
 51
300.0080858227231033
  0
ARC
  5
4D92
  8
0
 10
1183.1717614811329895
 20
47.164422928943047
 30
0.0
 40
0.003
 50
345.6048213399993188
 51
98.6169611545926728
  0
ARC
  5
4D93
  8
0
 10
1183.1693951404570271
 20
47.1707080763263917
 30
0.0
 40
0.0038327763105494
 50
173.0966852527110973
 51
300.0080858226177156
  0
ARC
  5
4D94
  8
0
 10
1183.5197929949340505
 20
47.0145391459430471
 30
0.0
 40
0.031
 50
180.4999999999996874
 51
224.9999999999947988
  0
ARC
  5
4D95
  8
0
 10
1183.2419176280570809
 20
46.9403929794408228
 30
0.0
 40
0.0165119907391103
 50
308.982401673927086
 51
40.3371817629327793
  0
ARC
  5
4D96
  8
0
 10
1183.2512847509210587
 20
46.9798687310348768
 30
0.0
 40
0.0165235407196743
 50
180.3281079329028955
 51
226.1439027902486885
  0
ARC
  5
4D97
  8
0
 10
1183.3911119663951013
 20
46.9667583426209987
 30
0.0
 40
0.0195271132939104
 50
306.5965621852348022
 51
358.1337374930348005
  0
ARC
  5
4D98
  8
0
 10
1183.4148289297329484
 20
46.940583991843063
 30
0.0
 40
0.016
 50
139.0000000000038085
 51
221.0000000000954117
  0
ARC
  5
4D99
  8
0
 10
1183.4794604225369312
 20
46.8664646719091778
 30
0.0
 40
0.0161846496951664
 50
224.6756136926973966
 51
269.8581092703018953
  0
ARC
  5
4D9A
  8
0
 10
1183.5986287218340749
 20
46.8662800718430574
 30
0.0
 40
0.016
 50
270.0
 51
0.0
  0
ARC
  5
4D9B
  8
0
 10
1183.6306287218340003
 20
47.0111083709430488
 30
0.0
 40
0.016
 50
65.0280844259967239
 51
180.0
  0
ARC
  5
4D9C
  8
0
 10
1183.5386287218339021
 20
46.9262800718430597
 30
0.0
 40
0.016
 50
270.0
 51
0.0
  0
ARC
  5
4D9D
  8
0
 10
1183.5170783257369749
 20
46.9264646719092511
 30
0.0
 40
0.0161846496952492
 50
224.675613692776011
 51
269.8581092702107753
  0
ARC
  5
4D9E
  8
0
 10
1183.4871519916209763
 20
46.9613568493348765
 30
0.0
 40
0.0165235407196885
 50
180.3281079329150884
 51
226.1439027902262922
  0
ARC
  5
4D9F
  8
0
 10
1183.5263977400329622
 20
46.9847800718430619
 30
0.0
 40
0.008
 50
270.0000000001954277
 51
315.0000000001019203
  0
ARC
  5
4DA0
  8
0
 10
1183.5170251570339133
 20
46.9847800718430619
 30
0.0
 40
0.008
 50
225.0000000001008118
 51
270.0000000001954277
  0
ARC
  5
4DA1
  8
0
 10
1183.2507614811340773
 20
47.134280071843051
 30
0.0
 40
0.016
 50
90.0
 51
180.0
  0
ARC
  5
4DA2
  8
0
 10
1183.2862364169329794
 20
47.1662800718430617
 30
0.0
 40
0.016
 50
270.0
 51
299.9999999990982928
  0
ARC
  5
4DA3
  8
0
 10
1183.3286287218340931
 20
47.1538048632430531
 30
0.0
 40
0.016
 50
60.0000000004973728
 51
120.0000000009015935
  0
ARC
  5
4DA4
  8
0
 10
1183.3710210266328886
 20
47.1662800718430617
 30
0.0
 40
0.016
 50
239.9999999983000976
 51
270.0
  0
ARC
  5
4DA5
  8
0
 10
1183.3946287218329871
 20
47.134280071843051
 30
0.0
 40
0.016
 50
0.0
 51
90.0
  0
ARC
  5
4DA6
  8
0
 10
1183.5706287218340549
 20
47.1102800718430572
 30
0.0
 40
0.016
 50
59.5915726300017212
 51
180.0
  0
ARC
  5
4DA7
  8
0
 10
1183.1486287218340294
 20
47.465280071843047
 30
0.0
 40
0.23425
 50
180.0
 51
236.1161867326991057
  0
ARC
  5
4DA8
  8
0
 10
1183.1486287218340294
 20
47.465280071843047
 30
0.0
 40
0.203
 50
180.0
 51
270.0
  0
ARC
  5
4DA9
  8
0
 10
1182.8826287218330435
 20
47.694821542643048
 30
0.0
 40
0.063
 50
0.0
 51
80.0000000001006981
  0
ARC
  5
4DAA
  8
0
 10
1182.7856360199918981
 20
47.7352519885305711
 30
0.0
 40
0.0400263911699756
 50
80.0172688688388547
 51
178.230221576700302
  0
ARC
  5
4DAB
  8
0
 10
1182.8826287218330435
 20
47.694821542643048
 30
0.0
 40
0.03175
 50
0.0
 51
79.999999999796529
  0
ARC
  5
4DAC
  8
0
 10
1183.4536287218340931
 20
47.1962800718430628
 30
0.0
 40
0.025
 50
43.9999999990955928
 51
63.5002021146066582
  0
ARC
  5
4DAD
  8
0
 10
1183.455859695133995
 20
47.2007547515430517
 30
0.0
 40
0.02
 50
63.5002021144931206
 51
134.982709127800689
  0
ARC
  5
4DAE
  8
0
 10
1183.009111697733033
 20
47.2575300718430569
 30
0.0
 40
0.016
 50
270.0
 51
56.11620061410337
  0
ARC
  5
4DAF
  8
0
 10
1182.7928787218340858
 20
47.2575300718430569
 30
0.0
 40
0.016
 50
180.0
 51
270.0
  0
ARC
  5
4DB0
  8
0
 10
1183.0622009579080895
 20
47.1929706068331285
 30
0.0
 40
0.017339246115246
 50
17.7537541234167584
 51
86.6414245362777251
  0
ARC
  5
4DB1
  8
0
 10
1182.7815608585660812
 20
47.1943479351108834
 30
0.0
 40
0.0159322812640236
 50
89.7559489113772173
 51
180.2440510886993081
  0
ARC
  5
4DB2
  8
0
 10
1183.1892264791820253
 20
47.1927514715429268
 30
0.0
 40
0.0175686643373726
 50
93.8701533963422463
 51
161.7346679438838919
  0
ARC
  5
4DB3
  8
0
 10
1183.4546287218329326
 20
47.1942800718430604
 30
0.0
 40
0.016
 50
0.0
 51
90.0
  0
ARC
  5
4DB4
  8
0
 10
1183.4306288718130418
 20
47.2259049908802808
 30
0.0
 40
0.0156249190379385
 50
269.9994500341940125
 51
315.2310812367628046
  0
ARC
  5
4DB5
  8
0
 10
1182.7756287218339821
 20
47.2002800718430606
 30
0.0
 40
0.01
 50
90.0
 51
180.0
  0
ARC
  5
4DB6
  8
0
 10
1182.7856287218330635
 20
47.7352800718430572
 30
0.0
 40
0.00875
 50
80.0000000013043859
 51
180.0
  0
ARC
  5
4DB7
  8
0
 10
1183.4499037753339508
 20
47.2562800718430509
 30
0.0
 40
0.006
 50
44.0000000001034977
 51
90.0
  0
ARC
  5
4DB8
  8
0
 10
1172.5344560882140286
 20
74.2432379751277551
 30
0.0
 40
8.308081651220375
 50
0.4650693188566418
 51
4.5566003979955632
  0
ARC
  5
4DB9
  8
0
 10
1182.6476287218340531
 20
99.3702800718430836
 30
0.0
 40
0.02
 50
180.0
 51
270.0
  0
ARC
  5
4DBA
  8
0
 10
1182.6706287218339639
 20
99.3702800718426147
 30
0.0
 40
0.0199999999995555
 50
269.9999999986582111
 51
0.0000000012823996
  0
ARC
  5
4DBB
  8
0
 10
1182.9541287234840183
 20
101.0412800666683069
 30
0.0
 40
0.2909999948252846
 50
269.999999675118886
 51
305.3908213805643186
  0
ARC
  5
4DBC
  8
0
 10
1182.9541287218330581
 20
101.0412800718430049
 30
0.0
 40
0.2361705015
 50
238.7944713136012069
 51
263.6370064004962046
  0
ARC
  5
4DBD
  8
0
 10
1182.9513487707979493
 20
101.0472535937634007
 30
0.0
 40
0.2425514466411788
 50
276.418330065950272
 51
300.9695538144832767
  0
ARC
  5
4DBE
  8
0
 10
1182.9542019492330382
 20
100.9437512425431009
 30
0.0
 40
0.1395564516000085
 50
206.4021743514124978
 51
333.5978256592462117
  0
ARC
  5
4DBF
  8
0
 10
1182.9542019492330382
 20
101.4296383393431
 30
0.0
 40
0.1395564516
 50
26.4021743514003084
 51
153.5978256485996951
  0
ARC
  5
4DC0
  8
0
 10
1182.8157864528338905
 20
101.9702800718430069
 30
0.0
 40
0.083
 50
214.1211915243974886
 51
270.0
  0
ARC
  5
4DC1
  8
0
 10
1182.7219041267519515
 20
101.9050092754771981
 30
0.0
 40
0.0313641124017888
 50
36.6279451317542595
 51
175.6897379831488024
  0
ARC
  5
4DC2
  8
0
 10
1182.7988363592069163
 20
101.9714877092162055
 30
0.0
 40
0.0212419931027532
 50
183.2591033861311871
 51
266.7408966138506798
  0
ARC
  5
4DC3
  8
0
 10
1182.7576287218330435
 20
101.9802800718429978
 30
0.0
 40
0.02
 50
0.0
 51
89.9999999997915552
  0
ARC
  5
4DC4
  8
0
 10
1182.6476287218340531
 20
101.9802800718429978
 30
0.0
 40
0.02
 50
90.0
 51
180.0
  0
ARC
  5
4DC5
  8
0
 10
1182.7106287218339276
 20
100.7302800718430973
 30
0.0
 40
0.02
 50
90.0
 51
180.0
  0
ARC
  5
4DC6
  8
0
 10
1182.8421287218338875
 20
100.8563863572429966
 30
0.0
 40
0.02
 50
180.0
 51
238.7944713152938903
  0
ARC
  5
4DC7
  8
0
 10
1182.7106287218339276
 20
100.9182800718430002
 30
0.0
 40
0.02
 50
180.0
 51
270.0
  0
ARC
  5
4DC8
  8
0
 10
1182.8061287218340567
 20
100.8822800718430983
 30
0.0
 40
0.016
 50
0.0
 51
90.0
  0
ARC
  5
4DC9
  8
0
 10
1182.9665546786350205
 20
100.8019838521359048
 30
0.0
 40
0.0077290247513177
 50
274.6320857296562963
 51
348.5067277756327826
  0
ARC
  5
4DCA
  8
0
 10
1182.9416847632280678
 20
100.8019635543953001
 30
0.0
 40
0.0077073567775258
 50
191.3720709246005924
 51
265.4891154544500864
  0
ARC
  5
4DCB
  8
0
 10
1182.9271788523340092
 20
100.7996075717430955
 30
0.0
 40
0.007
 50
6.8611866113997717
 51
83.6370064176024357
  0
ARC
  5
4DCC
  8
0
 10
1183.2587795136550994
 20
101.1866948336790983
 30
0.0
 40
0.1590011562433189
 50
7.407743033441319
 51
68.5203293461015051
  0
ARC
  5
4DCD
  8
0
 10
1183.2587795837650901
 20
101.1866947870017981
 30
0.0
 40
0.1590010421376901
 50
291.4796053609060209
 51
352.5922375233367916
  0
ARC
  5
4DCE
  8
0
 10
1183.2392806894340538
 20
101.4316947909430979
 30
0.0
 40
0.04
 50
0.0
 51
180.0
  0
ARC
  5
4DCF
  8
0
 10
1183.1041287218340585
 20
100.8301379396429951
 30
0.0
 40
0.032
 50
305.3908210562047998
 51
0.0
  0
ARC
  5
4DD0
  8
0
 10
1183.1111287218329835
 20
100.9062800718430992
 30
0.0
 40
0.025
 50
0.0
 51
180.0
  0
ARC
  5
4DD1
  8
0
 10
1183.0654888976330312
 20
100.8569463620430042
 30
0.0
 40
0.0206398242
 50
301.1371263193937011
 51
359.9999999997996838
  0
ARC
  5
4DD2
  8
0
 10
1183.311508819411074
 20
101.0526912368489008
 30
0.0
 40
0.0149964459095579
 50
269.998723614769176
 51
291.4834235832053082
  0
ARC
  5
4DD3
  8
0
 10
1183.3115084853479857
 20
101.3206947910915972
 30
0.0
 40
0.0149999998514609
 50
68.5199720504847534
 51
90.0000000532957074
  0
ARC
  5
4DD4
  8
0
 10
1183.2892806894330988
 20
101.0916447909429934
 30
0.0
 40
0.015
 50
0.0
 51
48.1896851042816081
  0
ARC
  5
4DD5
  8
0
 10
1183.2892806894330988
 20
101.2817447909429944
 30
0.0
 40
0.015
 50
311.8103148957183066
 51
0.0
  0
ARC
  5
4DD6
  8
0
 10
1182.9812982057330828
 20
100.7995811464430034
 30
0.0
 40
0.0072211985
 50
113.1192191851939981
 51
173.1388135006002926
  0
ARC
  5
4DD7
  8
0
 10
1184.0848879135339757
 20
47.9865183292430473
 30
0.0
 40
1.0600000000000001
 50
245.0280844254056092
 51
255.0422306451943086
  0
ARC
  5
4DD8
  8
0
 10
1184.0848879135339757
 20
47.9865183292430473
 30
0.0
 40
1.0
 50
239.5915726298979109
 51
255.0422306451943086
  0
ARC
  5
4DD9
  8
0
 10
1184.079848837533973
 20
47.9862547381430602
 30
0.0
 40
0.9699999999999999
 50
234.2991391994939079
 51
255.044546100099609
  0
ARC
  5
4DDA
  8
0
 10
1184.1647199358080798
 20
46.8847954340966879
 30
0.0
 40
0.008302801754962
 50
32.924206049331417
 51
145.8170432474935012
  0
ARC
  5
4DDB
  8
0
 10
1184.1777583170339767
 20
46.8945203641430624
 30
0.0
 40
0.008
 50
220.6558821640014969
 51
261.5034434627053201
  0
ARC
  5
4DDC
  8
0
 10
1184.7240348164339139
 20
46.5960049383430572
 30
0.0
 40
1.5992337876
 50
165.6543553847014891
 51
166.2256834202997027
  0
ARC
  5
4DDD
  8
0
 10
1184.6185339543399095
 20
46.893214087709417
 30
0.0
 40
0.0471402088774911
 50
2.5159531388063292
 51
86.784317675720942
  0
ARC
  5
4DDE
  8
0
 10
1184.6496284522299902
 20
46.8663190427001908
 30
0.0
 40
0.016000269603791
 50
269.977593606287428
 51
359.9995987316600008
  0
ARC
  5
4DDF
  8
0
 10
1184.6485373682269255
 20
46.8932332436006973
 30
0.0
 40
0.0171258228373979
 50
3.6358049063131208
 51
86.0835042977779352
  0
ARC
  5
4DE0
  8
0
 10
1184.6656287218340822
 20
50.1602800718430473
 30
0.0
 40
3.3100000000000001
 50
255.0422306451943086
 51
261.1755792707043042
  0
ARC
  5
4DE1
  8
0
 10
1184.6656287218340822
 20
50.1602800718430473
 30
0.0
 40
3.3100000000000001
 50
261.5034434680929962
 51
269.7229274917928024
  0
ARC
  5
4DE2
  8
0
 10
1184.6656287218340822
 20
50.1602800718430473
 30
0.0
 40
3.25
 50
255.0422306451943086
 51
269.7193092041983959
  0
ARC
  5
4DE3
  8
0
 10
1184.6605017985339146
 20
50.1600399480430568
 30
0.0
 40
3.2200000000000002
 50
255.0445461015017941
 51
269.3002708103981035
  0
ARC
  5
4DE4
  8
0
 10
1184.5742445322339336
 20
49.4246648265430579
 30
0.0
 40
2.5
 50
246.5376492760682083
 51
266.6344260587027861
  0
LINE
  5
4DE5
  8
0
 10
1183.1992806894329533
 20
101.155805691343005
 30
0.0
 11
1183.1962806894339337
 21
101.1538510408430938
 31
0.0
  0
LINE
  5
4DE6
  8
0
 10
1183.1992806894329533
 20
101.1290159020430934
 30
0.0
 11
1183.1962806894339337
 21
101.1266279073431065
 31
0.0
  0
LINE
  5
4DE7
  8
0
 10
1183.1992806894329533
 20
101.1039766975402046
 30
0.0
 11
1183.1962806894339337
 21
101.1012298758430035
 31
0.0
  0
LINE
  5
4DE8
  8
0
 10
1183.1992806894329533
 20
101.0814546990429932
 30
0.0
 11
1183.1962806894339337
 21
101.0784286524429945
 31
0.0
  0
LINE
  5
4DE9
  8
0
 10
1183.1992806894329533
 20
101.0621284083429998
 30
0.0
 11
1183.1962806894339337
 21
101.0589170409430011
 31
0.0
  0
LINE
  5
4DEA
  8
0
 10
1183.1992806894329533
 20
101.0465870042429941
 30
0.0
 11
1183.1962806894339337
 21
101.043287891743006
 31
0.0
  0
LINE
  5
4DEB
  8
0
 10
1183.1992806894329533
 20
101.0353027043430956
 30
0.0
 11
1183.1962806894339337
 21
101.0320160885430028
 31
0.0
  0
LINE
  5
4DEC
  8
0
 10
1183.1992806894329533
 20
101.0286168614908036
 30
0.0
 11
1183.1962806894339337
 21
101.0254441194429944
 31
0.0
  0
LINE
  5
4DED
  8
0
 10
1183.1992806894329533
 20
101.211358023070801
 30
0.0
 11
1183.1962806894339337
 21
101.2104336467429988
 31
0.0
  0
LINE
  5
4DEE
  8
0
 10
1183.1992806894329533
 20
101.2384333929429943
 30
0.0
 11
1183.1962806894339337
 21
101.2380738854431002
 31
0.0
  0
LINE
  5
4DEF
  8
0
 10
1183.1962806894339337
 20
101.2763569793430065
 30
0.0
 11
1183.1992806894329533
 21
101.275853994659002
 31
0.0
  0
LINE
  5
4DF0
  8
0
 10
1183.1962806894339337
 20
101.2986301087430974
 30
0.0
 11
1183.1992806894329533
 21
101.297566949343107
 31
0.0
  0
LINE
  5
4DF1
  8
0
 10
1183.1992806894329533
 20
101.1835340302429955
 30
0.0
 11
1183.1962806894339337
 21
101.1820721149430966
 31
0.0
  0
LINE
  5
4DF2
  8
0
 10
1183.1962806894339337
 20
101.3175021401430058
 30
0.0
 11
1183.1992806894329533
 21
101.3159115060430935
 31
0.0
  0
LINE
  5
4DF3
  8
0
 10
1183.1962806894339337
 20
101.3323996564430018
 30
0.0
 11
1183.1992806894329533
 21
101.3303298783429938
 31
0.0
  0
LINE
  5
4DF4
  8
0
 10
1183.1962806894339337
 20
101.3428700041429948
 30
0.0
 11
1183.1992806894329533
 21
101.3403839711429981
 31
0.0
  0
LINE
  5
4DF5
  8
0
 10
1183.1962806894339337
 20
101.3485950470430055
 30
0.0
 11
1183.1992806894329533
 21
101.3457682960430049
 31
0.0
  0
LINE
  5
4DF6
  8
0
 10
1183.1962806894339337
 20
101.2513595096429952
 30
0.0
 11
1183.1992806894329533
 21
101.2514312016431006
 31
0.0
  0
LINE
  5
4DF7
  8
0
 10
1183.1992806894329533
 20
101.2639363272430018
 30
0.0
 11
1183.1962806894339337
 21
101.2641529963430997
 31
0.0
  0
LINE
  5
4DF8
  8
0
 10
1183.1992806894329533
 20
101.287092316643097
 30
0.0
 11
1183.1962806894339337
 21
101.2878785789429941
 31
0.0
  0
LINE
  5
4DF9
  8
0
 10
1183.1992806894329533
 20
101.3071977779430028
 30
0.0
 11
1183.1962806894339337
 21
101.3085297432429996
 31
0.0
  0
LINE
  5
4DFA
  8
0
 10
1183.1962806894339337
 20
101.1678900200430036
 30
0.0
 11
1183.1992806894329533
 21
101.1696048283429974
 31
0.0
  0
LINE
  5
4DFB
  8
0
 10
1183.1992806894329533
 20
101.3236418170429971
 30
0.0
 11
1183.1962806894339337
 21
101.3254790142430011
 31
0.0
  0
LINE
  5
4DFC
  8
0
 10
1183.1962806894339337
 20
101.1400620223430025
 30
0.0
 11
1183.1992806894329533
 21
101.1422416390431067
 31
0.0
  0
LINE
  5
4DFD
  8
0
 10
1183.1992806894329533
 20
101.3359247899431068
 30
0.0
 11
1183.1962806894339337
 21
101.3382113967431053
 31
0.0
  0
LINE
  5
4DFE
  8
0
 10
1183.1962806894339337
 20
101.1136509377430031
 30
0.0
 11
1183.1992806894329533
 21
101.1162291362430068
 31
0.0
  0
LINE
  5
4DFF
  8
0
 10
1183.1992806894329533
 20
101.3436734849429968
 30
0.0
 11
1183.1962806894339337
 21
101.3463400239430001
 31
0.0
  0
LINE
  5
4E00
  8
0
 10
1183.1962806894339337
 20
101.0894592535430974
 30
0.0
 11
1183.1992806894329533
 21
101.0923576966430062
 31
0.0
  0
LINE
  5
4E01
  8
0
 10
1183.1962806894339337
 20
101.068222022043102
 30
0.0
 11
1183.1992806894329533
 21
101.071352641942994
 31
0.0
  0
LINE
  5
4E02
  8
0
 10
1183.1962806894339337
 20
101.050584525643103
 30
0.0
 11
1183.1992806894329533
 21
101.0538522001429982
 31
0.0
  0
LINE
  5
4E03
  8
0
 10
1183.1962806894339337
 20
101.0370826708430059
 30
0.0
 11
1183.1992806894329533
 21
101.0403881132429973
 31
0.0
  0
LINE
  5
4E04
  8
0
 10
1183.1962806894339337
 20
101.0281267045429985
 30
0.0
 11
1183.1992806894329533
 21
101.0313694806429936
 31
0.0
  0
LINE
  5
4E05
  8
0
 10
1183.1962806894339337
 20
101.0239887493430047
 30
0.0
 11
1183.1992806894329533
 21
101.0270672504777991
 31
0.0
  0
LINE
  5
4E06
  8
0
 10
1183.1962806894339337
 20
101.196289391242999
 30
0.0
 11
1183.1992806894329533
 21
101.197487287542998
 31
0.0
  0
LINE
  5
4E07
  8
0
 10
1183.1962806894339337
 20
101.2243972352430035
 30
0.0
 11
1183.1992806894329533
 21
101.2250418221429982
 31
0.0
  0
LINE
  5
4E08
  8
0
 10
1183.1645593025768903
 20
46.9469541563329713
 30
0.0
 11
1183.1707932215340406
 21
46.9767794850430533
 31
0.0
  0
LINE
  5
4E09
  8
0
 10
1183.0800005510338906
 20
46.9786572847430506
 30
0.0
 11
1183.0866982006621129
 21
46.9469531594393317
 31
0.0
  0
LINE
  5
4E0A
  8
0
 10
1184.6269767542330555
 20
101.2491947909429939
 30
0.0
 11
1184.6094267542330272
 21
101.2667447909430933
 31
0.0
  0
LINE
  5
4E0B
  8
0
 10
1184.2319767542330737
 20
101.0267058950430936
 30
0.0
 11
1184.2469781613340274
 21
101.0116947909429967
 31
0.0
  0
LINE
  5
4E0C
  8
0
 10
1184.8036287218340021
 20
99.3702800718430836
 30
0.0
 11
1184.8036287218340021
 21
101.9802800718429978
 31
0.0
  0
LINE
  5
4E0D
  8
0
 10
1184.7406287218339003
 20
101.9073665183430961
 30
0.0
 11
1184.7406287218339003
 21
100.9182800718430002
 31
0.0
  0
LINE
  5
4E0E
  8
0
 10
1184.7406287218339003
 20
46.8502800718430592
 30
0.0
 11
1184.7406287218339003
 21
100.7502800718429938
 31
0.0
  0
LINE
  5
4E0F
  8
0
 10
1184.6536287218330017
 20
101.9802800718429978
 30
0.0
 11
1184.6536287218330017
 21
101.9702800718430069
 31
0.0
  0
LINE
  5
4E10
  8
0
 10
1184.6269767542330555
 20
101.2491947909429939
 30
0.0
 11
1184.6269767542330555
 21
101.1241947909430934
 31
0.0
  0
LINE
  5
4E11
  8
0
 10
1184.6094267542330272
 20
101.2667447909430933
 30
0.0
 11
1184.6094267542330272
 21
101.1066447909430934
 31
0.0
  0
LINE
  5
4E12
  8
0
 10
1184.6091287218339403
 20
100.8822800718430983
 30
0.0
 11
1184.6091287218339403
 21
100.8563863572429966
 31
0.0
  0
LINE
  5
4E13
  8
0
 10
1184.6020554944338983
 20
101.4916947909431002
 30
0.0
 11
1184.6020554944338983
 21
100.8816947909430013
 31
0.0
  0
LINE
  5
4E14
  8
0
 10
1184.3520554944338983
 20
100.8816947909430013
 30
0.0
 11
1184.3520554944338983
 21
101.4916947909431002
 31
0.0
  0
LINE
  5
4E15
  8
0
 10
1184.345128721834044
 20
100.8569463620430042
 30
0.0
 11
1184.345128721834044
 21
100.9062800718430992
 31
0.0
  0
LINE
  5
4E16
  8
0
 10
1184.2951287218340894
 20
100.9062800718430992
 30
0.0
 11
1184.2951287218340894
 21
100.8301379396429951
 31
0.0
  0
LINE
  5
4E17
  8
0
 10
1184.2469781613340274
 20
101.0116947909429967
 30
0.0
 11
1184.2469781613340274
 21
101.3616947909430053
 31
0.0
  0
LINE
  5
4E18
  8
0
 10
1184.2349767542330028
 20
101.0281267045429985
 30
0.0
 11
1184.2349767542330028
 21
101.0320160885430028
 31
0.0
  0
LINE
  5
4E19
  8
0
 10
1184.2349767542330028
 20
101.0239887493430047
 30
0.0
 11
1184.2349767542330028
 21
101.0254441194429944
 31
0.0
  0
LINE
  5
4E1A
  8
0
 10
1184.2349767542330028
 20
101.0370826708430059
 30
0.0
 11
1184.2349767542330028
 21
101.043287891743006
 31
0.0
  0
LINE
  5
4E1B
  8
0
 10
1184.2349767542330028
 20
101.050584525643103
 30
0.0
 11
1184.2349767542330028
 21
101.0589170409430011
 31
0.0
  0
LINE
  5
4E1C
  8
0
 10
1184.2349767542330028
 20
101.068222022043102
 30
0.0
 11
1184.2349767542330028
 21
101.0784286524429945
 31
0.0
  0
LINE
  5
4E1D
  8
0
 10
1184.2349767542330028
 20
101.0894592535430974
 30
0.0
 11
1184.2349767542330028
 21
101.1012298758430035
 31
0.0
  0
LINE
  5
4E1E
  8
0
 10
1184.2349767542330028
 20
101.1136509377430031
 30
0.0
 11
1184.2349767542330028
 21
101.1266279073431065
 31
0.0
  0
LINE
  5
4E1F
  8
0
 10
1184.2349767542330028
 20
101.1400620223430025
 30
0.0
 11
1184.2349767542330028
 21
101.1538510408430938
 31
0.0
  0
LINE
  5
4E20
  8
0
 10
1184.2349767542330028
 20
101.1678900200430036
 30
0.0
 11
1184.2349767542330028
 21
101.1820721149430966
 31
0.0
  0
LINE
  5
4E21
  8
0
 10
1184.2349767542330028
 20
101.196289391242999
 30
0.0
 11
1184.2349767542330028
 21
101.2104336467429988
 31
0.0
  0
LINE
  5
4E22
  8
0
 10
1184.2349767542330028
 20
101.2243972352430035
 30
0.0
 11
1184.2349767542330028
 21
101.2380738854431002
 31
0.0
  0
LINE
  5
4E23
  8
0
 10
1184.2349767542330028
 20
101.2513595096429952
 30
0.0
 11
1184.2349767542330028
 21
101.2641529963430997
 31
0.0
  0
LINE
  5
4E24
  8
0
 10
1184.2349767542330028
 20
101.2763569793430065
 30
0.0
 11
1184.2349767542330028
 21
101.2878785789429941
 31
0.0
  0
LINE
  5
4E25
  8
0
 10
1184.2349767542330028
 20
101.2986301087430974
 30
0.0
 11
1184.2349767542330028
 21
101.3085297432429996
 31
0.0
  0
LINE
  5
4E26
  8
0
 10
1184.2349767542330028
 20
101.3175021401430058
 30
0.0
 11
1184.2349767542330028
 21
101.3254790142430011
 31
0.0
  0
LINE
  5
4E27
  8
0
 10
1184.2349767542330028
 20
101.3323996564430018
 30
0.0
 11
1184.2349767542330028
 21
101.3382113967431053
 31
0.0
  0
LINE
  5
4E28
  8
0
 10
1184.2349767542330028
 20
101.3485950470430055
 30
0.0
 11
1184.2349767542330028
 21
101.3496835079206022
 31
0.0
  0
LINE
  5
4E29
  8
0
 10
1184.2349767542330028
 20
101.3428700041429948
 30
0.0
 11
1184.2349767542330028
 21
101.3463400239430001
 31
0.0
  0
LINE
  5
4E2A
  8
0
 10
1184.2319767542330737
 20
100.7502800718429938
 30
0.0
 11
1184.2319767542330737
 21
101.4316947909430979
 31
0.0
  0
LINE
  5
4E2B
  8
0
 10
1184.1519767542329191
 20
101.4316947909430979
 30
0.0
 11
1184.1519767542329191
 21
100.7502800718429938
 31
0.0
  0
LINE
  5
4E2C
  8
0
 10
1184.1319767542329373
 20
101.0357688806430048
 30
0.0
 11
1184.1319767542329373
 21
101.337620701342999
 31
0.0
  0
LINE
  5
4E2D
  8
0
 10
1184.1269767542330555
 20
101.3356947909430943
 30
0.0
 11
1184.1269767542330555
 21
101.0376947909431067
 31
0.0
  0
LINE
  5
4E2E
  8
0
 10
1184.0819767542338923
 20
101.166194790943095
 30
0.0
 11
1184.0819767542338923
 21
101.207194790943106
 31
0.0
  0
LINE
  5
4E2F
  8
0
 10
1184.6269767542330555
 20
101.1241947909430934
 30
0.0
 11
1184.6094267542330272
 21
101.1066447909430934
 31
0.0
  0
LINE
  5
4E30
  8
0
 10
1184.2319767542330737
 20
101.3466810392293951
 30
0.0
 11
1184.2469781613340274
 21
101.3616947909430053
 31
0.0
  0
LINE
  5
4E31
  8
0
 10
1184.7606287218329726
 20
99.3502800718430876
 30
0.0
 11
1184.7836287218340203
 21
99.3502800718430876
 31
0.0
  0
LINE
  5
4E32
  8
0
 10
1184.4901788523341111
 20
100.7942800718431045
 30
0.0
 11
1184.4640785913341006
 21
100.7942800718431045
 31
0.0
  0
LINE
  5
4E33
  8
0
 10
1184.7206287218339185
 20
100.8982800718430042
 30
0.0
 11
1184.6251287218340167
 21
100.8982800718430042
 31
0.0
  0
LINE
  5
4E34
  8
0
 10
1184.2469781613340274
 20
101.0116947909429967
 30
0.0
 11
1184.3520554944338983
 21
101.0116947909429967
 31
0.0
  0
LINE
  5
4E35
  8
0
 10
1184.1319767542329373
 20
101.0357688806430048
 30
0.0
 11
1184.1519767542329191
 21
101.0357688806430048
 31
0.0
  0
LINE
  5
4E36
  8
0
 10
1184.119748958333048
 20
101.0376947909431067
 30
0.0
 11
1184.1269767542330555
 21
101.0376947909431067
 31
0.0
  0
LINE
  5
4E37
  8
0
 10
1184.1519767542329191
 20
101.0762093564430018
 30
0.0
 11
1184.1319767542329373
 21
101.0762093564430018
 31
0.0
  0
LINE
  5
4E38
  8
0
 10
1184.1319767542329373
 20
101.1018419772430974
 30
0.0
 11
1184.1519767542329191
 21
101.1018419772430974
 31
0.0
  0
LINE
  5
4E39
  8
0
 10
1184.6020554944338983
 20
101.1066447909430934
 30
0.0
 11
1184.6094267542330272
 21
101.1066447909430934
 31
0.0
  0
LINE
  5
4E3A
  8
0
 10
1184.0819767542338923
 20
101.166194790943095
 30
0.0
 11
1184.0148038875329348
 21
101.166194790943095
 31
0.0
  0
LINE
  5
4E3B
  8
0
 10
1184.0148038375330088
 20
101.207194790943106
 30
0.0
 11
1184.0819767542338923
 21
101.207194790943106
 31
0.0
  0
LINE
  5
4E3C
  8
0
 10
1184.6020554944338983
 20
101.2667447909430933
 30
0.0
 11
1184.6094267542330272
 21
101.2667447909430933
 31
0.0
  0
LINE
  5
4E3D
  8
0
 10
1184.1519767542329191
 20
101.2715476047430059
 30
0.0
 11
1184.1319767542329373
 21
101.2715476047430059
 31
0.0
  0
LINE
  5
4E3E
  8
0
 10
1184.1319767542329373
 20
101.2971802255431015
 30
0.0
 11
1184.1519767542329191
 21
101.2971802255431015
 31
0.0
  0
LINE
  5
4E3F
  8
0
 10
1184.119748958333048
 20
101.3356947909430943
 30
0.0
 11
1184.1269767542330555
 21
101.3356947909430943
 31
0.0
  0
LINE
  5
4E40
  8
0
 10
1184.1519767542329191
 20
101.337620701342999
 30
0.0
 11
1184.1319767542329373
 21
101.337620701342999
 31
0.0
  0
LINE
  5
4E41
  8
0
 10
1184.2469781613340274
 20
101.3616947909430053
 30
0.0
 11
1184.3520554944338983
 21
101.3616947909430053
 31
0.0
  0
LINE
  5
4E42
  8
0
 10
1184.7836287218340203
 20
102.0002800718429938
 30
0.0
 11
1184.6736287218329835
 21
102.0002800718429938
 31
0.0
  0
ARC
  5
4E43
  8
0
 10
1184.7836287218340203
 20
99.3702800718430836
 30
0.0
 40
0.02
 50
270.0
 51
0.0
  0
ARC
  5
4E44
  8
0
 10
1184.7606287218329726
 20
99.3702800718426147
 30
0.0
 40
0.0199999999995555
 50
179.9999999987176125
 51
270.0000000013417889
  0
ARC
  5
4E45
  8
0
 10
1184.4771287201829182
 20
101.0412800666683069
 30
0.0
 40
0.2909999948252846
 50
234.6091786194355109
 51
270.0000003248680969
  0
ARC
  5
4E46
  8
0
 10
1184.4771287218329689
 20
101.0412800718430049
 30
0.0
 40
0.2361705015
 50
276.3629935995039091
 51
301.2055286863987931
  0
ARC
  5
4E47
  8
0
 10
1184.4799086728689872
 20
101.0472535937634007
 30
0.0
 40
0.2425514466411788
 50
239.0304461855166949
 51
263.581669934049728
  0
ARC
  5
4E48
  8
0
 10
1184.4770554944338983
 20
100.9437512425431009
 30
0.0
 40
0.1395564516000085
 50
206.4021743407519978
 51
333.5978256485868769
  0
ARC
  5
4E49
  8
0
 10
1184.4770554944338983
 20
101.4296383393431
 30
0.0
 40
0.1395564516
 50
26.4021743514003084
 51
153.5978256485996951
  0
ARC
  5
4E4A
  8
0
 10
1184.615470990833046
 20
101.9702800718430069
 30
0.0
 40
0.083
 50
270.0
 51
325.8788084756025114
  0
ARC
  5
4E4B
  8
0
 10
1184.709353316914985
 20
101.9050092754771981
 30
0.0
 40
0.0313641124017888
 50
4.3102620168511967
 51
143.3720548682456979
  0
ARC
  5
4E4C
  8
0
 10
1184.6324210844600202
 20
101.9714877092162055
 30
0.0
 40
0.0212419931027532
 50
273.2591033861493202
 51
356.7408966138688129
  0
ARC
  5
4E4D
  8
0
 10
1184.6736287218329835
 20
101.9802800718429978
 30
0.0
 40
0.02
 50
90.000000000195385
 51
180.0
  0
ARC
  5
4E4E
  8
0
 10
1184.7836287218340203
 20
101.9802800718429978
 30
0.0
 40
0.02
 50
0.0
 51
90.0
  0
ARC
  5
4E4F
  8
0
 10
1184.7206287218339185
 20
100.7302800718430973
 30
0.0
 40
0.02
 50
0.0
 51
90.0
  0
ARC
  5
4E50
  8
0
 10
1184.589128721833049
 20
100.8563863572429966
 30
0.0
 40
0.02
 50
301.2055286846950253
 51
0.0
  0
ARC
  5
4E51
  8
0
 10
1184.7206287218339185
 20
100.9182800718430002
 30
0.0
 40
0.02
 50
270.0
 51
0.0
  0
ARC
  5
4E52
  8
0
 10
1184.6251287218340167
 20
100.8822800718430983
 30
0.0
 40
0.016
 50
90.0
 51
180.0
  0
ARC
  5
4E53
  8
0
 10
1184.464702765031916
 20
100.8019838521359048
 30
0.0
 40
0.0077290247513177
 50
191.493272224367189
 51
265.3679142703437037
  0
ARC
  5
4E54
  8
0
 10
1184.4895726804390961
 20
100.8019635543953001
 30
0.0
 40
0.0077073567775258
 50
274.5108845455499136
 51
348.6279290753985833
  0
ARC
  5
4E55
  8
0
 10
1184.5040785913340642
 20
100.7996075717430955
 30
0.0
 40
0.007
 50
96.3629935823975501
 51
173.1388133886001981
  0
ARC
  5
4E56
  8
0
 10
1184.1724779300120645
 20
101.1866948336790983
 30
0.0
 40
0.1590011562433189
 50
111.4796706538984949
 51
172.5922569665586082
  0
ARC
  5
4E57
  8
0
 10
1184.1724778599020738
 20
101.1866947870017981
 30
0.0
 40
0.1590010421376901
 50
187.4077624766632084
 51
248.5203946390940075
  0
ARC
  5
4E58
  8
0
 10
1184.1919767542340196
 20
101.4316947909430979
 30
0.0
 40
0.04
 50
0.0
 51
180.0
  0
ARC
  5
4E59
  8
0
 10
1184.3271287218331054
 20
100.8301379396429951
 30
0.0
 40
0.032
 50
180.0
 51
234.6091789437950865
  0
ARC
  5
4E5A
  8
0
 10
1184.3201287218330435
 20
100.9062800718430992
 30
0.0
 40
0.025
 50
0.0
 51
180.0
  0
ARC
  5
4E5B
  8
0
 10
1184.3657685460339053
 20
100.8569463620430042
 30
0.0
 40
0.0206398242
 50
180.000000000199492
 51
238.8628736805951007
  0
ARC
  5
4E5C
  8
0
 10
1184.1197486242560899
 20
101.0526912368489008
 30
0.0
 40
0.0149964459095579
 50
248.5165764167946918
 51
270.001276385230824
  0
ARC
  5
4E5D
  8
0
 10
1184.1197489583200877
 20
101.3206947910915972
 30
0.0
 40
0.0149999998514609
 50
89.9999999466912612
 51
111.480027949515204
  0
ARC
  5
4E5E
  8
0
 10
1184.1419767542340651
 20
101.0916447909429934
 30
0.0
 40
0.015
 50
131.8103148957183919
 51
180.0
  0
ARC
  5
4E5F
  8
0
 10
1184.1419767542340651
 20
101.2817447909429944
 30
0.0
 40
0.015
 50
180.0
 51
228.1896851042698984
  0
ARC
  5
4E60
  8
0
 10
1184.4499592379340811
 20
100.7995811464430034
 30
0.0
 40
0.0072211985
 50
6.8611864993996763
 51
66.8807808148059735
  0
LINE
  5
4E61
  8
0
 10
1184.2319767542330737
 20
101.155805691343005
 30
0.0
 11
1184.2349767542330028
 21
101.1538510408430938
 31
0.0
  0
LINE
  5
4E62
  8
0
 10
1184.2319767542330737
 20
101.1290159020430934
 30
0.0
 11
1184.2349767542330028
 21
101.1266279073431065
 31
0.0
  0
LINE
  5
4E63
  8
0
 10
1184.2319767542330737
 20
101.1039766975402046
 30
0.0
 11
1184.2349767542330028
 21
101.1012298758430035
 31
0.0
  0
LINE
  5
4E64
  8
0
 10
1184.2319767542330737
 20
101.0814546990429932
 30
0.0
 11
1184.2349767542330028
 21
101.0784286524429945
 31
0.0
  0
LINE
  5
4E65
  8
0
 10
1184.2319767542330737
 20
101.0621284083429998
 30
0.0
 11
1184.2349767542330028
 21
101.0589170409430011
 31
0.0
  0
LINE
  5
4E66
  8
0
 10
1184.2319767542330737
 20
101.0465870042429941
 30
0.0
 11
1184.2349767542330028
 21
101.043287891743006
 31
0.0
  0
LINE
  5
4E67
  8
0
 10
1184.2319767542330737
 20
101.0353027043430956
 30
0.0
 11
1184.2349767542330028
 21
101.0320160885430028
 31
0.0
  0
LINE
  5
4E68
  8
0
 10
1184.2319767542330737
 20
101.0286168614908036
 30
0.0
 11
1184.2349767542330028
 21
101.0254441194429944
 31
0.0
  0
LINE
  5
4E69
  8
0
 10
1184.2319767542330737
 20
101.211358023070801
 30
0.0
 11
1184.2349767542330028
 21
101.2104336467429988
 31
0.0
  0
LINE
  5
4E6A
  8
0
 10
1184.2319767542330737
 20
101.2384333929429943
 30
0.0
 11
1184.2349767542330028
 21
101.2380738854431002
 31
0.0
  0
LINE
  5
4E6B
  8
0
 10
1184.2349767542330028
 20
101.2763569793430065
 30
0.0
 11
1184.2319767542330737
 21
101.275853994659002
 31
0.0
  0
LINE
  5
4E6C
  8
0
 10
1184.2349767542330028
 20
101.2986301087430974
 30
0.0
 11
1184.2319767542330737
 21
101.297566949343107
 31
0.0
  0
LINE
  5
4E6D
  8
0
 10
1184.2319767542330737
 20
101.1835340302429955
 30
0.0
 11
1184.2349767542330028
 21
101.1820721149430966
 31
0.0
  0
LINE
  5
4E6E
  8
0
 10
1184.2349767542330028
 20
101.3175021401430058
 30
0.0
 11
1184.2319767542330737
 21
101.3159115060430935
 31
0.0
  0
LINE
  5
4E6F
  8
0
 10
1184.2349767542330028
 20
101.3323996564430018
 30
0.0
 11
1184.2319767542330737
 21
101.3303298783429938
 31
0.0
  0
LINE
  5
4E70
  8
0
 10
1184.2349767542330028
 20
101.3428700041429948
 30
0.0
 11
1184.2319767542330737
 21
101.3403839711429981
 31
0.0
  0
LINE
  5
4E71
  8
0
 10
1184.2349767542330028
 20
101.3485950470430055
 30
0.0
 11
1184.2319767542330737
 21
101.3457682960430049
 31
0.0
  0
LINE
  5
4E72
  8
0
 10
1184.2349767542330028
 20
101.2513595096429952
 30
0.0
 11
1184.2319767542330737
 21
101.2514312016431006
 31
0.0
  0
LINE
  5
4E73
  8
0
 10
1184.2319767542330737
 20
101.2639363272430018
 30
0.0
 11
1184.2349767542330028
 21
101.2641529963430997
 31
0.0
  0
LINE
  5
4E74
  8
0
 10
1184.2319767542330737
 20
101.287092316643097
 30
0.0
 11
1184.2349767542330028
 21
101.2878785789429941
 31
0.0
  0
LINE
  5
4E75
  8
0
 10
1184.2319767542330737
 20
101.3071977779430028
 30
0.0
 11
1184.2349767542330028
 21
101.3085297432429996
 31
0.0
  0
LINE
  5
4E76
  8
0
 10
1184.2349767542330028
 20
101.1678900200430036
 30
0.0
 11
1184.2319767542330737
 21
101.1696048283429974
 31
0.0
  0
LINE
  5
4E77
  8
0
 10
1184.2319767542330737
 20
101.3236418170429971
 30
0.0
 11
1184.2349767542330028
 21
101.3254790142430011
 31
0.0
  0
LINE
  5
4E78
  8
0
 10
1184.2349767542330028
 20
101.1400620223430025
 30
0.0
 11
1184.2319767542330737
 21
101.1422416390431067
 31
0.0
  0
LINE
  5
4E79
  8
0
 10
1184.2319767542330737
 20
101.3359247899431068
 30
0.0
 11
1184.2349767542330028
 21
101.3382113967431053
 31
0.0
  0
LINE
  5
4E7A
  8
0
 10
1184.2349767542330028
 20
101.1136509377430031
 30
0.0
 11
1184.2319767542330737
 21
101.1162291362430068
 31
0.0
  0
LINE
  5
4E7B
  8
0
 10
1184.2319767542330737
 20
101.3436734849429968
 30
0.0
 11
1184.2349767542330028
 21
101.3463400239430001
 31
0.0
  0
LINE
  5
4E7C
  8
0
 10
1184.2349767542330028
 20
101.0894592535430974
 30
0.0
 11
1184.2319767542330737
 21
101.0923576966430062
 31
0.0
  0
LINE
  5
4E7D
  8
0
 10
1184.2349767542330028
 20
101.068222022043102
 30
0.0
 11
1184.2319767542330737
 21
101.071352641942994
 31
0.0
  0
LINE
  5
4E7E
  8
0
 10
1184.2349767542330028
 20
101.050584525643103
 30
0.0
 11
1184.2319767542330737
 21
101.0538522001429982
 31
0.0
  0
LINE
  5
4E7F
  8
0
 10
1184.2349767542330028
 20
101.0370826708430059
 30
0.0
 11
1184.2319767542330737
 21
101.0403881132429973
 31
0.0
  0
LINE
  5
4E80
  8
0
 10
1184.2349767542330028
 20
101.0281267045429985
 30
0.0
 11
1184.2319767542330737
 21
101.0313694806429936
 31
0.0
  0
LINE
  5
4E81
  8
0
 10
1184.2349767542330028
 20
101.0239887493430047
 30
0.0
 11
1184.2319767542330737
 21
101.0270672504777991
 31
0.0
  0
LINE
  5
4E82
  8
0
 10
1184.2349767542330028
 20
101.196289391242999
 30
0.0
 11
1184.2319767542330737
 21
101.197487287542998
 31
0.0
  0
LINE
  5
4E83
  8
0
 10
1184.2349767542330028
 20
101.2243972352430035
 30
0.0
 11
1184.2319767542330737
 21
101.2250418221429982
 31
0.0
  0
ARC
  5
4E84
  8
0
 10
1180.8719871304829212
 20
74.8962444455467988
 30
0.0
 40
0.0561489397886329
 50
117.435759650149194
 51
172.8180973694896068
  0
ARC
  5
4E85
  8
0
 10
1180.8993949964990406
 20
74.8570148479204391
 30
0.0
 40
0.1037829521257956
 50
105.4531142540393063
 51
120.8883400439132032
  0
ARC
  5
4E86
  8
0
 10
1181.4896653722450992
 20
72.0630141573034422
 30
0.0
 40
2.9592649572447121
 50
96.6489257159805959
 51
102.0526084937692985
  0
ARC
  5
4E87
  8
0
 10
1182.8511231041200062
 20
57.8062355937778776
 30
0.0
 40
17.2803700084273686
 50
94.4649783592661265
 51
95.6594003246624567
  0
ARC
  5
4E88
  8
0
 10
5150.9975438706587738
 20
-49462.5884417354900506
 30
0.0
 40
49696.4074906736423145
 50
94.5800002021473603
 51
94.5813705281504724
  0
ARC
  5
4E89
  8
0
 10
1172.5344560882128917
 20
74.3781097398213404
 30
0.0
 40
8.3080816512207392
 50
355.4433996020044901
 51
359.5349306811434076
  0
ARC
  5
4E8A
  8
0
 10
1180.8719871304840581
 20
73.725103269402311
 30
0.0
 40
0.0561489397886392
 50
187.1819026305032878
 51
242.5642403498229953
  0
ARC
  5
4E8B
  8
0
 10
1180.8993949964990406
 20
73.7643328670286706
 30
0.0
 40
0.1037829521257956
 50
239.111659956086811
 51
254.5468857459607079
  0
ARC
  5
4E8C
  8
0
 10
1181.4896653722450992
 20
76.5583335576456676
 30
0.0
 40
2.9592649572447121
 50
257.9473915062307015
 51
263.3510742840193757
  0
ARC
  5
4E8D
  8
0
 10
1182.8511231041200062
 20
90.8151121211712251
 30
0.0
 40
17.2803700084273686
 50
264.3405996753376144
 51
265.5350216407207995
  0
ARC
  5
4E8E
  8
0
 10
5150.9975438706587738
 20
49611.2097894504186115
 30
0.0
 40
49696.4074906736423145
 50
265.4186294718494992
 51
265.4199997978525971
  0
ARC
  5
4E8F
  8
0
 10
1194.896801355469961
 20
74.2432379751271441
 30
0.0
 40
8.3080816512371065
 50
175.4433996020084976
 51
179.5349306811401107
  0
ARC
  5
4E90
  8
0
 10
1186.5592703131840153
 20
74.896244445546813
 30
0.0
 40
0.0561489397886
 50
7.1819026304758466
 51
62.5642403498500101
  0
ARC
  5
4E91
  8
0
 10
1186.5318624471678959
 20
74.8570148479204391
 30
0.0
 40
0.1037829521257956
 50
59.1116599560867968
 51
74.5468857459607364
  0
ARC
  5
4E92
  8
0
 10
1185.9415920714220647
 20
72.0630141573034422
 30
0.0
 40
2.9592649572447121
 50
77.9473915062306872
 51
83.3510742840194041
  0
ARC
  5
4E93
  8
0
 10
1184.5801343395469303
 20
57.8062355937778776
 30
0.0
 40
17.2803700084273686
 50
84.3405996753375433
 51
85.5350216407338877
  0
ARC
  5
4E94
  8
0
 10
-2783.5662864269929742
 20
-49462.5884417354900506
 30
0.0
 40
49696.4074906736423145
 50
85.4186294718494992
 51
85.4199997978526113
  0
ARC
  5
4E95
  8
0
 10
1194.896801355469961
 20
74.3781097398219941
 30
0.0
 40
8.3080816512374032
 50
180.4650693188598041
 51
184.5566003979907066
  0
ARC
  5
4E96
  8
0
 10
1186.5592703131840153
 20
73.7251032694022825
 30
0.0
 40
0.0561489397885855
 50
297.4357596501477019
 51
352.8180973695189095
  0
ARC
  5
4E97
  8
0
 10
1186.5318624471678959
 20
73.7643328670286706
 30
0.0
 40
0.1037829521257956
 50
285.4531142540392921
 51
300.8883400439132174
  0
ARC
  5
4E98
  8
0
 10
1185.9415920714220647
 20
76.5583335576456676
 30
0.0
 40
2.9592649572447121
 50
276.6489257159806243
 51
282.0526084937692985
  0
ARC
  5
4E99
  8
0
 10
1184.5801343395469303
 20
90.8151121211712251
 30
0.0
 40
17.2803700084273686
 50
274.4649783592661265
 51
275.6594003246494822
  0
ARC
  5
4E9A
  8
0
 10
-2783.5662864269929742
 20
49611.2097894504186115
 30
0.0
 40
49696.4074906736423145
 50
274.5800002021474029
 51
274.5813705281505008
  0
CIRCLE
  5
4E9C
  8
0
 10
1183.7156287218340367
 20
50.8502800718430521
 30
0.0
 40
0.0830100864
  0
CIRCLE
  5
4E9D
  8
0
 10
1183.7156287218340367
 20
73.800280071843062
 30
0.0
 40
0.0830100864
  0
CIRCLE
  5
4E9E
  8
0
 10
1183.7156287218340367
 20
96.7502800718430649
 30
0.0
 40
0.0830100864
  0
ENDSEC
  0
EOF
