  0
SECTION
  2
HEADER
  9
$ACADVER
  1
AC1009
  9
$INSBASE
 10
1189.4623532669429551
 20
16.2722405635526783
 30
0.0
  9
$EXTMIN
 10
1159.7748532669429551
 20
13.3728779549117291
 30
0.0
  9
$EXTMAX
 10
1219.149853266944092
 20
19.1716032949936093
 30
0.0
  9
$LIMMIN
 10
0.0
 20
0.0
  9
$LIMMAX
 10
11.6929133858000007
 20
8.2677165353999982
  9
$ORTHOMODE
 70
     1
  9
$REGENMODE
 70
     1
  9
$FILLMODE
 70
     1
  9
$QTEXTMODE
 70
     0
  9
$MIRRTEXT
 70
     0
  9
$DRAGMODE
 70
     2
  9
$LTSCALE
 40
0.6431102362
  9
$OSMODE
 70
  4095
  9
$ATTMODE
 70
     1
  9
$TEXTSIZE
 40
0.2
  9
$TRACEWID
 40
0.05
  9
$TEXTSTYLE
  7
STANDARD
  9
$CLAYER
  8
0
  9
$CELTYPE
  6
BYLAYER
  9
$CECOLOR
 62
   256
  9
$DIMSCALE
 40
1.0
  9
$DIMASZ
 40
0.1875
  9
$DIMEXO
 40
0.0625
  9
$DIMDLI
 40
0.4443307087
  9
$DIMRND
 40
0.0
  9
$DIMDLE
 40
0.0
  9
$DIMEXE
 40
0.125
  9
$DIMTP
 40
0.01
  9
$DIMTM
 40
0.01
  9
$DIMTXT
 40
2.0
  9
$DIMCEN
 40
0.1052362205
  9
$DIMTSZ
 40
0.0
  9
$DIMTOL
 70
     1
  9
$DIMLIM
 70
     0
  9
$DIMTIH
 70
     1
  9
$DIMTOH
 70
     1
  9
$DIMSE1
 70
     0
  9
$DIMSE2
 70
     0
  9
$DIMTAD
 70
     0
  9
$DIMZIN
 70
     0
  9
$DIMBLK
  1

  9
$DIMASO
 70
     1
  9
$DIMSHO
 70
     1
  9
$DIMPOST
  1
\X
  9
$DIMAPOST
  1

  9
$DIMALT
 70
     1
  9
$DIMALTD
 70
     2
  9
$DIMALTF
 40
25.3999999999999986
  9
$DIMLFAC
 40
1.0
  9
$DIMTOFL
 70
     0
  9
$DIMTVP
 40
0.0
  9
$DIMTIX
 70
     0
  9
$DIMSOXD
 70
     0
  9
$DIMSAH
 70
     0
  9
$DIMBLK1
  1

  9
$DIMBLK2
  1

  9
$DIMSTYLE
  2
STANDARD
  9
$DIMCLRD
 70
     0
  9
$DIMCLRE
 70
     0
  9
$DIMCLRT
 70
     0
  9
$DIMTFAC
 40
1.0
  9
$DIMGAP
 40
0.09
  9
$LUNITS
 70
     2
  9
$LUPREC
 70
     4
  9
$SKETCHINC
 40
0.1
  9
$FILLETRAD
 40
0.0
  9
$AUNITS
 70
     0
  9
$AUPREC
 70
     0
  9
$MENU
  1
.
  9
$ELEVATION
 40
0.0
  9
$PELEVATION
 40
0.0
  9
$THICKNESS
 40
0.0
  9
$LIMCHECK
 70
     0
  9
$BLIPMODE
 70
     0
  9
$CHAMFERA
 40
0.0
  9
$CHAMFERB
 40
0.0
  9
$SKPOLY
 70
     0
  9
$TDCREATE
 40
2458060.468368056230247
  9
$TDUPDATE
 40
2458726.8104629628360271
  9
$TDINDWG
 40
0.2592598958
  9
$TDUSRTIMER
 40
0.2592598958
  9
$USRTIMER
 70
     1
  9
$ANGBASE
 50
0.0
  9
$ANGDIR
 70
     0
  9
$PDMODE
 70
     0
  9
$PDSIZE
 40
0.3125
  9
$PLINEWID
 40
0.0
  9
$COORDS
 70
     1
  9
$SPLFRAME
 70
     0
  9
$SPLINETYPE
 70
     6
  9
$SPLINESEGS
 70
     8
  9
$ATTDIA
 70
     1
  9
$ATTREQ
 70
     1
  9
$HANDLING
 70
     1
  9
$HANDSEED
  5
4D02
  9
$SURFTAB1
 70
     6
  9
$SURFTAB2
 70
     6
  9
$SURFTYPE
 70
     6
  9
$SURFU
 70
     6
  9
$SURFV
 70
     6
  9
$UCSNAME
  2

  9
$UCSORG
 10
0.0
 20
0.0
 30
0.0
  9
$UCSXDIR
 10
1.0
 20
0.0
 30
0.0
  9
$UCSYDIR
 10
0.0
 20
1.0
 30
0.0
  9
$PUCSNAME
  2

  9
$PUCSORG
 10
0.0
 20
0.0
 30
0.0
  9
$PUCSXDIR
 10
1.0
 20
0.0
 30
0.0
  9
$PUCSYDIR
 10
0.0
 20
1.0
 30
0.0
  9
$USERI1
 70
     0
  9
$USERI2
 70
     0
  9
$USERI3
 70
     0
  9
$USERI4
 70
     0
  9
$USERI5
 70
     0
  9
$USERR1
 40
0.0
  9
$USERR2
 40
0.0
  9
$USERR3
 40
0.0
  9
$USERR4
 40
0.0
  9
$USERR5
 40
0.0
  9
$WORLDVIEW
 70
     1
  9
$SHADEDGE
 70
     3
  9
$SHADEDIF
 70
    70
  9
$TILEMODE
 70
     1
  9
$MAXACTVP
 70
    64
  9
$PLIMCHECK
 70
     0
  9
$PEXTMIN
 10
1.0000000000000000E+20
 20
1.0000000000000000E+20
 30
1.0000000000000000E+20
  9
$PEXTMAX
 10
-1.0000000000000000E+20
 20
-1.0000000000000000E+20
 30
-1.0000000000000000E+20
  9
$PLIMMIN
 10
0.0
 20
0.0
  9
$PLIMMAX
 10
12.0
 20
9.0
  9
$UNITMODE
 70
     0
  9
$VISRETAIN
 70
     1
  9
$PLINEGEN
 70
     0
  9
$PSLTSCALE
 70
     1
  0
ENDSEC
  0
SECTION
  2
TABLES
  0
TABLE
  2
VPORT
 70
     1
  0
VPORT
  2
*ACTIVE
 70
     0
 10
0.0
 20
0.0
 11
1.0
 21
1.0
 12
0.0
 22
0.0
 13
0.0
 23
0.0
 14
1.0
 24
1.0
 15
0.0
 25
0.0
 16
0.0
 26
0.0
 36
170.6023858726532865
 17
1189.46240234375
 27
16.2722411155700684
 37
0.0
 40
59.6908234762344065
 41
2.1433408577878099
 42
50.0
 43
0.0
 44
0.0
 50
0.0
 51
0.0
 71
     0
 72
   100
 73
     1
 74
     1
 75
     0
 76
     0
 77
     0
 78
     0
  0
ENDTAB
  0
TABLE
  2
LTYPE
 70
     2
  0
LTYPE
  2
CONTINUOUS
 70
     0
  3
Solid line
 72
    65
 73
     0
 40
0.0
  0
LTYPE
  2
PHANTOM2
 70
     0
  3
___ _ _ ___ _ _ ___ _ _ ___ _ _
 72
    65
 73
     6
 40
1.25
 49
0.625
 49
-0.125
 49
0.125
 49
-0.125
 49
0.125
 49
-0.125
  0
ENDTAB
  0
TABLE
  2
LAYER
 70
     2
  0
LAYER
  2
0
 70
     0
 62
   255
  6
CONTINUOUS
  0
LAYER
  2
DEFPOINTS
 70
     0
 62
     7
  6
CONTINUOUS
  0
ENDTAB
  0
TABLE
  2
STYLE
 70
     1
  0
STYLE
  2
STANDARD
 70
     0
 40
0.0
 41
0.8
 50
0.0
 71
     0
 42
0.2
  3
txt
  4

  0
ENDTAB
  0
TABLE
  2
VIEW
 70
     0
  0
ENDTAB
  0
TABLE
  2
UCS
 70
     0
  0
ENDTAB
  0
TABLE
  2
APPID
 70
     9
  0
APPID
  2
ACAD
 70
     0
  0
APPID
  2
ACAD_MLEADERVER
 70
     0
  0
APPID
  2
ACAD_EXEMPT_FROM_CAD_STANDARDS
 70
     0
  0
APPID
  2
ACAD_NAV_VCDISPLAY
 70
     0
  0
APPID
  2
ACAECLAYERSTANDARD
 70
     0
  0
APPID
  2
ACCMTRANSPARENCY
 70
     0
  0
APPID
  2
ACAD_DSTYLE_DIMJAG
 70
     0
  0
APPID
  2
ACAD_DSTYLE_DIMTALN
 70
     0
  0
APPID
  2
ACDBATTR
 70
     0
  0
ENDTAB
  0
TABLE
  2
DIMSTYLE
 70
     1
  0
DIMSTYLE
  2
STANDARD
 70
     0
  3

  4

  5

  6

  7

 40
1.0
 41
0.1875
 42
0.0625
 43
0.38
 44
0.125
 45
0.0
 46
0.0
 47
0.01
 48
0.01
140
0.15625
141
0.09
142
0.0
143
25.3999999999999986
144
1.0
145
0.0
146
1.0
147
0.09
 71
     1
 72
     0
 73
     1
 74
     1
 75
     0
 76
     0
 77
     0
 78
     4
170
     0
171
     2
172
     0
173
     0
174
     0
175
     0
176
     0
177
     0
178
     0
  0
ENDTAB
  0
ENDSEC
  0
SECTION
  2
BLOCKS
  0
BLOCK
  8
0
  2
$MODEL_SPACE
 70
     0
 10
0.0
 20
0.0
 30
0.0
  3
$MODEL_SPACE
  1

  0
ENDBLK
  5
21
  8
0
  0
BLOCK
 67
     1
  8
0
  2
$PAPER_SPACE
 70
     0
 10
0.0
 20
0.0
 30
0.0
  3
$PAPER_SPACE
  1

  0
ENDBLK
  5
1D
 67
     1
  8
0
  0
ENDSEC
  0
SECTION
  2
ENTITIES
  0
ATTDEF
  5
3930
  8
DEFPOINTS
 10
1189.4594499442171127
 20
16.2761844838582306
 30
0.0
 40
0.001
  1
581005-59*
  3

  2
MODELNUMBER
 70
     0
1001
ACDBATTR
1070
     0
1070
     1
  0
ATTDEF
  5
3931
  8
DEFPOINTS
 10
1189.4594499442171127
 20
16.2745178171915583
 30
0.0
 40
0.001
  1
MERITOR
  3

  2
TRADENAME
 70
     0
1001
ACDBATTR
1070
     0
1070
     1
  0
ATTDEF
  5
3932
  8
DEFPOINTS
 10
1189.4594499442171127
 20
16.2728511505249003
 30
0.0
 40
0.001
  1
SHOWER DOOR
  3

  2
PRODUCT
 70
     0
1001
ACDBATTR
1070
     0
1070
     1
  0
LINE
  5
4B9E
  8
0
 10
1219.149853266944092
 20
15.1842405635526596
 30
0.0
 11
1219.149853266944092
 21
17.3602405635526793
 31
0.0
  0
LINE
  5
4B9F
  8
0
 10
1159.7748532669429551
 20
15.1842405635526596
 30
0.0
 11
1159.7748532669429551
 21
17.3602405635526793
 31
0.0
  0
LINE
  5
4BA0
  8
0
 10
1163.1341468300429369
 20
15.1842405635526596
 30
0.0
 11
1163.3000868298429396
 21
14.0582303769526504
 31
0.0
  0
LINE
  5
4BA1
  8
0
 10
1164.284955254443048
 20
13.4193636699526397
 30
0.0
 11
1164.2849552546429095
 21
13.4463989064526608
 31
0.0
  0
LINE
  5
4BA2
  8
0
 10
1164.4459551153429402
 20
13.9537715227526409
 30
0.0
 11
1164.4459598967439433
 21
13.9749133943526491
 31
0.0
  0
LINE
  5
4BA3
  8
0
 10
1163.8834931195428908
 20
14.2481093311526497
 30
0.0
 11
1163.8837950705431012
 21
15.1842405635526596
 31
0.0
  0
LINE
  5
4BA4
  8
0
 10
1164.2529813303399351
 20
13.3810318911419603
 30
0.0
 11
1164.2822661944439915
 21
13.4125397998526505
 31
0.0
  0
LINE
  5
4BA5
  8
0
 10
1164.4270022365410568
 20
13.9948858040167501
 30
0.0
 11
1164.0353424532429472
 21
14.0164133137526505
 31
0.0
  0
LINE
  5
4BA6
  8
0
 10
1164.2849552545580991
 20
13.4348918825274097
 30
0.0
 11
1186.6612512733290714
 21
13.4348917619778891
 31
0.0
  0
LINE
  5
4BA7
  8
0
 10
1164.4454386240620352
 20
13.9349333865191003
 30
0.0
 11
1186.5007679049761009
 21
13.9349332677902797
 31
0.0
  0
LINE
  5
4BA8
  8
0
 10
1219.149853266944092
 20
15.1842405635526596
 30
0.0
 11
1159.7748532669429551
 21
15.1842405635526596
 31
0.0
  0
LINE
  5
4BA9
  8
0
 10
1159.7748532669429551
 20
15.3342405635526706
 30
0.0
 11
1219.149853266944092
 21
15.3342405635526706
 31
0.0
  0
LINE
  5
4BAA
  8
0
 10
1159.7748532669429551
 20
17.2102405635526416
 30
0.0
 11
1219.149853266944092
 21
17.2102405635526416
 31
0.0
  0
LINE
  5
4BAB
  8
0
 10
1159.7748532669429551
 20
17.3602405635526793
 30
0.0
 11
1219.149853266944092
 21
17.3602405635526793
 31
0.0
  0
ARC
  5
4BAC
  8
0
 10
1164.4259501757769613
 20
13.9749037572203694
 30
0.0
 40
0.0200097232870689
 50
0.0275949357457906
 51
86.9861428054409487
  0
ARC
  5
4BAD
  8
0
 10
1169.5392289460949087
 20
14.9430486738306207
 30
0.0
 40
6.301571055282257
 50
188.071706907005904
 51
189.992841383896689
  0
ARC
  5
4BAE
  8
0
 10
1164.6081798080510907
 20
14.1005172833673402
 30
0.0
 40
1.2993866920249619
 50
191.1354597191902087
 51
198.4502547779927966
  0
ARC
  5
4BAF
  8
0
 10
1163.7691029949019139
 20
13.8092322466653101
 30
0.0
 40
0.4113939646727224
 50
196.9514292977409013
 51
269.1353651432880838
  0
ARC
  5
4BB0
  8
0
 10
1165.1046411392169375
 20
36.1444352841243202
 30
0.0
 40
22.7860884505173615
 50
266.624217126159806
 51
267.2259191939597258
  0
ARC
  5
4BB1
  8
0
 10
1188.2045872826149662
 20
475.6510505321637083
 30
0.0
 40
462.8991563938877221
 50
267.002915740089577
 51
267.0316176059271243
  0
ARC
  5
4BB2
  8
0
 10
1164.2355898804469234
 20
13.3955019487099491
 30
0.0
 40
0.0226239937982181
 50
264.4788258575381974
 51
320.2388209162473913
  0
ARC
  5
4BB3
  8
0
 10
1164.2709847526718931
 20
13.4209272099855905
 30
0.0
 40
0.0140577230438872
 50
323.3703154203541885
 51
353.6141876479455846
  0
ARC
  5
4BB4
  8
0
 10
1164.7548571455608908
 20
13.4465435561617692
 30
0.0
 40
0.4699019131819925
 50
175.4788520081617946
 51
180.017637336084988
  0
ARC
  5
4BB5
  8
0
 10
1165.5530063188471104
 20
13.2878252386577707
 30
0.0
 40
1.28162753337302
 50
149.911547402216712
 51
171.2140941314206088
  0
ARC
  5
4BB6
  8
0
 10
1164.4369193703519159
 20
13.9349753113648909
 30
0.0
 40
0.0085193563041457
 50
327.1313280495725166
 51
359.7179665680976086
  0
ARC
  5
4BB7
  8
0
 10
1164.1316788826079573
 20
13.9529619874742501
 30
0.0
 40
0.3142772753629299
 50
356.7114047816564266
 51
0.1475862550285902
  0
ARC
  5
4BB8
  8
0
 10
1164.058577199471074
 20
14.1888318725706295
 30
0.0
 40
0.1739770469261444
 50
198.0585768015999975
 51
262.3251811394699189
  0
ARC
  5
4BB9
  8
0
 10
1164.549256364078019
 20
14.2480013377212007
 30
0.0
 40
0.6657632532930667
 50
179.9907060537913139
 51
189.7808945726966101
  0
LINE
  5
4BBA
  8
0
 10
1187.8120596978430967
 20
15.1842405635526596
 30
0.0
 11
1187.6461196980430941
 21
14.0582303769526504
 31
0.0
  0
LINE
  5
4BBB
  8
0
 10
1186.6612512734429856
 20
13.4193636699526397
 30
0.0
 11
1186.6612512732428968
 21
13.4463989064526608
 31
0.0
  0
LINE
  5
4BBC
  8
0
 10
1186.5002514125430935
 20
13.9537715227526409
 30
0.0
 11
1186.5002466311429998
 21
13.9749133943526491
 31
0.0
  0
LINE
  5
4BBD
  8
0
 10
1187.0627134083440524
 20
14.2481093311526497
 30
0.0
 11
1187.0624114573429324
 21
15.1842405635526596
 31
0.0
  0
LINE
  5
4BBE
  8
0
 10
1186.6932251975470081
 20
13.3810318911419603
 30
0.0
 11
1186.6639403334440885
 21
13.4125397998526505
 31
0.0
  0
LINE
  5
4BBF
  8
0
 10
1186.5192042913449768
 20
13.9948858040167501
 30
0.0
 11
1186.9108640746430865
 21
14.0164133137526505
 31
0.0
  0
ARC
  5
4BC0
  8
0
 10
1186.5202563521099819
 20
13.9749037572203694
 30
0.0
 40
0.0200097232870689
 50
93.0138571945590371
 51
179.9724050642541897
  0
ARC
  5
4BC1
  8
0
 10
1181.4069775817908976
 20
14.9430486738306207
 30
0.0
 40
6.301571055282257
 50
350.0071586161025152
 51
351.9282930929940107
  0
ARC
  5
4BC2
  8
0
 10
1186.3380267198360798
 20
14.1005172833673402
 30
0.0
 40
1.2993866920249619
 50
341.5497452220063792
 51
348.8645402808090239
  0
ARC
  5
4BC3
  8
0
 10
1187.1771035329850292
 20
13.8092322466653101
 30
0.0
 40
0.4113939646727224
 50
270.8646348567118025
 51
343.0485707022590987
  0
ARC
  5
4BC4
  8
0
 10
1185.8415653886700056
 20
36.1444352841243202
 30
0.0
 40
22.7860884505173615
 50
272.7740808060402173
 51
273.3757828738271769
  0
ARC
  5
4BC5
  8
0
 10
1162.741619245271977
 20
475.6510505321637083
 30
0.0
 40
462.8991563938877221
 50
272.9683823940728189
 51
272.997084259910423
  0
ARC
  5
4BC6
  8
0
 10
1186.7106166474400197
 20
13.3955019487099491
 30
0.0
 40
0.0226239937982181
 50
219.7611790837526087
 51
275.5211741424618026
  0
ARC
  5
4BC7
  8
0
 10
1186.67522177521505
 20
13.4209272099855905
 30
0.0
 40
0.0140577230438872
 50
186.3858123520535059
 51
216.6296845796458115
  0
ARC
  5
4BC8
  8
0
 10
1186.1913493823249155
 20
13.4465435561617692
 30
0.0
 40
0.4699019131819925
 50
359.9823626639141025
 51
4.5211479918382373
  0
ARC
  5
4BC9
  8
0
 10
1185.3932002090389233
 20
13.2878252386577707
 30
0.0
 40
1.28162753337302
 50
8.7859058685793983
 51
30.0884525977832418
  0
ARC
  5
4BCA
  8
0
 10
1186.5092871575350273
 20
13.9349753113648909
 30
0.0
 40
0.0085193563041457
 50
180.2820334319015956
 51
212.8686719504275118
  0
ARC
  5
4BCB
  8
0
 10
1186.8145276452789858
 20
13.9529619874742501
 30
0.0
 40
0.3142772753629299
 50
179.8524137449713862
 51
183.2885952183426923
  0
ARC
  5
4BCC
  8
0
 10
1186.8876293284149597
 20
14.1888318725706295
 30
0.0
 40
0.1739770469261444
 50
277.6748188605300243
 51
341.9414231984000025
  0
ARC
  5
4BCD
  8
0
 10
1186.3969501638089241
 20
14.2480013377212007
 30
0.0
 40
0.6657632532930667
 50
350.2191054273030204
 51
0.0092939462086294
  0
LINE
  5
4BCE
  8
0
 10
1191.1126472218429626
 20
17.3602406863526788
 30
0.0
 11
1191.2785872216441021
 21
18.4862508729526915
 31
0.0
  0
LINE
  5
4BCF
  8
0
 10
1192.2634556462430737
 20
19.1251175799527005
 30
0.0
 11
1192.2634556464429352
 21
19.0980823434526883
 31
0.0
  0
LINE
  5
4BD0
  8
0
 10
1192.4244555071429659
 20
18.5907097271526993
 30
0.0
 11
1192.424460288543969
 21
18.5695678555526911
 31
0.0
  0
LINE
  5
4BD1
  8
0
 10
1191.8619935113429165
 20
18.2963719187527012
 30
0.0
 11
1191.8622954623428996
 21
17.3602406863526788
 31
0.0
  0
LINE
  5
4BD2
  8
0
 10
1192.2314817221399608
 20
19.1634493587633798
 30
0.0
 11
1192.2607665862440172
 21
19.1319414500526896
 31
0.0
  0
LINE
  5
4BD3
  8
0
 10
1192.4055026283410825
 20
18.549595445888599
 30
0.0
 11
1192.0138428450429728
 21
18.5280679361526914
 31
0.0
  0
LINE
  5
4BD4
  8
0
 10
1192.2634556463578974
 20
19.1095893673779287
 30
0.0
 11
1214.6397516651290971
 21
19.109589487927451
 31
0.0
  0
LINE
  5
4BD5
  8
0
 10
1192.4239390158620608
 20
18.6095478633862399
 30
0.0
 11
1214.4792682967758992
 21
18.6095479821150604
 31
0.0
  0
ARC
  5
4BD6
  8
0
 10
1192.4044505675769869
 20
18.5695774926849708
 30
0.0
 40
0.0200097232870689
 50
273.0138571945590229
 51
359.9724050642541897
  0
ARC
  5
4BD7
  8
0
 10
1197.5177293378960712
 20
17.6014325760747283
 30
0.0
 40
6.301571055282257
 50
170.007158616103311
 51
171.9282930929940107
  0
ARC
  5
4BD8
  8
0
 10
1192.586680199850889
 20
18.4439639665380106
 30
0.0
 40
1.2993866920249619
 50
161.5497452220070898
 51
168.8645402808089955
  0
ARC
  5
4BD9
  8
0
 10
1191.7476033867019396
 20
18.7352490032400283
 30
0.0
 40
0.4113939646727224
 50
90.8646348567118451
 51
163.0485707022590987
  0
ARC
  5
4BDA
  8
0
 10
1193.0831415310169632
 20
-3.5999540342189671
 30
0.0
 40
22.7860884505173615
 50
92.7740808060402742
 51
93.3757828738402083
  0
ARC
  5
4BDB
  8
0
 10
1216.1830876744149919
 20
-443.106569282258306
 30
0.0
 40
462.8991563938877221
 50
92.9683823940728757
 51
92.9970842599104657
  0
ARC
  5
4BDC
  8
0
 10
1192.2140902722469491
 20
19.1489793011953893
 30
0.0
 40
0.0226239937982181
 50
39.7611790837526229
 51
95.5211741424618168
  0
ARC
  5
4BDD
  8
0
 10
1192.2494851444719188
 20
19.1235540399197497
 30
0.0
 40
0.0140577230438872
 50
6.3858123520543746
 51
36.6296845796457973
  0
ARC
  5
4BDE
  8
0
 10
1192.7333575373609165
 20
19.097937693743571
 30
0.0
 40
0.4699019131819925
 50
179.9823626639148983
 51
184.5211479918382054
  0
ARC
  5
4BDF
  8
0
 10
1193.5315067106469087
 20
19.2566560112475713
 30
0.0
 40
1.28162753337302
 50
188.7859058685793912
 51
210.0884525977832027
  0
ARC
  5
4BE0
  8
0
 10
1192.4154197621519415
 20
18.6095059385404511
 30
0.0
 40
0.0085193563041457
 50
0.2820334319024509
 51
32.8686719504275118
  0
ARC
  5
4BE1
  8
0
 10
1192.110179274407983
 20
18.5915192624310883
 30
0.0
 40
0.3142772753629299
 50
359.8524137449713862
 51
3.2885952183435689
  0
ARC
  5
4BE2
  8
0
 10
1192.0370775912710997
 20
18.3556493773347107
 30
0.0
 40
0.1739770469261444
 50
97.674818860530138
 51
161.9414231983998889
  0
ARC
  5
4BE3
  8
0
 10
1192.5277567558780447
 20
18.2964799121841395
 30
0.0
 40
0.6657632532930667
 50
170.2191054273029067
 51
180.0092939462086008
  0
LINE
  5
4BE4
  8
0
 10
1215.7905600896440319
 20
17.3602406863526788
 30
0.0
 11
1215.6246200898428924
 21
18.4862508729526915
 31
0.0
  0
LINE
  5
4BE5
  8
0
 10
1214.6397516652439208
 20
19.1251175799527005
 30
0.0
 11
1214.6397516650440593
 21
19.0980823434526883
 31
0.0
  0
LINE
  5
4BE6
  8
0
 10
1214.4787518043440286
 20
18.5907097271526993
 30
0.0
 11
1214.4787470229430255
 21
18.5695678555526911
 31
0.0
  0
LINE
  5
4BE7
  8
0
 10
1215.041213800144078
 20
18.2963719187527012
 30
0.0
 11
1215.040911849144095
 21
17.3602406863526788
 31
0.0
  0
LINE
  5
4BE8
  8
0
 10
1214.6717255893470337
 20
19.1634493587633798
 30
0.0
 11
1214.6424407252438868
 21
19.1319414500526896
 31
0.0
  0
LINE
  5
4BE9
  8
0
 10
1214.4977046831450025
 20
18.549595445888599
 30
0.0
 11
1214.8893644664440217
 21
18.5280679361526914
 31
0.0
  0
ARC
  5
4BEA
  8
0
 10
1214.4987567439100076
 20
18.5695774926849708
 30
0.0
 40
0.0200097232870689
 50
180.0275949357456966
 51
266.9861428054409771
  0
ARC
  5
4BEB
  8
0
 10
1209.3854779735909233
 20
17.6014325760747283
 30
0.0
 40
6.301571055282257
 50
8.0717069070059804
 51
9.9928413838975061
  0
ARC
  5
4BEC
  8
0
 10
1214.3165271116361055
 20
18.4439639665380106
 30
0.0
 40
1.2993866920249619
 50
11.1354597191901803
 51
18.4502547779928605
  0
ARC
  5
4BED
  8
0
 10
1215.1556039247850549
 20
18.7352490032400283
 30
0.0
 40
0.4113939646727224
 50
16.9514292977409013
 51
89.1353651432881549
  0
ARC
  5
4BEE
  8
0
 10
1213.8200657804700313
 20
-3.5999540342189671
 30
0.0
 40
22.7860884505173615
 50
86.6242171261597775
 51
87.2259191939597542
  0
ARC
  5
4BEF
  8
0
 10
1190.7201196370720027
 20
-443.106569282258306
 30
0.0
 40
462.8991563938877221
 50
87.0029157400895343
 51
87.0316176059271243
  0
ARC
  5
4BF0
  8
0
 10
1214.6891170392400454
 20
19.1489793011953893
 30
0.0
 40
0.0226239937982181
 50
84.4788258575381832
 51
140.2388209162473913
  0
ARC
  5
4BF1
  8
0
 10
1214.6537221670150757
 20
19.1235540399197497
 30
0.0
 40
0.0140577230438872
 50
143.3703154203541885
 51
173.6141876479464088
  0
ARC
  5
4BF2
  8
0
 10
1214.1698497741249412
 20
19.097937693743571
 30
0.0
 40
0.4699019131819925
 50
355.4788520081618231
 51
0.0176373360858814
  0
ARC
  5
4BF3
  8
0
 10
1213.371700600838949
 20
19.2566560112475713
 30
0.0
 40
1.28162753337302
 50
329.9115474022167973
 51
351.2140941314206088
  0
ARC
  5
4BF4
  8
0
 10
1214.487787549335053
 20
18.6095059385404511
 30
0.0
 40
0.0085193563041457
 50
147.1313280495724882
 51
179.7179665680982907
  0
ARC
  5
4BF5
  8
0
 10
1214.7930280370790115
 20
18.5915192624310883
 30
0.0
 40
0.3142772753629299
 50
176.711404781657194
 51
180.1475862550286138
  0
ARC
  5
4BF6
  8
0
 10
1214.8661297202149854
 20
18.3556493773347107
 30
0.0
 40
0.1739770469261444
 50
18.0585768016000685
 51
82.3251811394699757
  0
ARC
  5
4BF7
  8
0
 10
1214.3754505556089498
 20
18.2964799121841395
 30
0.0
 40
0.6657632532930667
 50
359.9907060537914276
 51
9.7808945726974734
  0
ENDSEC
  0
EOF
