  0
SECTION
  2
HEADER
  9
$ACADVER
  1
AC1009
  9
$INSBASE
 10
3814.4055705093592223
 20
198.1024229180607961
 30
0.0
  9
$EXTMIN
 10
3789.9993205093592223
 20
195.2431897328106913
 30
0.0
  9
$EXTMAX
 10
3838.8743205093592223
 20
199.2510559295106987
 30
0.0
  9
$LIMMIN
 10
0.0
 20
0.0
  9
$LIMMAX
 10
11.6929133858000007
 20
8.2677165353999982
  9
$ORTHOMODE
 70
     1
  9
$REGENMODE
 70
     1
  9
$FILLMODE
 70
     1
  9
$QTEXTMODE
 70
     0
  9
$MIRRTEXT
 70
     0
  9
$DRAGMODE
 70
     2
  9
$LTSCALE
 40
0.6431102362
  9
$OSMODE
 70
  4095
  9
$ATTMODE
 70
     1
  9
$TEXTSIZE
 40
0.2
  9
$TRACEWID
 40
0.05
  9
$TEXTSTYLE
  7
STANDARD
  9
$CLAYER
  8
0
  9
$CELTYPE
  6
BYLAYER
  9
$CECOLOR
 62
   256
  9
$DIMSCALE
 40
1.0
  9
$DIMASZ
 40
0.1875
  9
$DIMEXO
 40
0.0625
  9
$DIMDLI
 40
0.4443307087
  9
$DIMRND
 40
0.0
  9
$DIMDLE
 40
0.0
  9
$DIMEXE
 40
0.125
  9
$DIMTP
 40
0.01
  9
$DIMTM
 40
0.01
  9
$DIMTXT
 40
2.0
  9
$DIMCEN
 40
0.1052362205
  9
$DIMTSZ
 40
0.0
  9
$DIMTOL
 70
     1
  9
$DIMLIM
 70
     0
  9
$DIMTIH
 70
     1
  9
$DIMTOH
 70
     1
  9
$DIMSE1
 70
     0
  9
$DIMSE2
 70
     0
  9
$DIMTAD
 70
     0
  9
$DIMZIN
 70
     0
  9
$DIMBLK
  1

  9
$DIMASO
 70
     1
  9
$DIMSHO
 70
     1
  9
$DIMPOST
  1
\X
  9
$DIMAPOST
  1

  9
$DIMALT
 70
     1
  9
$DIMALTD
 70
     2
  9
$DIMALTF
 40
25.3999999999999986
  9
$DIMLFAC
 40
1.0
  9
$DIMTOFL
 70
     0
  9
$DIMTVP
 40
0.0
  9
$DIMTIX
 70
     0
  9
$DIMSOXD
 70
     0
  9
$DIMSAH
 70
     0
  9
$DIMBLK1
  1

  9
$DIMBLK2
  1

  9
$DIMSTYLE
  2
STANDARD
  9
$DIMCLRD
 70
     0
  9
$DIMCLRE
 70
     0
  9
$DIMCLRT
 70
     0
  9
$DIMTFAC
 40
1.0
  9
$DIMGAP
 40
0.09
  9
$LUNITS
 70
     2
  9
$LUPREC
 70
     4
  9
$SKETCHINC
 40
0.1
  9
$FILLETRAD
 40
0.0
  9
$AUNITS
 70
     0
  9
$AUPREC
 70
     0
  9
$MENU
  1
.
  9
$ELEVATION
 40
0.0
  9
$PELEVATION
 40
0.0
  9
$THICKNESS
 40
0.0
  9
$LIMCHECK
 70
     0
  9
$BLIPMODE
 70
     0
  9
$CHAMFERA
 40
0.0
  9
$CHAMFERB
 40
0.0
  9
$SKPOLY
 70
     0
  9
$TDCREATE
 40
2458060.468368056230247
  9
$TDUPDATE
 40
2459804.9887268519960344
  9
$TDINDWG
 40
0.3758519676
  9
$TDUSRTIMER
 40
0.3758519676
  9
$USRTIMER
 70
     1
  9
$ANGBASE
 50
0.0
  9
$ANGDIR
 70
     0
  9
$PDMODE
 70
     0
  9
$PDSIZE
 40
0.3125
  9
$PLINEWID
 40
0.0
  9
$COORDS
 70
     1
  9
$SPLFRAME
 70
     0
  9
$SPLINETYPE
 70
     6
  9
$SPLINESEGS
 70
     8
  9
$ATTDIA
 70
     1
  9
$ATTREQ
 70
     1
  9
$HANDLING
 70
     1
  9
$HANDSEED
  5
8AF8
  9
$SURFTAB1
 70
     6
  9
$SURFTAB2
 70
     6
  9
$SURFTYPE
 70
     6
  9
$SURFU
 70
     6
  9
$SURFV
 70
     6
  9
$UCSNAME
  2

  9
$UCSORG
 10
0.0
 20
0.0
 30
0.0
  9
$UCSXDIR
 10
1.0
 20
0.0
 30
0.0
  9
$UCSYDIR
 10
0.0
 20
1.0
 30
0.0
  9
$PUCSNAME
  2

  9
$PUCSORG
 10
0.0
 20
0.0
 30
0.0
  9
$PUCSXDIR
 10
1.0
 20
0.0
 30
0.0
  9
$PUCSYDIR
 10
0.0
 20
1.0
 30
0.0
  9
$USERI1
 70
     0
  9
$USERI2
 70
     0
  9
$USERI3
 70
     0
  9
$USERI4
 70
     0
  9
$USERI5
 70
     0
  9
$USERR1
 40
0.0
  9
$USERR2
 40
0.0
  9
$USERR3
 40
0.0
  9
$USERR4
 40
0.0
  9
$USERR5
 40
0.0
  9
$WORLDVIEW
 70
     1
  9
$SHADEDGE
 70
     3
  9
$SHADEDIF
 70
    70
  9
$TILEMODE
 70
     1
  9
$MAXACTVP
 70
    64
  9
$PLIMCHECK
 70
     0
  9
$PEXTMIN
 10
1.0000000000000000E+20
 20
1.0000000000000000E+20
 30
1.0000000000000000E+20
  9
$PEXTMAX
 10
-1.0000000000000000E+20
 20
-1.0000000000000000E+20
 30
-1.0000000000000000E+20
  9
$PLIMMIN
 10
0.0
 20
0.0
  9
$PLIMMAX
 10
12.0
 20
9.0
  9
$UNITMODE
 70
     0
  9
$VISRETAIN
 70
     1
  9
$PLINEGEN
 70
     0
  9
$PSLTSCALE
 70
     1
  0
ENDSEC
  0
SECTION
  2
TABLES
  0
TABLE
  2
VPORT
 70
     1
  0
VPORT
  2
*ACTIVE
 70
     0
 10
0.0
 20
0.0
 11
1.0
 21
1.0
 12
0.0
 22
0.0
 13
0.0
 23
0.0
 14
1.0
 24
1.0
 15
0.0
 25
0.0
 16
0.0
 26
0.0
 36
140.9061002561296903
 17
3814.4367675781259095
 27
197.2471237182616903
 37
0.0
 40
49.0597992038704476
 41
2.156179775280898
 42
50.0
 43
0.0
 44
0.0
 50
0.0
 51
0.0
 71
     0
 72
   100
 73
     1
 74
     1
 75
     0
 76
     0
 77
     0
 78
     0
  0
ENDTAB
  0
TABLE
  2
LTYPE
 70
     2
  0
LTYPE
  2
CONTINUOUS
 70
     0
  3
Solid line
 72
    65
 73
     0
 40
0.0
  0
LTYPE
  2
PHANTOM2
 70
     0
  3
___ _ _ ___ _ _ ___ _ _ ___ _ _
 72
    65
 73
     6
 40
1.25
 49
0.625
 49
-0.125
 49
0.125
 49
-0.125
 49
0.125
 49
-0.125
  0
ENDTAB
  0
TABLE
  2
LAYER
 70
     2
  0
LAYER
  2
0
 70
     0
 62
   255
  6
CONTINUOUS
  0
LAYER
  2
DEFPOINTS
 70
     0
 62
     7
  6
CONTINUOUS
  0
ENDTAB
  0
TABLE
  2
STYLE
 70
     1
  0
STYLE
  2
STANDARD
 70
     0
 40
0.0
 41
0.8
 50
0.0
 71
     0
 42
0.2
  3
txt
  4

  0
ENDTAB
  0
TABLE
  2
VIEW
 70
     0
  0
ENDTAB
  0
TABLE
  2
UCS
 70
     0
  0
ENDTAB
  0
TABLE
  2
APPID
 70
     9
  0
APPID
  2
ACAD
 70
     0
  0
APPID
  2
ACAD_MLEADERVER
 70
     0
  0
APPID
  2
ACAD_EXEMPT_FROM_CAD_STANDARDS
 70
     0
  0
APPID
  2
ACAD_NAV_VCDISPLAY
 70
     0
  0
APPID
  2
ACAECLAYERSTANDARD
 70
     0
  0
APPID
  2
ACCMTRANSPARENCY
 70
     0
  0
APPID
  2
ACAD_DSTYLE_DIMJAG
 70
     0
  0
APPID
  2
ACAD_DSTYLE_DIMTALN
 70
     0
  0
APPID
  2
ACDBATTR
 70
     0
  0
ENDTAB
  0
TABLE
  2
DIMSTYLE
 70
     1
  0
DIMSTYLE
  2
STANDARD
 70
     0
  3

  4

  5

  6

  7

 40
1.0
 41
0.1875
 42
0.0625
 43
0.38
 44
0.125
 45
0.0
 46
0.0
 47
0.01
 48
0.01
140
0.15625
141
0.09
142
0.0
143
25.3999999999999986
144
1.0
145
0.0
146
1.0
147
0.09
 71
     1
 72
     0
 73
     1
 74
     1
 75
     0
 76
     0
 77
     0
 78
     4
170
     0
171
     2
172
     0
173
     0
174
     0
175
     0
176
     0
177
     0
178
     0
  0
ENDTAB
  0
ENDSEC
  0
SECTION
  2
BLOCKS
  0
BLOCK
  8
0
  2
$MODEL_SPACE
 70
     0
 10
0.0
 20
0.0
 30
0.0
  3
$MODEL_SPACE
  1

  0
ENDBLK
  5
21
  8
0
  0
BLOCK
 67
     1
  8
0
  2
$PAPER_SPACE
 70
     0
 10
0.0
 20
0.0
 30
0.0
  3
$PAPER_SPACE
  1

  0
ENDBLK
  5
1D
 67
     1
  8
0
  0
ENDSEC
  0
SECTION
  2
ENTITIES
  0
ATTDEF
  5
8740
  8
DEFPOINTS
 10
3814.4061937798092004
 20
198.1069365265740885
 30
0.0
 40
0.001
  1
572116-G10
  3

  2
MODELNUMBER
 70
     0
1001
ACDBATTR
1070
     0
1070
     1
  0
ATTDEF
  5
8741
  8
DEFPOINTS
 10
3814.4061937798092004
 20
198.1052698599075086
 30
0.0
 40
0.001
  1

  3

  2
TRADENAME
 70
     0
1001
ACDBATTR
1070
     0
1070
     1
  0
ATTDEF
  5
8742
  8
DEFPOINTS
 10
3814.4061937798092004
 20
198.1036031932407866
 30
0.0
 40
0.001
  1
SHOWER DOOR
  3

  2
PRODUCT
 70
     0
1001
ACDBATTR
1070
     0
1070
     1
  0
LINE
  5
8982
  8
0
 10
3789.9993205093592223
 20
196.9240559295107005
 30
0.0
 11
3789.9993205093592223
 21
199.2510559295106987
 31
0.0
  0
LINE
  5
8983
  8
0
 10
3838.8743205093592223
 20
196.9240559295107005
 30
0.0
 11
3838.8743205093592223
 21
199.2510559295106987
 31
0.0
  0
LINE
  5
8984
  8
0
 10
3789.9993205093592223
 20
199.2510559295106987
 30
0.0
 11
3838.8743205093592223
 21
199.2510559295106987
 31
0.0
  0
LINE
  5
8985
  8
0
 10
3789.9993205093592223
 20
196.9240559295107005
 30
0.0
 11
3838.8743205093592223
 21
196.9240559295107005
 31
0.0
  0
LINE
  5
8986
  8
0
 10
3789.9993205093592223
 20
197.1415896926106939
 30
0.0
 11
3838.8743205093592223
 21
197.1415896926106939
 31
0.0
  0
ARC
  5
8987
  8
0
 10
3792.657628181443215
 20
197.22944761779911
 30
0.0
 40
1.500330451012704
 50
191.744608155887704
 51
207.2648825804022863
  0
ARC
  5
8988
  8
0
 10
3790.6572577965571327
 20
196.1985316582218957
 30
0.0
 40
0.7500627129568601
 50
0.0011618680397964
 51
27.2648825804023005
  0
LINE
  5
8989
  8
0
 10
3791.4073205093591241
 20
196.1985468683107001
 30
0.0
 11
3791.4073371489957935
 21
195.3779881576793969
 31
0.0
  0
ARC
  5
898A
  8
0
 10
3791.5323403774350481
 20
195.3779906925477121
 30
0.0
 40
0.1250032284645725
 50
180.0011618680397874
 51
267.9909395133179828
  0
LINE
  5
898B
  8
0
 10
3791.5279580723458821
 20
195.2530643041077099
 30
0.0
 11
3791.5880859859657903
 21
195.2509550711012878
 31
0.0
  0
ARC
  5
898C
  8
0
 10
3792.3448520122137779
 20
197.1148101832430086
 30
0.0
 40
0.6676443766579943
 50
196.6014347541882898
 51
210.8177040516038119
  0
ARC
  5
898D
  8
0
 10
3790.5934876464689296
 20
196.1909166031194047
 30
0.0
 40
1.313855019610908
 50
0.3327493848651523
 51
26.2865043035732491
  0
LINE
  5
898E
  8
0
 10
3791.9073205093591241
 20
196.1985468683107001
 30
0.0
 11
3791.9073205093591241
 21
195.8561764487106984
 31
0.0
  0
ARC
  5
898F
  8
0
 10
3791.8837247057022068
 20
195.8595682199812131
 30
0.0
 40
0.0238377320240804
 50
293.865599949884313
 51
351.8301035983220117
  0
ARC
  5
8990
  8
0
 10
3791.7818430972879469
 20
196.0431169439904977
 30
0.0
 40
0.2336792589364382
 50
271.1867666892160855
 51
298.5067165563406206
  0
LINE
  5
8991
  8
0
 10
3791.7866829464592229
 20
195.8094878107106922
 30
0.0
 11
3791.6571947281508983
 21
195.802872064661301
 31
0.0
  0
LINE
  5
8992
  8
0
 10
3791.6573205093591241
 20
195.4480468683107119
 30
0.0
 11
3791.6573205093591241
 21
195.8028784910106879
 31
0.0
  0
LINE
  5
8993
  8
0
 10
3791.5880863187589966
 20
195.2431897328106913
 30
0.0
 11
3791.5880863187589966
 21
195.4480468683107119
 31
0.0
  0
LINE
  5
8994
  8
0
 10
3791.5880863187589966
 20
195.4480468683107119
 30
0.0
 11
3813.7760863187590985
 21
195.4480468683107119
 31
0.0
  0
LINE
  5
8995
  8
0
 10
3791.5880863187589966
 20
195.2431897328106913
 30
0.0
 11
3813.7760863187590985
 21
195.2431897328106913
 31
0.0
  0
LINE
  5
8996
  8
0
 10
3791.8512885945060589
 20
195.8199951858107113
 30
0.0
 11
3813.5128840430138553
 21
195.8199951858107113
 31
0.0
  0
LINE
  5
8997
  8
0
 10
3791.9073205093591241
 20
195.9031897328106879
 30
0.0
 11
3813.4568521281598805
 21
195.9031897328106879
 31
0.0
  0
ARC
  5
8998
  8
0
 10
3812.7065444560757896
 20
197.22944761779911
 30
0.0
 40
1.500330451012704
 50
332.7351174195976
 51
348.2553918441121823
  0
ARC
  5
8999
  8
0
 10
3814.706914840961872
 20
196.1985316582218957
 30
0.0
 40
0.7500627129568601
 50
152.7351174195977137
 51
179.9988381319602126
  0
LINE
  5
899A
  8
0
 10
3813.9568521281598805
 20
196.1985468683107001
 30
0.0
 11
3813.9568354885232111
 21
195.3779881576793969
 31
0.0
  0
ARC
  5
899B
  8
0
 10
3813.8318322600839565
 20
195.3779906925477121
 30
0.0
 40
0.1250032284645725
 50
272.0090604866820172
 51
359.998838131960099
  0
LINE
  5
899C
  8
0
 10
3813.8362145651731225
 20
195.2530643041077099
 30
0.0
 11
3813.7760866515532143
 21
195.2509550711012878
 31
0.0
  0
ARC
  5
899D
  8
0
 10
3813.0193206253052267
 20
197.1148101832430086
 30
0.0
 40
0.6676443766579943
 50
329.1822959483948807
 51
343.3985652458117102
  0
ARC
  5
899E
  8
0
 10
3814.7706849910491655
 20
196.1909166031194047
 30
0.0
 40
1.313855019610908
 50
153.7134956964266905
 51
179.6672506151332129
  0
LINE
  5
899F
  8
0
 10
3813.4568521281598805
 20
196.1985468683107001
 30
0.0
 11
3813.4568521281598805
 21
195.8561764487106984
 31
0.0
  0
ARC
  5
89A0
  8
0
 10
3813.4804479318158883
 20
195.8595682199812131
 30
0.0
 40
0.0238377320240804
 50
188.169896401677903
 51
246.1344000501156017
  0
ARC
  5
89A1
  8
0
 10
3813.5823295402310578
 20
196.0431169439904977
 30
0.0
 40
0.2336792589364382
 50
241.4932834436584983
 51
268.8132333107839145
  0
LINE
  5
89A2
  8
0
 10
3813.5774896910597818
 20
195.8094878107106922
 30
0.0
 11
3813.7069779093671968
 21
195.802872064661301
 31
0.0
  0
LINE
  5
89A3
  8
0
 10
3813.7068521281598805
 20
195.4480468683107119
 30
0.0
 11
3813.7068521281598805
 21
195.8028784910106879
 31
0.0
  0
LINE
  5
89A4
  8
0
 10
3813.7760863187590985
 20
195.2431897328106913
 30
0.0
 11
3813.7760863187590985
 21
195.4480468683107119
 31
0.0
  0
LINE
  5
89A5
  8
0
 10
3791.5880863187589966
 20
195.2964823524106919
 30
0.0
 11
3813.7760863187590985
 21
195.2964823524106919
 31
0.0
  0
LINE
  5
89A6
  8
0
 10
3791.5880863187589966
 20
195.3770985508107003
 30
0.0
 11
3813.7760863187590985
 21
195.3770985508107003
 31
0.0
  0
ENDSEC
  0
EOF
