  0
SECTION
  2
HEADER
  9
$ACADVER
  1
AC1009
  9
$INSBASE
 10
3814.40457898656814
 20
121.6917825087435006
 30
0.0
  9
$EXTMIN
 10
3789.99832898656814
 20
121.6917825087435006
 30
0.0
  9
$EXTMAX
 10
3838.87332898656814
 20
191.6257825087434981
 30
0.0
  9
$LIMMIN
 10
0.0
 20
0.0
  9
$LIMMAX
 10
11.6929133858000007
 20
8.2677165353999982
  9
$ORTHOMODE
 70
     1
  9
$REGENMODE
 70
     1
  9
$FILLMODE
 70
     1
  9
$QTEXTMODE
 70
     0
  9
$MIRRTEXT
 70
     0
  9
$DRAGMODE
 70
     2
  9
$LTSCALE
 40
0.6431102362
  9
$OSMODE
 70
  4095
  9
$ATTMODE
 70
     1
  9
$TEXTSIZE
 40
0.2
  9
$TRACEWID
 40
0.05
  9
$TEXTSTYLE
  7
STANDARD
  9
$CLAYER
  8
0
  9
$CELTYPE
  6
BYLAYER
  9
$CECOLOR
 62
   256
  9
$DIMSCALE
 40
1.0
  9
$DIMASZ
 40
0.1875
  9
$DIMEXO
 40
0.0625
  9
$DIMDLI
 40
0.4443307087
  9
$DIMRND
 40
0.0
  9
$DIMDLE
 40
0.0
  9
$DIMEXE
 40
0.125
  9
$DIMTP
 40
0.01
  9
$DIMTM
 40
0.01
  9
$DIMTXT
 40
2.0
  9
$DIMCEN
 40
0.1052362205
  9
$DIMTSZ
 40
0.0
  9
$DIMTOL
 70
     1
  9
$DIMLIM
 70
     0
  9
$DIMTIH
 70
     1
  9
$DIMTOH
 70
     1
  9
$DIMSE1
 70
     0
  9
$DIMSE2
 70
     0
  9
$DIMTAD
 70
     0
  9
$DIMZIN
 70
     0
  9
$DIMBLK
  1

  9
$DIMASO
 70
     1
  9
$DIMSHO
 70
     1
  9
$DIMPOST
  1
\X
  9
$DIMAPOST
  1

  9
$DIMALT
 70
     1
  9
$DIMALTD
 70
     2
  9
$DIMALTF
 40
25.3999999999999986
  9
$DIMLFAC
 40
1.0
  9
$DIMTOFL
 70
     0
  9
$DIMTVP
 40
0.0
  9
$DIMTIX
 70
     0
  9
$DIMSOXD
 70
     0
  9
$DIMSAH
 70
     0
  9
$DIMBLK1
  1

  9
$DIMBLK2
  1

  9
$DIMSTYLE
  2
STANDARD
  9
$DIMCLRD
 70
     0
  9
$DIMCLRE
 70
     0
  9
$DIMCLRT
 70
     0
  9
$DIMTFAC
 40
1.0
  9
$DIMGAP
 40
0.09
  9
$LUNITS
 70
     2
  9
$LUPREC
 70
     4
  9
$SKETCHINC
 40
0.1
  9
$FILLETRAD
 40
0.0
  9
$AUNITS
 70
     0
  9
$AUPREC
 70
     0
  9
$MENU
  1
.
  9
$ELEVATION
 40
0.0
  9
$PELEVATION
 40
0.0
  9
$THICKNESS
 40
0.0
  9
$LIMCHECK
 70
     0
  9
$BLIPMODE
 70
     0
  9
$CHAMFERA
 40
0.0
  9
$CHAMFERB
 40
0.0
  9
$SKPOLY
 70
     0
  9
$TDCREATE
 40
2458060.468368056230247
  9
$TDUPDATE
 40
2459804.9871527780778706
  9
$TDINDWG
 40
0.3772061343
  9
$TDUSRTIMER
 40
0.3772061343
  9
$USRTIMER
 70
     1
  9
$ANGBASE
 50
0.0
  9
$ANGDIR
 70
     0
  9
$PDMODE
 70
     0
  9
$PDSIZE
 40
0.3125
  9
$PLINEWID
 40
0.0
  9
$COORDS
 70
     1
  9
$SPLFRAME
 70
     0
  9
$SPLINETYPE
 70
     6
  9
$SPLINESEGS
 70
     8
  9
$ATTDIA
 70
     1
  9
$ATTREQ
 70
     1
  9
$HANDLING
 70
     1
  9
$HANDSEED
  5
8C0F
  9
$SURFTAB1
 70
     6
  9
$SURFTAB2
 70
     6
  9
$SURFTYPE
 70
     6
  9
$SURFU
 70
     6
  9
$SURFV
 70
     6
  9
$UCSNAME
  2

  9
$UCSORG
 10
0.0
 20
0.0
 30
0.0
  9
$UCSXDIR
 10
1.0
 20
0.0
 30
0.0
  9
$UCSYDIR
 10
0.0
 20
1.0
 30
0.0
  9
$PUCSNAME
  2

  9
$PUCSORG
 10
0.0
 20
0.0
 30
0.0
  9
$PUCSXDIR
 10
1.0
 20
0.0
 30
0.0
  9
$PUCSYDIR
 10
0.0
 20
1.0
 30
0.0
  9
$USERI1
 70
     0
  9
$USERI2
 70
     0
  9
$USERI3
 70
     0
  9
$USERI4
 70
     0
  9
$USERI5
 70
     0
  9
$USERR1
 40
0.0
  9
$USERR2
 40
0.0
  9
$USERR3
 40
0.0
  9
$USERR4
 40
0.0
  9
$USERR5
 40
0.0
  9
$WORLDVIEW
 70
     1
  9
$SHADEDGE
 70
     3
  9
$SHADEDIF
 70
    70
  9
$TILEMODE
 70
     1
  9
$MAXACTVP
 70
    64
  9
$PLIMCHECK
 70
     0
  9
$PEXTMIN
 10
1.0000000000000000E+20
 20
1.0000000000000000E+20
 30
1.0000000000000000E+20
  9
$PEXTMAX
 10
-1.0000000000000000E+20
 20
-1.0000000000000000E+20
 30
-1.0000000000000000E+20
  9
$PLIMMIN
 10
0.0
 20
0.0
  9
$PLIMMAX
 10
12.0
 20
9.0
  9
$UNITMODE
 70
     0
  9
$VISRETAIN
 70
     1
  9
$PLINEGEN
 70
     0
  9
$PSLTSCALE
 70
     1
  0
ENDSEC
  0
SECTION
  2
TABLES
  0
TABLE
  2
VPORT
 70
     1
  0
VPORT
  2
*ACTIVE
 70
     0
 10
0.0
 20
0.0
 11
1.0
 21
1.0
 12
0.0
 22
0.0
 13
0.0
 23
0.0
 14
1.0
 24
1.0
 15
0.0
 25
0.0
 16
0.0
 26
0.0
 36
245.1542334167203023
 17
3814.435791015625
 27
156.6587791442871094
 37
0.0
 40
85.3201600816429533
 41
2.156179775280898
 42
50.0
 43
0.0
 44
0.0
 50
0.0
 51
0.0
 71
     0
 72
   100
 73
     1
 74
     1
 75
     0
 76
     0
 77
     0
 78
     0
  0
ENDTAB
  0
TABLE
  2
LTYPE
 70
     2
  0
LTYPE
  2
CONTINUOUS
 70
     0
  3
Solid line
 72
    65
 73
     0
 40
0.0
  0
LTYPE
  2
PHANTOM2
 70
     0
  3
___ _ _ ___ _ _ ___ _ _ ___ _ _
 72
    65
 73
     6
 40
1.25
 49
0.625
 49
-0.125
 49
0.125
 49
-0.125
 49
0.125
 49
-0.125
  0
ENDTAB
  0
TABLE
  2
LAYER
 70
     2
  0
LAYER
  2
0
 70
     0
 62
   255
  6
CONTINUOUS
  0
LAYER
  2
DEFPOINTS
 70
     0
 62
     7
  6
CONTINUOUS
  0
ENDTAB
  0
TABLE
  2
STYLE
 70
     1
  0
STYLE
  2
STANDARD
 70
     0
 40
0.0
 41
0.8
 50
0.0
 71
     0
 42
0.2
  3
txt
  4

  0
ENDTAB
  0
TABLE
  2
VIEW
 70
     0
  0
ENDTAB
  0
TABLE
  2
UCS
 70
     0
  0
ENDTAB
  0
TABLE
  2
APPID
 70
     9
  0
APPID
  2
ACAD
 70
     0
  0
APPID
  2
ACAD_MLEADERVER
 70
     0
  0
APPID
  2
ACAD_EXEMPT_FROM_CAD_STANDARDS
 70
     0
  0
APPID
  2
ACAD_NAV_VCDISPLAY
 70
     0
  0
APPID
  2
ACAECLAYERSTANDARD
 70
     0
  0
APPID
  2
ACCMTRANSPARENCY
 70
     0
  0
APPID
  2
ACAD_DSTYLE_DIMJAG
 70
     0
  0
APPID
  2
ACAD_DSTYLE_DIMTALN
 70
     0
  0
APPID
  2
ACDBATTR
 70
     0
  0
ENDTAB
  0
TABLE
  2
DIMSTYLE
 70
     1
  0
DIMSTYLE
  2
STANDARD
 70
     0
  3

  4

  5

  6

  7

 40
1.0
 41
0.1875
 42
0.0625
 43
0.38
 44
0.125
 45
0.0
 46
0.0
 47
0.01
 48
0.01
140
0.15625
141
0.09
142
0.0
143
25.3999999999999986
144
1.0
145
0.0
146
1.0
147
0.09
 71
     1
 72
     0
 73
     1
 74
     1
 75
     0
 76
     0
 77
     0
 78
     4
170
     0
171
     2
172
     0
173
     0
174
     0
175
     0
176
     0
177
     0
178
     0
  0
ENDTAB
  0
ENDSEC
  0
SECTION
  2
BLOCKS
  0
BLOCK
  8
0
  2
$MODEL_SPACE
 70
     0
 10
0.0
 20
0.0
 30
0.0
  3
$MODEL_SPACE
  1

  0
ENDBLK
  5
21
  8
0
  0
BLOCK
 67
     1
  8
0
  2
$PAPER_SPACE
 70
     0
 10
0.0
 20
0.0
 30
0.0
  3
$PAPER_SPACE
  1

  0
ENDBLK
  5
1D
 67
     1
  8
0
  0
ENDSEC
  0
SECTION
  2
ENTITIES
  0
ATTDEF
  5
7B75
  8
DEFPOINTS
 10
3814.4061937798092004
 20
121.6970372287763951
 30
0.0
 40
0.001
  1
572116-G05
  3

  2
MODELNUMBER
 70
     0
1001
ACDBATTR
1070
     0
1070
     1
  0
ATTDEF
  5
7B76
  8
DEFPOINTS
 10
3814.4061937798092004
 20
121.6953705621097015
 30
0.0
 40
0.001
  1

  3

  2
TRADENAME
 70
     0
1001
ACDBATTR
1070
     0
1070
     1
  0
ATTDEF
  5
7B77
  8
DEFPOINTS
 10
3814.4061937798092004
 20
121.6937038954430932
 30
0.0
 40
0.001
  1
SHOWER DOOR
  3

  2
PRODUCT
 70
     0
1001
ACDBATTR
1070
     0
1070
     1
  0
LINE
  5
8A2E
  8
0
 10
3838.87332898656814
 20
191.6257825087434981
 30
0.0
 11
3789.99832898656814
 21
191.6257825087434981
 31
0.0
  0
LINE
  5
8A2F
  8
0
 10
3838.81082898656814
 20
121.6917825087435006
 30
0.0
 11
3790.06082898656814
 21
121.6917825087435006
 31
0.0
  0
LINE
  5
8A30
  8
0
 10
3838.87332898656814
 20
121.7417825087434977
 30
0.0
 11
3789.99832898656814
 21
121.7417825087434977
 31
0.0
  0
LINE
  5
8A31
  8
0
 10
3789.99832898656814
 20
121.7417825087434977
 30
0.0
 11
3789.99832898656814
 21
191.6257825087434981
 31
0.0
  0
LINE
  5
8A32
  8
0
 10
3838.87332898656814
 20
121.7417825087434977
 30
0.0
 11
3838.87332898656814
 21
191.6257825087434981
 31
0.0
  0
LINE
  5
8A33
  8
0
 10
3789.99832898656814
 20
189.4711046906865874
 30
0.0
 11
3838.87332898656814
 21
189.4711046906865874
 31
0.0
  0
LINE
  5
8A34
  8
0
 10
3791.8060947959679652
 20
189.4711046906865874
 30
0.0
 11
3791.8060947959679652
 21
156.6982727697435109
 31
0.0
  0
LINE
  5
8A35
  8
0
 10
3791.8060947959679652
 20
155.5964726636927935
 30
0.0
 11
3791.8060947959679652
 21
121.7417825087434977
 31
0.0
  0
LINE
  5
8A36
  8
0
 10
3790.17932898656818
 20
189.4711046906865874
 30
0.0
 11
3790.17932898656818
 21
121.7417825087434977
 31
0.0
  0
LINE
  5
8A37
  8
0
 10
3790.8513289865682054
 20
189.4711046906865874
 30
0.0
 11
3790.8513289865682054
 21
121.7417825087434977
 31
0.0
  0
LINE
  5
8A38
  8
0
 10
3791.0323289865677907
 20
189.4711046906865874
 30
0.0
 11
3791.0323289865677907
 21
121.7417825087434977
 31
0.0
  0
LINE
  5
8A39
  8
0
 10
3791.5874073130671604
 20
189.4711046906865874
 30
0.0
 11
3791.5874073130671604
 21
156.7070029620435037
 31
0.0
  0
LINE
  5
8A3A
  8
0
 10
3791.5874073130671604
 20
155.5895414439434887
 30
0.0
 11
3791.5874073130671604
 21
123.0477825087434951
 31
0.0
  0
LINE
  5
8A3B
  8
0
 10
3791.8060947959679652
 20
188.9845949517865904
 30
0.0
 11
3813.5560947959679652
 21
188.9845949517865904
 31
0.0
  0
LINE
  5
8A3C
  8
0
 10
3815.3253289865679108
 20
188.9845949517865904
 30
0.0
 11
3837.0753289865679108
 21
188.9845949517865904
 31
0.0
  0
LINE
  5
8A3D
  8
0
 10
3791.8060718272681697
 20
188.7815949517865874
 30
0.0
 11
3813.5560947959679652
 21
188.7815949517865874
 31
0.0
  0
LINE
  5
8A3E
  8
0
 10
3815.3253289865679108
 20
188.7815949517865874
 30
0.0
 11
3837.0753289865679108
 21
188.7815949517865874
 31
0.0
  0
LINE
  5
8A3F
  8
0
 10
3789.99832898656814
 20
191.2165872047434902
 30
0.0
 11
3838.87332898656814
 21
191.2165872047434902
 31
0.0
  0
LINE
  5
8A40
  8
0
 10
3789.99832898656814
 20
189.7694758499866055
 30
0.0
 11
3838.87332898656814
 21
189.7694758499866055
 31
0.0
  0
LINE
  5
8A41
  8
0
 10
3813.5560947959679652
 20
189.4711046906865874
 30
0.0
 11
3813.5560947959679652
 21
156.7000837307961092
 31
0.0
  0
LINE
  5
8A42
  8
0
 10
3813.5560947959679652
 20
155.5964726636927935
 30
0.0
 11
3813.5560947959679652
 21
122.5842727698434942
 31
0.0
  0
LINE
  5
8A43
  8
0
 10
3813.7743650400680053
 20
155.592102751601999
 30
0.0
 11
3813.7743650400680053
 21
123.0477825087434951
 31
0.0
  0
LINE
  5
8A44
  8
0
 10
3814.3846428326678506
 20
189.4711046906865874
 30
0.0
 11
3814.3846428326678506
 21
123.0477825087434951
 31
0.0
  0
LINE
  5
8A45
  8
0
 10
3814.5558606053677977
 20
189.4711046906865874
 30
0.0
 11
3814.5558606053677977
 21
123.0477825087434951
 31
0.0
  0
LINE
  5
8A46
  8
0
 10
3815.1212501475679346
 20
189.4711046906865874
 30
0.0
 11
3815.1212501475679346
 21
123.0477825087434951
 31
0.0
  0
LINE
  5
8A47
  8
0
 10
3815.3253289865679108
 20
189.4711046906865874
 30
0.0
 11
3815.3253289865679108
 21
123.0477825087434951
 31
0.0
  0
LINE
  5
8A48
  8
0
 10
3814.5558606053677977
 20
189.3470949517866018
 30
0.0
 11
3814.598644957668057
 21
189.3470949517866018
 31
0.0
  0
ARC
  5
8A49
  8
0
 10
3814.598644957668057
 20
189.3620949519767862
 30
0.0
 40
0.0150000001902058
 50
270.0
 51
322.2042446849304724
  0
ARC
  5
8A4A
  8
0
 10
3814.4088788178200957
 20
189.5092701425091946
 30
0.0
 40
0.2551493798298438
 50
322.2042446849297903
 51
351.3966504118162106
  0
LINE
  5
8A4B
  8
0
 10
3837.0753289865679108
 20
189.4711046906865874
 30
0.0
 11
3837.0753289865679108
 21
123.0477825087434951
 31
0.0
  0
LINE
  5
8A4C
  8
0
 10
3837.2794078255678869
 20
189.4711046906865874
 30
0.0
 11
3837.2794078255678869
 21
123.0477825087434951
 31
0.0
  0
LINE
  5
8A4D
  8
0
 10
3837.8393289865680345
 20
189.4711046906865874
 30
0.0
 11
3837.8393289865680345
 21
121.7417825087434977
 31
0.0
  0
LINE
  5
8A4E
  8
0
 10
3838.0203289865680745
 20
189.4711046906865874
 30
0.0
 11
3838.0203289865680745
 21
121.7417825087434977
 31
0.0
  0
LINE
  5
8A4F
  8
0
 10
3838.6923289865680999
 20
189.4711046906865874
 30
0.0
 11
3838.6923289865680999
 21
121.7417825087434977
 31
0.0
  0
LINE
  5
8A50
  8
0
 10
3791.0323289865677907
 20
123.0477825087434951
 30
0.0
 11
3791.8060947959679652
 21
123.0477825087434951
 31
0.0
  0
LINE
  5
8A51
  8
0
 10
3791.8060947959679652
 20
122.5842727698434942
 30
0.0
 11
3813.5560947959679652
 21
122.5842727698434942
 31
0.0
  0
LINE
  5
8A52
  8
0
 10
3791.8060947959679652
 20
123.5842727698434942
 30
0.0
 11
3813.5560947959679652
 21
123.5842727698434942
 31
0.0
  0
LINE
  5
8A53
  8
0
 10
3815.3253289865679108
 20
123.5842727698434942
 30
0.0
 11
3837.0753289865679108
 21
123.5842727698434942
 31
0.0
  0
LINE
  5
8A54
  8
0
 10
3837.8393289865680345
 20
123.0477825087434951
 30
0.0
 11
3813.5560947959679652
 21
123.0477825087434951
 31
0.0
  0
LINE
  5
8A55
  8
0
 10
3838.81082898656814
 20
121.6917825087435006
 30
0.0
 11
3838.81082898656814
 21
121.7417825087434977
 31
0.0
  0
LINE
  5
8A56
  8
0
 10
3791.8060947959679652
 20
156.6982727697435109
 30
0.0
 11
3813.5483978407719405
 21
156.6982727697435109
 31
0.0
  0
LINE
  5
8A57
  8
0
 10
3791.8138090193328935
 20
155.5982727697436019
 30
0.0
 11
3813.5483805726030369
 21
155.5982727697436019
 31
0.0
  0
ARC
  5
8A58
  8
0
 10
3791.7813289863038335
 20
156.5775616717664889
 30
0.0
 40
0.1250000011085647
 50
78.5725782373309016
 51
87.9999998912281853
  0
ARC
  5
8A59
  8
0
 10
1649.0840762746408927
 20
-61202.2403355108908727
 30
0.0
 40
61396.3438188860527589
 50
87.9999998912281853
 51
88.0001206891545564
  0
ARC
  5
8A5A
  8
0
 10
3791.5313270358042246
 20
-114564.2913435337977717
 30
0.0
 40
114720.9983464958932018
 50
89.9999375705118467
 51
90.0000624294881675
  0
ARC
  5
8A5B
  8
0
 10
3796.8898420574960255
 20
-0.3298061504031722
 30
0.0
 40
157.1325183780136001
 50
91.9998793108454578
 51
92.0465361690858828
  0
ARC
  5
8A5C
  8
0
 10
3791.2829743573329324
 20
156.5759101641050108
 30
0.0
 40
0.126656138490693
 50
92.0465361690858828
 51
179.2528813582846112
  0
LINE
  5
8A5D
  8
0
 10
3791.1563289865680417
 20
156.5775616728435011
 30
0.0
 11
3791.1563289865680417
 21
155.7189838665435104
 31
0.0
  0
ARC
  5
8A5E
  8
0
 10
3791.2897382726318938
 20
155.7223814386491085
 30
0.0
 40
0.133452542518052
 50
181.4588525175406062
 51
264.5082537962766196
  0
ARC
  5
8A5F
  8
0
 10
3792.8359565012951862
 20
123.671924386016002
 30
0.0
 40
31.9394082557897008
 50
91.8843995398433151
 51
92.1166031815315165
  0
ARC
  5
8A60
  8
0
 10
3791.780122145004043
 20
155.7286386855720082
 30
0.0
 40
0.1346938600584549
 50
272.3697231262530067
 51
281.8801816682097865
  0
ARC
  5
8A61
  8
0
 10
3791.7869843127978129
 20
155.6960194512431883
 30
0.0
 40
0.1013606364666417
 50
281.8801816682097865
 51
285.3459305794314105
  0
ARC
  5
8A62
  8
0
 10
4741.7800588814507137
 20
-27053.9520326755191491
 30
0.0
 40
27227.2418773628087365
 50
91.9998035267208678
 51
92.0000759170993234
  0
ARC
  5
8A63
  8
0
 10
3791.5313291580418991
 20
156.5775615072533071
 30
0.0
 40
0.1250001714737775
 50
92.0000759170993234
 51
179.9999240991494105
  0
LINE
  5
8A64
  8
0
 10
3791.4063289865680417
 20
156.5775616728435011
 30
0.0
 11
3791.4063278493381404
 21
155.7190934553443071
 31
0.0
  0
ARC
  5
8A65
  8
0
 10
3791.5314411191111503
 20
155.7190932896043023
 30
0.0
 40
0.1251132697732547
 50
179.9999240991510874
 51
267.9998387498731063
  0
ARC
  5
8A66
  8
0
 10
3791.1835681681131973
 20
143.9073181297949873
 30
0.0
 40
11.6917853364275093
 50
87.6825963191229505
 51
88.3164001028344074
  0
LINE
  5
8A67
  8
0
 10
3791.6563289865680417
 20
156.7070029620435037
 30
0.0
 11
3791.6563289865680417
 21
155.5895414439434887
 31
0.0
  0
LINE
  5
8A68
  8
0
 10
3791.6563289865680417
 20
155.8261778521435019
 30
0.0
 11
3813.7058606053678886
 21
155.8261778521435019
 31
0.0
  0
LINE
  5
8A69
  8
0
 10
3791.6563289865680417
 20
156.4703676872435096
 30
0.0
 11
3813.7058606053678886
 21
156.4703676872435096
 31
0.0
  0
ARC
  5
8A6A
  8
0
 10
3813.5808606056320968
 20
156.5775616717664889
 30
0.0
 40
0.1250000011085647
 50
92.0000001087718147
 51
105.0523875360284052
  0
ARC
  5
8A6B
  8
0
 10
3633.8288326571710058
 20
5305.006928798539775
 30
0.0
 40
5151.4413384871168091
 50
271.9996099877242841
 51
272.0010496704435923
  0
ARC
  5
8A6C
  8
0
 10
3814.0711916985178505
 20
156.5725787131117102
 30
0.0
 40
0.1347610639610554
 50
2.1190665343382462
 51
85.9527485288203792
  0
LINE
  5
8A6D
  8
0
 10
3814.2058606053678886
 20
156.5775616728435011
 30
0.0
 11
3814.2058606053678886
 21
155.7189838665435104
 31
0.0
  0
ARC
  5
8A6E
  8
0
 10
3814.0724513193031271
 20
155.7223814386491085
 30
0.0
 40
0.1334525425180494
 50
275.4917462037233236
 51
358.5411474824608717
  0
ARC
  5
8A6F
  8
0
 10
3814.213690577566922
 20
171.9822640863744994
 30
0.0
 40
16.4005867856103009
 50
267.7733951107969119
 51
268.2256021678334719
  0
ARC
  5
8A70
  8
0
 10
3813.5820674469318874
 20
155.7286386855720082
 30
0.0
 40
0.1346938600584549
 50
258.1198183317900998
 51
267.6302768737468796
  0
ARC
  5
8A71
  8
0
 10
3813.5752052791381175
 20
155.6960194512431883
 30
0.0
 40
0.1013606364666417
 50
254.6540694205685043
 51
258.1198183317900998
  0
ARC
  5
8A72
  8
0
 10
4014.7443063547198108
 20
5910.890626758315193
 30
0.0
 40
5757.6944712665599582
 50
267.9990261172807209
 51
268.0003142094150803
  0
ARC
  5
8A73
  8
0
 10
3813.8308604338940313
 20
156.5775615072533071
 30
0.0
 40
0.1250001714737775
 50
0.000075900850554
 51
87.9999240829006624
  0
LINE
  5
8A74
  8
0
 10
3813.9558606053678886
 20
156.5775616728435011
 30
0.0
 11
3813.95586174259779
 21
155.7190934553443071
 31
0.0
  0
ARC
  5
8A75
  8
0
 10
3813.8307484728238705
 20
155.7190932896043023
 30
0.0
 40
0.1251132697732547
 50
272.0001612501270074
 51
0.0000759008489256
  0
ARC
  5
8A76
  8
0
 10
3814.1907028446580625
 20
143.5614383526288975
 30
0.0
 40
12.0378709069458605
 50
91.692710830781337
 51
92.3082927472533896
  0
LINE
  5
8A77
  8
0
 10
3813.7058606053678886
 20
156.7070037076817925
 30
0.0
 11
3813.7058606053678886
 21
155.5895414439434887
 31
0.0
  0
LINE
  5
8A78
  8
0
 10
3813.7743650400680053
 20
189.4711046906865874
 30
0.0
 11
3813.7743650400680053
 21
156.7070029620435037
 31
0.0
  0
LINE
  5
8A7A
  8
0
 10
3790.06082898656814
 20
121.7417825087434977
 30
0.0
 11
3790.06082898656814
 21
121.6917825087435006
 31
0.0
  0
LINE
  5
8A7C
  8
0
 10
3791.6563289865680417
 20
155.5895414439434887
 30
0.0
 11
3791.2769665495247864
 21
155.5895414439434887
 31
0.0
  0
LINE
  5
8A7D
  8
0
 10
3813.7058606053678886
 20
155.5895414439434887
 30
0.0
 11
3814.085223042411144
 21
155.5895414439434887
 31
0.0
  0
LINE
  5
8A7E
  8
0
 10
3813.7058606052119103
 20
156.7070037076817925
 30
0.0
 11
3814.0807030178129935
 21
156.7070037076817925
 31
0.0
  0
ENDSEC
  0
EOF
