  0
SECTION
  2
HEADER
  9
$ACADVER
  1
AC1009
  9
$INSBASE
 10
3853.9829043345930586
 20
121.6928277868301933
 30
0.0
  9
$EXTMIN
 10
3851.1315714478150767
 20
121.6928277868301933
 30
0.0
  9
$EXTMAX
 10
3855.1315376445159018
 20
191.626827786830205
 30
0.0
  9
$LIMMIN
 10
0.0
 20
0.0
  9
$LIMMAX
 10
11.6929133858000007
 20
8.2677165353999982
  9
$ORTHOMODE
 70
     1
  9
$REGENMODE
 70
     1
  9
$FILLMODE
 70
     1
  9
$QTEXTMODE
 70
     0
  9
$MIRRTEXT
 70
     0
  9
$DRAGMODE
 70
     2
  9
$LTSCALE
 40
0.6431102362
  9
$OSMODE
 70
  4095
  9
$ATTMODE
 70
     1
  9
$TEXTSIZE
 40
0.2
  9
$TRACEWID
 40
0.05
  9
$TEXTSTYLE
  7
STANDARD
  9
$CLAYER
  8
0
  9
$CELTYPE
  6
BYLAYER
  9
$CECOLOR
 62
   256
  9
$DIMSCALE
 40
1.0
  9
$DIMASZ
 40
0.1875
  9
$DIMEXO
 40
0.0625
  9
$DIMDLI
 40
0.4443307087
  9
$DIMRND
 40
0.0
  9
$DIMDLE
 40
0.0
  9
$DIMEXE
 40
0.125
  9
$DIMTP
 40
0.01
  9
$DIMTM
 40
0.01
  9
$DIMTXT
 40
2.0
  9
$DIMCEN
 40
0.1052362205
  9
$DIMTSZ
 40
0.0
  9
$DIMTOL
 70
     1
  9
$DIMLIM
 70
     0
  9
$DIMTIH
 70
     1
  9
$DIMTOH
 70
     1
  9
$DIMSE1
 70
     0
  9
$DIMSE2
 70
     0
  9
$DIMTAD
 70
     0
  9
$DIMZIN
 70
     0
  9
$DIMBLK
  1

  9
$DIMASO
 70
     1
  9
$DIMSHO
 70
     1
  9
$DIMPOST
  1
\X
  9
$DIMAPOST
  1

  9
$DIMALT
 70
     1
  9
$DIMALTD
 70
     2
  9
$DIMALTF
 40
25.3999999999999986
  9
$DIMLFAC
 40
1.0
  9
$DIMTOFL
 70
     0
  9
$DIMTVP
 40
0.0
  9
$DIMTIX
 70
     0
  9
$DIMSOXD
 70
     0
  9
$DIMSAH
 70
     0
  9
$DIMBLK1
  1

  9
$DIMBLK2
  1

  9
$DIMSTYLE
  2
STANDARD
  9
$DIMCLRD
 70
     0
  9
$DIMCLRE
 70
     0
  9
$DIMCLRT
 70
     0
  9
$DIMTFAC
 40
1.0
  9
$DIMGAP
 40
0.09
  9
$LUNITS
 70
     2
  9
$LUPREC
 70
     4
  9
$SKETCHINC
 40
0.1
  9
$FILLETRAD
 40
0.0
  9
$AUNITS
 70
     0
  9
$AUPREC
 70
     0
  9
$MENU
  1
.
  9
$ELEVATION
 40
0.0
  9
$PELEVATION
 40
0.0
  9
$THICKNESS
 40
0.0
  9
$LIMCHECK
 70
     0
  9
$BLIPMODE
 70
     0
  9
$CHAMFERA
 40
0.0
  9
$CHAMFERB
 40
0.0
  9
$SKPOLY
 70
     0
  9
$TDCREATE
 40
2458060.468368056230247
  9
$TDUPDATE
 40
2459804.9854166670702398
  9
$TDINDWG
 40
0.3744052083
  9
$TDUSRTIMER
 40
0.3744052083
  9
$USRTIMER
 70
     1
  9
$ANGBASE
 50
0.0
  9
$ANGDIR
 70
     0
  9
$PDMODE
 70
     0
  9
$PDSIZE
 40
0.3125
  9
$PLINEWID
 40
0.0
  9
$COORDS
 70
     1
  9
$SPLFRAME
 70
     0
  9
$SPLINETYPE
 70
     6
  9
$SPLINESEGS
 70
     8
  9
$ATTDIA
 70
     1
  9
$ATTREQ
 70
     1
  9
$HANDLING
 70
     1
  9
$HANDSEED
  5
8822
  9
$SURFTAB1
 70
     6
  9
$SURFTAB2
 70
     6
  9
$SURFTYPE
 70
     6
  9
$SURFU
 70
     6
  9
$SURFV
 70
     6
  9
$UCSNAME
  2

  9
$UCSORG
 10
0.0
 20
0.0
 30
0.0
  9
$UCSXDIR
 10
1.0
 20
0.0
 30
0.0
  9
$UCSYDIR
 10
0.0
 20
1.0
 30
0.0
  9
$PUCSNAME
  2

  9
$PUCSORG
 10
0.0
 20
0.0
 30
0.0
  9
$PUCSXDIR
 10
1.0
 20
0.0
 30
0.0
  9
$PUCSYDIR
 10
0.0
 20
1.0
 30
0.0
  9
$USERI1
 70
     0
  9
$USERI2
 70
     0
  9
$USERI3
 70
     0
  9
$USERI4
 70
     0
  9
$USERI5
 70
     0
  9
$USERR1
 40
0.0
  9
$USERR2
 40
0.0
  9
$USERR3
 40
0.0
  9
$USERR4
 40
0.0
  9
$USERR5
 40
0.0
  9
$WORLDVIEW
 70
     1
  9
$SHADEDGE
 70
     3
  9
$SHADEDIF
 70
    70
  9
$TILEMODE
 70
     1
  9
$MAXACTVP
 70
    64
  9
$PLIMCHECK
 70
     0
  9
$PEXTMIN
 10
1.0000000000000000E+20
 20
1.0000000000000000E+20
 30
1.0000000000000000E+20
  9
$PEXTMAX
 10
-1.0000000000000000E+20
 20
-1.0000000000000000E+20
 30
-1.0000000000000000E+20
  9
$PLIMMIN
 10
0.0
 20
0.0
  9
$PLIMMAX
 10
12.0
 20
9.0
  9
$UNITMODE
 70
     0
  9
$VISRETAIN
 70
     1
  9
$PLINEGEN
 70
     0
  9
$PSLTSCALE
 70
     1
  0
ENDSEC
  0
SECTION
  2
TABLES
  0
TABLE
  2
VPORT
 70
     1
  0
VPORT
  2
*ACTIVE
 70
     0
 10
0.0
 20
0.0
 11
1.0
 21
1.0
 12
0.0
 22
0.0
 13
0.0
 23
0.0
 14
1.0
 24
1.0
 15
0.0
 25
0.0
 16
0.0
 26
0.0
 36
201.272931472250491
 17
3853.131591796875
 27
156.6598281860350994
 37
0.0
 40
70.0560982367237415
 41
2.156179775280898
 42
50.0
 43
0.0
 44
0.0
 50
0.0
 51
0.0
 71
     0
 72
   100
 73
     1
 74
     1
 75
     0
 76
     0
 77
     0
 78
     0
  0
ENDTAB
  0
TABLE
  2
LTYPE
 70
     2
  0
LTYPE
  2
CONTINUOUS
 70
     0
  3
Solid line
 72
    65
 73
     0
 40
0.0
  0
LTYPE
  2
PHANTOM2
 70
     0
  3
___ _ _ ___ _ _ ___ _ _ ___ _ _
 72
    65
 73
     6
 40
1.25
 49
0.625
 49
-0.125
 49
0.125
 49
-0.125
 49
0.125
 49
-0.125
  0
ENDTAB
  0
TABLE
  2
LAYER
 70
     2
  0
LAYER
  2
0
 70
     0
 62
   255
  6
CONTINUOUS
  0
LAYER
  2
DEFPOINTS
 70
     0
 62
     7
  6
CONTINUOUS
  0
ENDTAB
  0
TABLE
  2
STYLE
 70
     1
  0
STYLE
  2
STANDARD
 70
     0
 40
0.0
 41
0.8
 50
0.0
 71
     0
 42
0.2
  3
txt
  4

  0
ENDTAB
  0
TABLE
  2
VIEW
 70
     0
  0
ENDTAB
  0
TABLE
  2
UCS
 70
     0
  0
ENDTAB
  0
TABLE
  2
APPID
 70
     9
  0
APPID
  2
ACAD
 70
     0
  0
APPID
  2
ACAD_MLEADERVER
 70
     0
  0
APPID
  2
ACAD_EXEMPT_FROM_CAD_STANDARDS
 70
     0
  0
APPID
  2
ACAD_NAV_VCDISPLAY
 70
     0
  0
APPID
  2
ACAECLAYERSTANDARD
 70
     0
  0
APPID
  2
ACCMTRANSPARENCY
 70
     0
  0
APPID
  2
ACAD_DSTYLE_DIMJAG
 70
     0
  0
APPID
  2
ACAD_DSTYLE_DIMTALN
 70
     0
  0
APPID
  2
ACDBATTR
 70
     0
  0
ENDTAB
  0
TABLE
  2
DIMSTYLE
 70
     1
  0
DIMSTYLE
  2
STANDARD
 70
     0
  3

  4

  5

  6

  7

 40
1.0
 41
0.1875
 42
0.0625
 43
0.38
 44
0.125
 45
0.0
 46
0.0
 47
0.01
 48
0.01
140
0.15625
141
0.09
142
0.0
143
25.3999999999999986
144
1.0
145
0.0
146
1.0
147
0.09
 71
     1
 72
     0
 73
     1
 74
     1
 75
     0
 76
     0
 77
     0
 78
     4
170
     0
171
     2
172
     0
173
     0
174
     0
175
     0
176
     0
177
     0
178
     0
  0
ENDTAB
  0
ENDSEC
  0
SECTION
  2
BLOCKS
  0
BLOCK
  8
0
  2
$MODEL_SPACE
 70
     0
 10
0.0
 20
0.0
 30
0.0
  3
$MODEL_SPACE
  1

  0
ENDBLK
  5
21
  8
0
  0
BLOCK
 67
     1
  8
0
  2
$PAPER_SPACE
 70
     0
 10
0.0
 20
0.0
 30
0.0
  3
$PAPER_SPACE
  1

  0
ENDBLK
  5
1D
 67
     1
  8
0
  0
ENDSEC
  0
SECTION
  2
ENTITIES
  0
ATTDEF
  5
80B5
  8
DEFPOINTS
 10
3853.9833986199409992
 20
121.6970372287763951
 30
0.0
 40
0.001
  1
572115-G10
  3

  2
MODELNUMBER
 70
     0
1001
ACDBATTR
1070
     0
1070
     1
  0
ATTDEF
  5
80B6
  8
DEFPOINTS
 10
3853.9833986199409992
 20
121.6953705621097015
 30
0.0
 40
0.001
  1

  3

  2
TRADENAME
 70
     0
1001
ACDBATTR
1070
     0
1070
     1
  0
ATTDEF
  5
80B7
  8
DEFPOINTS
 10
3853.9833986199409992
 20
121.6937038954430932
 30
0.0
 40
0.001
  1
SHOWER DOOR
  3

  2
PRODUCT
 70
     0
1001
ACDBATTR
1070
     0
1070
     1
  0
LINE
  5
8578
  8
0
 10
3853.0664043345927894
 20
121.6928277868301933
 30
0.0
 11
3853.1844043345931823
 21
121.6928277868301933
 31
0.0
  0
LINE
  5
8579
  8
0
 10
3854.5434043345931059
 20
121.6928277868301933
 30
0.0
 11
3854.8994043345928731
 21
121.6928277868301933
 31
0.0
  0
LINE
  5
857A
  8
0
 10
3853.0574043345927748
 20
121.7428277868302047
 30
0.0
 11
3853.1504043345930768
 21
121.7428277868302047
 31
0.0
  0
LINE
  5
857B
  8
0
 10
3854.8424043345930841
 20
121.7428277868302047
 30
0.0
 11
3854.9354043345929313
 21
121.7428277868302047
 31
0.0
  0
LINE
  5
857C
  8
0
 10
3853.0392305777049842
 20
189.4168277868301971
 30
0.0
 11
3853.0418938387638264
 21
189.4168277868301971
 31
0.0
  0
ARC
  5
857D
  8
0
 10
3853.984286407892796
 20
187.789905215730613
 30
0.0
 40
3.8369225710995698
 50
90.0
 51
104.5240569596479929
  0
ARC
  5
857E
  8
0
 10
3853.053386407889775
 20
191.3832037510426005
 30
0.0
 40
0.1249999999942679
 50
104.5240569596479929
 51
167.9130171615638005
  0
ARC
  5
857F
  8
0
 10
3854.8554850964928846
 20
191.1189286267307921
 30
0.0
 40
1.946123713176833
 50
171.4168110804851892
 51
175.1823921733291058
  0
ARC
  5
8580
  8
0
 10
3852.8763864076199752
 20
191.2858277870350037
 30
0.0
 40
0.040000000341395
 50
292.3263220276867855
 51
355.0438125036832275
  0
ARC
  5
8581
  8
0
 10
3852.9071864078928229
 20
191.2108277868302082
 30
0.0
 40
0.0410779871000266
 50
112.3263217766948969
 51
170.4648234785767045
  0
ARC
  5
8582
  8
0
 10
3857.3045043298570818
 20
190.4721935281719993
 30
0.0
 40
4.4999999952646936
 50
170.464823463277412
 51
189.684401390211292
  0
ARC
  5
8583
  8
0
 10
3853.0413764559898482
 20
189.4328666142330064
 30
0.0
 40
0.0160471701365986
 50
271.8476147103306744
 51
314.9723576022472002
  0
ARC
  5
8584
  8
0
 10
3853.0414229487441844
 20
189.4328200765963004
 30
0.0
 40
0.0159813877087881
 50
314.9723576022765883
 51
0.0276423977425019
  0
ARC
  5
8585
  8
0
 10
3853.0578864079470804
 20
189.540427786978313
 30
0.0
 40
0.1250000001562601
 50
242.5499532840819938
 51
261.4167291139626172
  0
ARC
  5
8586
  8
0
 10
3853.0578864078252082
 20
189.5404277867434928
 30
0.0
 40
0.1249999998917215
 50
221.1921050404941127
 51
242.5499532840819938
  0
ARC
  5
8587
  8
0
 10
3853.0578864079648156
 20
189.5404277868659051
 30
0.0
 40
0.1250000000774778
 50
191.6327036538914967
 51
221.1921050404953917
  0
ARC
  5
8588
  8
0
 10
3855.0967586144688539
 20
189.8801498980442091
 30
0.0
 40
2.1918963776914251
 50
185.9638690968563992
 51
189.5837471464132022
  0
ARC
  5
8589
  8
0
 10
3852.876944761759205
 20
189.6482277867056894
 30
0.0
 40
0.0400000001813479
 50
6.0001486936275157
 51
67.1095128164434129
  0
ARC
  5
858A
  8
0
 10
3852.9080624417920262
 20
189.7219277868302072
 30
0.0
 40
0.0399999999999959
 50
189.6844013712023127
 51
247.1095129231557053
  0
LINE
  5
858B
  8
0
 10
3853.0574043345927748
 20
190.1808277868302071
 30
0.0
 11
3853.0574043345927748
 21
121.7428277868302047
 31
0.0
  0
LINE
  5
858C
  8
0
 10
3854.9354043345929313
 20
190.1808277868302071
 30
0.0
 11
3854.9354043345929313
 21
189.4824462486878076
 31
0.0
  0
LINE
  5
858D
  8
0
 10
3854.9354043345929313
 20
189.421215684601691
 30
0.0
 11
3854.9354043345929313
 21
121.7428277868302047
 31
0.0
  0
LINE
  5
858E
  8
0
 10
3853.0574043345927748
 20
190.1808277868302071
 30
0.0
 11
3854.9354043345929313
 21
190.1808277868302071
 31
0.0
  0
ARC
  5
858F
  8
0
 10
3853.9925923681080349
 20
186.7191134437900075
 30
0.0
 40
4.8377143430402114
 50
89.999999610528306
 51
101.3864163667017948
  0
ARC
  5
8590
  8
0
 10
3853.0532766696801446
 20
191.3833069675532101
 30
0.0
 40
0.0798771023995331
 50
101.3864163667017948
 51
172.1218274412055962
  0
ARC
  5
8591
  8
0
 10
3855.7292911516587992
 20
191.0130183036415019
 30
0.0
 40
2.7813891239134412
 50
172.1218274412055962
 51
174.7189029935989879
  0
ARC
  5
8592
  8
0
 10
3852.8763864078928236
 20
191.2858277868301968
 30
0.0
 40
0.0849999999999977
 50
316.9730564496264833
 51
348.5973957734191799
  0
ARC
  5
8593
  8
0
 10
3852.9808814537900616
 20
191.1642609407990108
 30
0.0
 40
0.0763871483564237
 50
123.676801109353903
 51
168.8539996573344979
  0
ARC
  5
8594
  8
0
 10
3857.3045043291499496
 20
190.4721935283473897
 30
0.0
 40
4.4549999945611134
 50
170.8708281059290925
 51
181.3988548119388042
  0
ARC
  5
8595
  8
0
 10
3852.8668272545710352
 20
190.3638277867773922
 30
0.0
 40
0.0159999999471835
 50
181.3988546215481108
 51
270.0000000770450015
  0
LINE
  5
8596
  8
0
 10
3852.8668272545919535
 20
190.3478277868302087
 30
0.0
 11
3853.162404334592793
 21
190.3478277868302087
 31
0.0
  0
ARC
  5
8597
  8
0
 10
3853.162404334592793
 20
190.3318277868303028
 30
0.0
 40
0.0159999999999627
 50
359.9999999998728981
 51
90.0000000001042082
  0
LINE
  5
8598
  8
0
 10
3853.1784043345919599
 20
190.3318277868301891
 30
0.0
 11
3853.1784043345919599
 21
190.2623544206302029
 31
0.0
  0
ARC
  5
8599
  8
0
 10
3853.1944043345929458
 20
190.2623544206300892
 30
0.0
 40
0.0159999999998988
 50
179.9999999998834994
 51
255.000000001462098
  0
LINE
  5
859A
  8
0
 10
3853.1902632298711069
 20
190.2468996074094889
 30
0.0
 11
3853.2689043345931168
 21
190.2258277868301946
 31
0.0
  0
LINE
  5
859B
  8
0
 10
3853.2689043345931168
 20
190.2258277868301946
 30
0.0
 11
3853.3679043345928221
 21
190.2258277868301946
 31
0.0
  0
LINE
  5
859C
  8
0
 10
3853.3679043345928221
 20
190.2258277868301946
 30
0.0
 11
3853.4465454392930042
 21
190.2468996073301923
 31
0.0
  0
ARC
  5
859D
  8
0
 10
3853.4424043345629798
 20
190.2623544205796975
 30
0.0
 40
0.016000000030126
 50
285.0000000025307259
 51
0.0000001806807468
  0
LINE
  5
859E
  8
0
 10
3853.4584043345930695
 20
190.2623544206302029
 30
0.0
 11
3853.4584043343938902
 21
190.3253277868302007
 31
0.0
  0
ARC
  5
859F
  8
0
 10
3853.480904334493971
 20
190.3253277869011129
 30
0.0
 40
0.022500000099285
 50
359.9999998193151782
 51
180.0000001806716909
  0
LINE
  5
85A0
  8
0
 10
3853.5034043345931423
 20
190.3253277868302007
 30
0.0
 11
3853.5034043343939629
 21
190.2623544206302029
 31
0.0
  0
ARC
  5
85A1
  8
0
 10
3853.4424043340618482
 20
190.2623544208225894
 30
0.0
 40
0.061000000332335
 50
285.0000004800540978
 51
359.9999998193176225
  0
LINE
  5
85A2
  8
0
 10
3853.4581922963920988
 20
190.2034329452301904
 30
0.0
 11
3853.3738286995580893
 21
190.1808277868302071
 31
0.0
  0
LINE
  5
85A3
  8
0
 10
3853.2618286969927794
 20
190.1808277868302071
 30
0.0
 11
3853.1786163728920656
 21
190.2031244619302015
 31
0.0
  0
ARC
  5
85A4
  8
0
 10
3853.1944043347129991
 20
190.2620459374396944
 30
0.0
 40
0.0610000001200435
 50
180.0000001028321037
 51
254.9999999633207892
  0
LINE
  5
85A5
  8
0
 10
3853.1334043345927967
 20
190.262045937330214
 30
0.0
 11
3853.1334043345927967
 21
190.2868277869910116
 31
0.0
  0
ARC
  5
85A6
  8
0
 10
3853.117404334593175
 20
190.2868277868302016
 30
0.0
 40
0.0159999999999983
 50
359.9999999999748184
 51
90.0
  0
LINE
  5
85A7
  8
0
 10
3853.117404334593175
 20
190.3028277868301927
 30
0.0
 11
3852.8943982653931926
 21
190.3028277868301927
 31
0.0
  0
ARC
  5
85A8
  8
0
 10
3852.8943982653931926
 20
190.2868277868302016
 30
0.0
 40
0.0160000000000054
 50
89.9999999999739515
 51
182.4068416818691958
  0
ARC
  5
85A9
  8
0
 10
3857.3045044323639559
 20
190.472193538043598
 30
0.0
 40
4.4300000980615648
 50
182.4068416818691958
 51
189.4033652235127079
  0
ARC
  5
85AA
  8
0
 10
3852.9498171645718685
 20
189.7510169542516962
 30
0.0
 40
0.0160000000454164
 50
189.4033652234845135
 51
234.66525739426109
  0
ARC
  5
85AB
  8
0
 10
3852.8769447618988124
 20
189.6482277867833943
 30
0.0
 40
0.1100000000349809
 50
6.0001484592342971
 51
54.6652573942606566
  0
ARC
  5
85AC
  8
0
 10
3855.1911965823410355
 20
189.8914715163363951
 30
0.0
 40
2.217000000048539
 50
186.0001484358660946
 51
188.531644681514905
  0
ARC
  5
85AD
  8
0
 10
3855.1911968084032196
 20
189.8914715502492072
 30
0.0
 40
2.2170002286400372
 50
188.531644681514905
 51
190.1703832287732894
  0
ARC
  5
85AE
  8
0
 10
3853.0247808668441394
 20
189.5028277867710926
 30
0.0
 40
0.0159999999409375
 50
190.1703832287653029
 51
270.0000001769402047
  0
LINE
  5
85AF
  8
0
 10
3853.0247808668927973
 20
189.4868277868301902
 30
0.0
 11
3853.0423999731369804
 21
189.4868277868845894
 31
0.0
  0
ARC
  5
85B0
  8
0
 10
3853.0412324064700442
 20
189.4705481779814988
 30
0.0
 40
0.0163214238950597
 50
7.7607753861982367
 51
85.8977947992749762
  0
LINE
  5
85B1
  8
0
 10
3853.6234043345930331
 20
190.1808277868302071
 30
0.0
 11
3853.6234043345930331
 21
190.7688180479302105
 31
0.0
  0
ARC
  5
85B2
  8
0
 10
3853.5959043345928876
 20
190.7618180479302055
 30
0.0
 40
0.0274999999999963
 50
0.0
 51
180.0
  0
LINE
  5
85B3
  8
0
 10
3853.5684043345931968
 20
190.8055583089301876
 30
0.0
 11
3853.5684043345931968
 21
190.1808277868302071
 31
0.0
  0
LINE
  5
85B4
  8
0
 10
3853.4300584904931384
 20
190.2424819427301941
 30
0.0
 11
3853.4434043345931968
 21
190.2558277868301957
 31
0.0
  0
LINE
  5
85B5
  8
0
 10
3853.4434043345931968
 20
190.2558277868301957
 30
0.0
 11
3853.4434043345931968
 21
190.9468083089302013
 31
0.0
  0
LINE
  5
85B6
  8
0
 10
3853.4434043345931968
 20
190.9468083089302013
 30
0.0
 11
3853.4134043345929967
 21
190.9768083089302024
 31
0.0
  0
LINE
  5
85B7
  8
0
 10
3853.4134043345929967
 20
190.9768083089302024
 30
0.0
 11
3853.2234043345920327
 21
190.9768083089302024
 31
0.0
  0
LINE
  5
85B8
  8
0
 10
3853.2234043345920327
 20
190.9768083089302024
 30
0.0
 11
3853.1934043345931968
 21
190.9468083089302013
 31
0.0
  0
LINE
  5
85B9
  8
0
 10
3853.1934043345931968
 20
190.9468083089302013
 30
0.0
 11
3853.1934043345931968
 21
190.2558277868301957
 31
0.0
  0
LINE
  5
85BA
  8
0
 10
3853.1934043345931968
 20
190.2558277868301957
 30
0.0
 11
3853.2067501788528716
 21
190.2424819426697979
 31
0.0
  0
LINE
  5
85BB
  8
0
 10
3853.2234043345920327
 20
190.2380194750880094
 30
0.0
 11
3853.2234043345920327
 21
190.9768083089302024
 31
0.0
  0
LINE
  5
85BC
  8
0
 10
3853.4134043345929967
 20
190.2380194750880094
 30
0.0
 11
3853.4134043345929967
 21
190.9768083089302024
 31
0.0
  0
LINE
  5
85BD
  8
0
 10
3853.4434043345931968
 20
190.8205583089302024
 30
0.0
 11
3853.5534043345928694
 21
190.8205583089302024
 31
0.0
  0
LINE
  5
85BE
  8
0
 10
3853.5534043345928694
 20
190.8205583089302024
 30
0.0
 11
3853.5684043345931968
 21
190.8055583089301876
 31
0.0
  0
LINE
  5
85BF
  8
0
 10
3853.5534043345928694
 20
190.8205583089302024
 30
0.0
 11
3853.5534043345928694
 21
190.3820777868301946
 31
0.0
  0
LINE
  5
85C0
  8
0
 10
3853.5534043345928694
 20
190.3820777868301946
 30
0.0
 11
3853.5684043345931968
 21
190.3970777868302093
 31
0.0
  0
LINE
  5
85C1
  8
0
 10
3853.5534043345928694
 20
190.3820777868301946
 30
0.0
 11
3853.4434043345931968
 21
190.3820777868301946
 31
0.0
  0
LINE
  5
85C2
  8
0
 10
3853.6234043345930331
 20
190.7688180479302105
 30
0.0
 11
3853.6484043345931241
 21
190.7688180479302105
 31
0.0
  0
LINE
  5
85C3
  8
0
 10
3853.6484043345931241
 20
190.7688180479302105
 30
0.0
 11
3853.6484043345931241
 21
190.4338180479302025
 31
0.0
  0
LINE
  5
85C4
  8
0
 10
3853.6484043345931241
 20
190.4338180479302025
 30
0.0
 11
3853.6234043345930331
 21
190.4338180479302025
 31
0.0
  0
LINE
  5
85C5
  8
0
 10
3853.6484043345931241
 20
190.4442787746301917
 30
0.0
 11
3853.7132223091921333
 21
190.4442787746301917
 31
0.0
  0
ARC
  5
85C6
  8
0
 10
3853.6944248905069799
 20
190.5012582187152077
 30
0.0
 40
0.0599999999788246
 50
288.2576322744045001
 51
341.7423677256102224
  0
LINE
  5
85C7
  8
0
 10
3853.7514043345931896
 20
190.4824608000301964
 30
0.0
 11
3853.7514043345931896
 21
190.7201752957302006
 31
0.0
  0
ARC
  5
85C8
  8
0
 10
3853.6944248904928827
 20
190.701377877030211
 30
0.0
 40
0.0600000000000712
 50
18.2576322988224504
 51
71.7423660728867958
  0
LINE
  5
85C9
  8
0
 10
3853.7132223108278595
 20
190.7583573205930918
 30
0.0
 11
3853.6484043345931241
 21
190.7583573219170034
 31
0.0
  0
LINE
  5
85CA
  8
0
 10
3853.6484043345931241
 20
190.679837684530213
 30
0.0
 11
3853.7132223091921333
 21
190.679837684530213
 31
0.0
  0
ARC
  5
85CB
  8
0
 10
3853.701060476676048
 20
190.7190975028298965
 30
0.0
 40
0.041100407578802
 50
287.2118370140827892
 51
72.788162986734946
  0
ARC
  5
85CC
  8
0
 10
3853.6682345493800312
 20
190.623368207462903
 30
0.0
 40
0.0721990330490331
 50
4.8138936528299503
 51
51.4565817590883086
  0
ARC
  5
85CD
  8
0
 10
3853.5707690283079501
 20
190.6014487353290008
 30
0.0
 40
0.1717046746590516
 50
348.8501443851606041
 51
9.3778623140447426
  0
ARC
  5
85CE
  8
0
 10
3853.6687916706091528
 20
190.5783938975403942
 30
0.0
 40
0.0711683900551799
 50
308.6310469158270848
 51
351.8016165306905236
  0
LINE
  5
85CF
  8
0
 10
3853.6484043345931241
 20
190.5227984112302124
 30
0.0
 11
3853.7132223091921333
 21
190.5227984112302124
 31
0.0
  0
ARC
  5
85D0
  8
0
 10
3853.7013889856530113
 20
190.4835385929110885
 30
0.0
 40
0.0410044007450648
 50
286.773359073545123
 51
73.2266389673437317
  0
LINE
  5
85D1
  8
0
 10
3853.1504043345930768
 20
190.1808277868302071
 30
0.0
 11
3853.1504043345930768
 21
121.7428277868302047
 31
0.0
  0
ARC
  5
85D2
  8
0
 10
3853.0669510884918054
 20
121.7265574308389944
 30
0.0
 40
0.0165489624136014
 50
100.5283177976134965
 51
179.0639324698537109
  0
LINE
  5
85D3
  8
0
 10
3853.0504043345931677
 20
121.7268277868301993
 30
0.0
 11
3853.0504043345931677
 21
121.7088277868301986
 31
0.0
  0
ARC
  5
85D4
  8
0
 10
3853.0664043345927894
 20
121.7088277868301986
 30
0.0
 40
0.0159999999999911
 50
179.9999999999486988
 51
270.0000000000259774
  0
ARC
  5
85D5
  8
0
 10
3853.1844043345931823
 20
121.7088277868301986
 30
0.0
 40
0.0159999999999876
 50
269.9999999999478746
 51
0.0000000000382684
  0
ARC
  5
85D6
  8
0
 10
3853.3249765643508908
 20
121.7242357870897962
 30
0.0
 40
0.1255214997481749
 50
9.8279711593429528
 51
187.0509482342881995
  0
ARC
  5
85D7
  8
0
 10
3853.4733063291919279
 20
121.7498277868301955
 30
0.0
 40
0.0249999999999923
 50
189.5940682254081082
 51
0.0000000000081422
  0
ARC
  5
85D8
  8
0
 10
3853.3253993249090854
 20
121.7252219284506936
 30
0.0
 40
0.1746490206012812
 50
8.0992034644369184
 51
117.8317223323447962
  0
ARC
  5
85D9
  8
0
 10
3853.2364043345978644
 20
121.8938248282332069
 30
0.0
 40
0.0160000000052918
 50
180.0000000106988125
 51
297.7729252892726777
  0
LINE
  5
85DA
  8
0
 10
3853.2204043345927857
 20
121.8938248282301942
 30
0.0
 11
3853.2204043345927857
 21
122.3749152610301962
 31
0.0
  0
ARC
  5
85DB
  8
0
 10
3853.2364043347070037
 20
122.3749152609818935
 30
0.0
 40
0.0160000001138201
 50
88.0000002330448865
 51
179.9999998269900061
  0
LINE
  5
85DC
  8
0
 10
3853.2369627265929921
 20
122.3909055143301998
 30
0.0
 11
3854.4340695257042171
 21
122.349101628616495
 31
0.0
  0
ARC
  5
85DD
  8
0
 10
3854.4335149829357761
 20
122.3332215996324948
 30
0.0
 40
0.0158897085628615
 50
359.6159763789989938
 51
88.0000002330448723
  0
LINE
  5
85DE
  8
0
 10
3854.449404334593055
 20
122.3331151000301986
 30
0.0
 11
3854.449404334593055
 21
122.1493302594083019
 31
0.0
  0
ARC
  5
85DF
  8
0
 10
3854.4334043345061218
 20
122.1493261312402012
 30
0.0
 40
0.0160000000864642
 50
292.9696767783955806
 51
359.9999999642882926
  0
ARC
  5
85E0
  8
0
 10
3854.4657050168798378
 20
122.0736286551205012
 30
0.0
 40
0.0663009813296166
 50
113.1417618634274049
 51
179.8279147086662135
  0
LINE
  5
85E1
  8
0
 10
3854.3994043345928731
 20
122.0738277868301935
 30
0.0
 11
3854.3994043345928731
 21
121.8368277868301988
 31
0.0
  0
ARC
  5
85E2
  8
0
 10
3854.5434043345931059
 20
121.8368277868301988
 30
0.0
 40
0.1439999999999912
 50
179.9999999999992042
 51
270.0
  0
ARC
  5
85E3
  8
0
 10
3854.8994043345928731
 20
121.7088277868301986
 30
0.0
 40
0.0160000000000054
 50
269.9999999999739089
 51
359.9999999999748184
  0
LINE
  5
85E4
  8
0
 10
3854.9154043345929495
 20
121.7088277868301986
 30
0.0
 11
3854.9154043345929495
 21
121.7273767664301971
 31
0.0
  0
ARC
  5
85E5
  8
0
 10
3854.8993203170680317
 20
121.7273767664301971
 30
0.0
 40
0.0160840175246122
 50
359.9999999999740226
 51
73.8721695675490224
  0
LINE
  5
85E6
  8
0
 10
3854.8424043345930841
 20
121.7428277868302047
 30
0.0
 11
3854.8424043345930841
 21
190.1808277868302071
 31
0.0
  0
ARC
  5
85E7
  8
0
 10
3854.9232721491621305
 20
189.5523951855770974
 30
0.0
 40
0.13793560107886
 50
280.6324212529250985
 51
297.0068502300981095
  0
ARC
  5
85E8
  8
0
 10
3854.9282864079609681
 20
189.5404277867434928
 30
0.0
 40
0.1249999998917215
 50
297.4500467159177219
 51
318.807894959505802
  0
ARC
  5
85E9
  8
0
 10
3854.9282864078209059
 20
189.5404277868659051
 30
0.0
 40
0.1250000000774778
 50
318.8078949595046083
 51
348.3672963461085033
  0
LINE
  5
85EA
  8
0
 10
3855.0698802568708743
 20
190.3478277868302087
 30
0.0
 11
3854.8237684811929284
 21
190.3478277868302087
 31
0.0
  0
ARC
  5
85EB
  8
0
 10
3854.8237684811929284
 20
190.3318277868303028
 30
0.0
 40
0.0159999999999627
 50
89.9999999998957776
 51
180.0000000001269882
  0
LINE
  5
85EC
  8
0
 10
3854.8077684811919426
 20
190.3318277868301891
 30
0.0
 11
3854.8077684811928521
 21
190.2623544206302029
 31
0.0
  0
ARC
  5
85ED
  8
0
 10
3854.7917684811927757
 20
190.2623544206300892
 30
0.0
 40
0.0159999999998988
 50
284.9999999985378167
 51
0.0000000001164337
  0
LINE
  5
85EE
  8
0
 10
3854.7959095859141598
 20
190.2468996074094889
 30
0.0
 11
3854.7172684811930594
 21
190.2258277868301946
 31
0.0
  0
LINE
  5
85EF
  8
0
 10
3854.7172684811930594
 20
190.2258277868301946
 30
0.0
 11
3854.6182684811928993
 21
190.2258277868301946
 31
0.0
  0
LINE
  5
85F0
  8
0
 10
3854.6182684811928993
 20
190.2258277868301946
 30
0.0
 11
3854.5396273764931721
 21
190.2468996073301923
 31
0.0
  0
ARC
  5
85F1
  8
0
 10
3854.5437684812231964
 20
190.2623544205796975
 30
0.0
 40
0.016000000030126
 50
179.9999998193192141
 51
254.9999999974693026
  0
LINE
  5
85F2
  8
0
 10
3854.5277684811931067
 20
190.2623544206302029
 30
0.0
 11
3854.5277684813918313
 21
190.3253277868302007
 31
0.0
  0
ARC
  5
85F3
  8
0
 10
3854.5052684812922053
 20
190.3253277869011129
 30
0.0
 40
0.022500000099285
 50
359.9999998193273996
 51
180.0000001806847933
  0
LINE
  5
85F4
  8
0
 10
3854.4827684811930339
 20
190.3253277868302007
 30
0.0
 11
3854.4827684813922133
 21
190.2623544206302029
 31
0.0
  0
ARC
  5
85F5
  8
0
 10
3854.5437684817238733
 20
190.2623544208225894
 30
0.0
 40
0.061000000332335
 50
180.0000001806814964
 51
254.9999995199459022
  0
LINE
  5
85F6
  8
0
 10
3854.5279805193931679
 20
190.2034329452301904
 30
0.0
 11
3854.6123441162271774
 21
190.1808277868302071
 31
0.0
  0
LINE
  5
85F7
  8
0
 10
3854.724344118792942
 20
190.1808277868302071
 30
0.0
 11
3854.8075564428932012
 21
190.2031244619302015
 31
0.0
  0
ARC
  5
85F8
  8
0
 10
3854.7917684810731771
 20
190.2620459374396944
 30
0.0
 40
0.0610000001200435
 50
285.0000000366791824
 51
359.999999897167811
  0
LINE
  5
85F9
  8
0
 10
3854.8527684811920153
 20
190.262045937330214
 30
0.0
 11
3854.8527684811920153
 21
190.2868277869910116
 31
0.0
  0
ARC
  5
85FA
  8
0
 10
3854.8687684811930012
 20
190.2868277868302016
 30
0.0
 40
0.0159999999999983
 50
90.0
 51
180.0000000000252101
  0
LINE
  5
85FB
  8
0
 10
3854.8687684811930012
 20
190.3028277868301927
 30
0.0
 11
3855.0413249458929386
 21
190.3028277868301927
 31
0.0
  0
ARC
  5
85FC
  8
0
 10
3854.9621590258579999
 20
189.5028505851684031
 30
0.0
 40
0.0160411493870194
 50
267.2591091218662882
 51
349.239258664623776
  0
LINE
  5
85FD
  8
0
 10
3854.9613919488929241
 20
189.4868277868301902
 30
0.0
 11
3854.9464043346420112
 21
189.4868277868764892
 31
0.0
  0
LINE
  5
85FE
  8
0
 10
3854.3627684811931431
 20
190.1808277868302071
 30
0.0
 11
3854.3627684811931431
 21
190.7688180479302105
 31
0.0
  0
ARC
  5
85FF
  8
0
 10
3854.3902684811928339
 20
190.7618180479302055
 30
0.0
 40
0.0274999999999963
 50
0.0
 51
180.0
  0
LINE
  5
8600
  8
0
 10
3854.4177684811929794
 20
190.8055583089301876
 30
0.0
 11
3854.4177684811929794
 21
190.1808277868302071
 31
0.0
  0
LINE
  5
8601
  8
0
 10
3854.5561143252930378
 20
190.2424819427301941
 30
0.0
 11
3854.5427684811929794
 21
190.2558277868301957
 31
0.0
  0
LINE
  5
8602
  8
0
 10
3854.5427684811929794
 20
190.2558277868301957
 30
0.0
 11
3854.5427684811929794
 21
190.9468083089302013
 31
0.0
  0
LINE
  5
8603
  8
0
 10
3854.5427684811929794
 20
190.9468083089302013
 30
0.0
 11
3854.5727684811931795
 21
190.9768083089302024
 31
0.0
  0
LINE
  5
8604
  8
0
 10
3854.5727684811931795
 20
190.9768083089302024
 30
0.0
 11
3854.7627684811927793
 21
190.9768083089302024
 31
0.0
  0
LINE
  5
8605
  8
0
 10
3854.7627684811927793
 20
190.9768083089302024
 30
0.0
 11
3854.7927684811929794
 21
190.9468083089302013
 31
0.0
  0
LINE
  5
8606
  8
0
 10
3854.7927684811929794
 20
190.9468083089302013
 30
0.0
 11
3854.7927684811929794
 21
190.2558277868301957
 31
0.0
  0
LINE
  5
8607
  8
0
 10
3854.7927684811929794
 20
190.2558277868301957
 30
0.0
 11
3854.7794226369328499
 21
190.2424819426697979
 31
0.0
  0
LINE
  5
8608
  8
0
 10
3854.7627684811927793
 20
190.2380194750880094
 30
0.0
 11
3854.7627684811927793
 21
190.9768083089302024
 31
0.0
  0
LINE
  5
8609
  8
0
 10
3854.5727684811931795
 20
190.2380194750880094
 30
0.0
 11
3854.5727684811931795
 21
190.9768083089302024
 31
0.0
  0
LINE
  5
860A
  8
0
 10
3854.5427684811929794
 20
190.8205583089302024
 30
0.0
 11
3854.4327684811919426
 21
190.8205583089302024
 31
0.0
  0
LINE
  5
860B
  8
0
 10
3854.4327684811919426
 20
190.8205583089302024
 30
0.0
 11
3854.4177684811929794
 21
190.8055583089301876
 31
0.0
  0
LINE
  5
860C
  8
0
 10
3854.4327684811919426
 20
190.8205583089302024
 30
0.0
 11
3854.4327684811919426
 21
190.3820777868301946
 31
0.0
  0
LINE
  5
860D
  8
0
 10
3854.4327684811919426
 20
190.3820777868301946
 30
0.0
 11
3854.4177684811929794
 21
190.3970777868302093
 31
0.0
  0
LINE
  5
860E
  8
0
 10
3854.4327684811919426
 20
190.3820777868301946
 30
0.0
 11
3854.5427684811929794
 21
190.3820777868301946
 31
0.0
  0
LINE
  5
860F
  8
0
 10
3854.3627684811931431
 20
190.7688180479302105
 30
0.0
 11
3854.3377684811930521
 21
190.7688180479302105
 31
0.0
  0
LINE
  5
8610
  8
0
 10
3854.3377684811930521
 20
190.7688180479302105
 30
0.0
 11
3854.3377684811930521
 21
190.4338180479302025
 31
0.0
  0
LINE
  5
8611
  8
0
 10
3854.3377684811930521
 20
190.4338180479302025
 30
0.0
 11
3854.3627684811931431
 21
190.4338180479302025
 31
0.0
  0
LINE
  5
8612
  8
0
 10
3854.3377684811930521
 20
190.4442787746301917
 30
0.0
 11
3854.2729505065931335
 21
190.4442787746301917
 31
0.0
  0
ARC
  5
8613
  8
0
 10
3854.2917479252778321
 20
190.5012582187152077
 30
0.0
 40
0.0599999999788246
 50
198.2576322743896924
 51
251.7423677255954999
  0
LINE
  5
8614
  8
0
 10
3854.2347684811929867
 20
190.4824608000301964
 30
0.0
 11
3854.2347684811929867
 21
190.7201752957302006
 31
0.0
  0
ARC
  5
8615
  8
0
 10
3854.2917479252928388
 20
190.701377877030211
 30
0.0
 40
0.0600000000000712
 50
108.2576339271132042
 51
161.7423677011774998
  0
LINE
  5
8616
  8
0
 10
3854.2729505049569525
 20
190.7583573205930918
 30
0.0
 11
3854.3377684811930521
 21
190.7583573219170034
 31
0.0
  0
LINE
  5
8617
  8
0
 10
3854.3377684811930521
 20
190.679837684530213
 30
0.0
 11
3854.2729505065931335
 21
190.679837684530213
 31
0.0
  0
ARC
  5
8618
  8
0
 10
3854.2851123391092187
 20
190.7190975028298965
 30
0.0
 40
0.041100407578802
 50
107.2118370132649972
 51
252.7881629859172108
  0
ARC
  5
8619
  8
0
 10
3854.3179382664047807
 20
190.623368207462903
 30
0.0
 40
0.0721990330490331
 50
128.5434182409117057
 51
175.1861063471700106
  0
ARC
  5
861A
  8
0
 10
3854.4154037874768619
 20
190.6014487353290008
 30
0.0
 40
0.1717046746590516
 50
170.6221376859552095
 51
191.1498556148393959
  0
ARC
  5
861B
  8
0
 10
3854.3173811451770234
 20
190.5783938975403942
 30
0.0
 40
0.0711683900551799
 50
188.1983834693095048
 51
231.3689530841730004
  0
LINE
  5
861C
  8
0
 10
3854.3377684811930521
 20
190.5227984112302124
 30
0.0
 11
3854.2729505065931335
 21
190.5227984112302124
 31
0.0
  0
ARC
  5
861D
  8
0
 10
3854.2847838301331649
 20
190.4835385929110885
 30
0.0
 40
0.0410044007450648
 50
106.7733610326561973
 51
253.2266409264549054
  0
ARC
  5
861E
  8
0
 10
3853.984286407892796
 20
187.7899052156809034
 30
0.0
 40
3.8369225711493078
 50
76.3101948880543546
 51
90.0
  0
ARC
  5
861F
  8
0
 10
3854.833186407894118
 20
191.274927786831114
 30
0.0
 40
0.2499999999989034
 50
7.267166481525809
 51
76.3101948880543546
  0
ARC
  5
8620
  8
0
 10
3848.8976562180578185
 20
190.5157713523464054
 30
0.0
 40
6.2338814264576481
 50
350.7639856092005743
 51
7.2877204624947041
  0
ARC
  5
8621
  8
0
 10
3855.0413249459129474
 20
190.2868277868597886
 30
0.0
 40
0.015999999970397
 50
357.892539625342522
 51
90.0000000714170199
  0
ARC
  5
8622
  8
0
 10
3848.8203951020491331
 20
190.5187403054046058
 30
0.0
 40
6.241251120659677
 50
350.6044069738525764
 51
357.86510700610512
  0
ARC
  5
8623
  8
0
 10
3854.946648991796792
 20
189.4329399824441964
 30
0.0
 40
0.0162450446457466
 50
180.3957136720351002
 51
277.332513084510083
  0
LINE
  5
8624
  8
0
 10
3854.9304043345928221
 20
189.4328277868301882
 30
0.0
 11
3854.9304043345928221
 21
189.4707414008369142
 31
0.0
  0
ARC
  5
8625
  8
0
 10
3854.9464053415699709
 20
189.4708265533078873
 30
0.0
 40
0.0160012335539599
 50
90.0036056958280142
 51
180.3049077571027112
  0
ARC
  5
8626
  8
0
 10
3855.0684986627811668
 20
190.3639586965107071
 30
0.0
 40
0.0161899675524334
 50
274.8953713833727761
 51
358.2945177483201178
  0
ARC
  5
8627
  8
0
 10
3849.2925995392251934
 20
190.5359365262806079
 30
0.0
 40
5.7946488502849141
 50
358.2945177483201178
 51
7.5854725457802248
  0
ARC
  5
8628
  8
0
 10
3854.831772694432857
 20
191.273590598453211
 30
0.0
 40
0.2065746942303388
 50
7.5854725457794192
 51
79.2276217316484832
  0
ARC
  5
8629
  8
0
 10
3854.0163199911849006
 20
186.9784769792366035
 30
0.0
 40
4.5784122920428514
 50
79.2489914941512694
 51
90.2969363121928552
  0
ARC
  5
862A
  8
0
 10
3854.7559955144251944
 20
188.2472956242428097
 30
0.0
 40
0.2500452550735515
 50
0.005138200495937
 51
44.1505702688520572
  0
LINE
  5
862B
  8
0
 10
3855.0060407684932215
 20
188.2473180479302073
 30
0.0
 11
3855.0060349213308655
 21
124.0823186567955929
 31
0.0
  0
ARC
  5
862C
  8
0
 10
3854.7402566719129027
 20
124.068864753653699
 30
0.0
 40
0.2661185551094399
 50
342.8565215291329764
 51
2.8978836812894051
  0
ARC
  5
862D
  8
0
 10
3854.7615297556130827
 20
124.0623026237204982
 30
0.0
 40
0.2438563530768417
 50
315.4812060192002718
 51
342.8565215291329764
  0
ARC
  5
862E
  8
0
 10
3854.7562788071159048
 20
124.0823203532848993
 30
0.0
 40
0.2250266157959567
 50
322.7516366503211884
 51
359.9945449781623097
  0
LINE
  5
862F
  8
0
 10
3854.981305421893012
 20
124.0823188938303048
 30
0.0
 11
3854.9813054358928639
 21
188.2473180479302073
 31
0.0
  0
ARC
  5
8630
  8
0
 10
3854.7562871738591639
 20
188.2473180479829011
 30
0.0
 40
0.2250182620334513
 50
359.9999999865701739
 51
37.2490856503717112
  0
CIRCLE
  5
8631
  8
0
 10
3853.9964043345930804
 20
178.961827786830213
 30
0.0
 40
0.0940000000000012
  0
CIRCLE
  5
8632
  8
0
 10
3853.9964043345930804
 20
132.961827786830213
 30
0.0
 40
0.0940000000000012
  0
ARC
  5
8633
  8
0
 10
3853.2128979532189987
 20
123.0182959884665053
 30
0.0
 40
0.0625063894617985
 50
0.0291476140072711
 51
178.8417762382312048
  0
LINE
  5
8634
  8
0
 10
3853.2754043345921673
 20
123.0183277868301985
 30
0.0
 11
3853.2756718099171849
 21
122.4925487006654947
 31
0.0
  0
LINE
  5
8635
  8
0
 10
3853.2756718099171849
 20
122.4925487006654947
 30
0.0
 11
3854.8424043345930841
 21
122.4378277868301979
 31
0.0
  0
ARC
  5
8636
  8
0
 10
3853.2065636213010293
 20
122.9927931014749021
 30
0.0
 40
0.0561592974198975
 50
84.3565712570513142
 51
179.9646127233571917
  0
ARC
  5
8637
  8
0
 10
3853.2075653383690224
 20
123.0019999663485066
 30
0.0
 40
0.0468986399989324
 50
4.7633561540447369
 51
84.468337155660393
  0
ARC
  5
8638
  8
0
 10
3853.2383315056999891
 20
123.0048334816206932
 30
0.0
 40
0.016005695948285
 50
270.0217932608310889
 51
3.8007604898734022
  0
LINE
  5
8639
  8
0
 10
3853.2383375936929042
 20
122.9888277868301998
 30
0.0
 11
3853.2264043345930986
 21
122.9888277868301998
 31
0.0
  0
ARC
  5
863A
  8
0
 10
3853.2264043345930986
 20
122.9728277868301944
 30
0.0
 40
0.0159999999999983
 50
90.0
 51
180.0
  0
LINE
  5
863B
  8
0
 10
3853.2104043345930222
 20
122.9728277868301944
 30
0.0
 11
3853.2104043345930222
 21
122.4773266423301976
 31
0.0
  0
ARC
  5
863C
  8
0
 10
3853.226404334660856
 20
122.4773266423301976
 30
0.0
 40
0.016000000068388
 50
180.0000000000113971
 51
267.999999932785272
  0
LINE
  5
863D
  8
0
 10
3853.2258459426930131
 20
122.461336389030194
 30
0.0
 11
3854.7999627264748597
 21
122.4063670178220065
 31
0.0
  0
ARC
  5
863E
  8
0
 10
3854.7994043345070168
 20
122.3903767645042961
 30
0.0
 40
0.0160000000861158
 50
0.0000068967778735
 51
87.9999999327853573
  0
LINE
  5
863F
  8
0
 10
3854.8154043345930404
 20
122.3903767664301938
 30
0.0
 11
3854.8154043612607893
 21
122.1688277868302066
 31
0.0
  0
ARC
  5
8640
  8
0
 10
3854.7994043631870227
 20
122.1688277849041953
 30
0.0
 40
0.0159999980740794
 50
269.9998976049005819
 51
0.000006896776245
  0
LINE
  5
8641
  8
0
 10
3854.7994043345920545
 20
122.1528277868302013
 30
0.0
 11
3854.7814043345929349
 21
122.1528278189986025
 31
0.0
  0
ARC
  5
8642
  8
0
 10
3854.7814043631869936
 20
122.1688278475927945
 30
0.0
 40
0.0160000285943027
 50
180.0002175898167138
 51
269.9998976048744908
  0
LINE
  5
8643
  8
0
 10
3854.765404334591949
 20
122.1688277868302066
 30
0.0
 11
3854.7654036765929959
 21
122.3420923277289063
 31
0.0
  0
ARC
  5
8644
  8
0
 10
3854.7494035898898801
 20
122.3420922669661053
 30
0.0
 40
0.0160000867036291
 50
0.0002175898403475
 51
87.9973424518385343
  0
LINE
  5
8645
  8
0
 10
3854.7499627265419804
 20
122.3580825809320061
 30
0.0
 11
3854.5159631058600098
 21
122.366264894596398
 31
0.0
  0
ARC
  5
8646
  8
0
 10
3854.5154039843400824
 20
122.3502750133845041
 30
0.0
 40
0.0159996536851652
 50
87.9973424518385343
 51
180.040199428795205
  0
LINE
  5
8647
  8
0
 10
3854.4994043345927821
 20
122.3502637878302011
 30
0.0
 11
3854.4995515343421175
 21
122.1404617271687982
 31
0.0
  0
ARC
  5
8648
  8
0
 10
3854.4526300176921723
 20
122.1356285767536036
 30
0.0
 40
0.0471697791780093
 50
290.2716624643279033
 51
5.8810105652215379
  0
ARC
  5
8649
  8
0
 10
3854.4513146630561096
 20
122.1409452744079971
 30
0.0
 40
0.0526164112560007
 50
280.8328449584245732
 51
289.6093545735349721
  0
ARC
  5
864A
  8
0
 10
3854.4654043345931314
 20
122.0738277868301935
 30
0.0
 40
0.0159999999999969
 50
105.2210997659777973
 51
180.0000000000121929
  0
LINE
  5
864B
  8
0
 10
3854.449404334593055
 20
122.0738277868301935
 30
0.0
 11
3854.449404334593055
 21
121.8498756102301996
 31
0.0
  0
ARC
  5
864C
  8
0
 10
3854.5434043345931059
 20
121.8498756102301996
 30
0.0
 40
0.0940000000000083
 50
180.0000000000023874
 51
267.9999999998921112
  0
LINE
  5
864D
  8
0
 10
3854.5401237819019116
 20
121.7559328724904049
 30
0.0
 11
3854.8424932467919461
 21
121.7453738981051004
 31
0.0
  0
ARC
  5
864E
  8
0
 10
3854.7682684811929903
 20
122.1863180479302997
 30
0.0
 40
0.239000000000126
 50
270.0
 51
288.0748165916874086
  0
LINE
  5
864F
  8
0
 10
3854.7682684811929903
 20
121.9473180479301959
 30
0.0
 11
3854.5592684811931576
 21
121.9473180479301959
 31
0.0
  0
ARC
  5
8650
  8
0
 10
3854.5592684811931576
 20
121.9633180479302013
 30
0.0
 40
0.0159999999999983
 50
179.9999999999234035
 51
270.0
  0
LINE
  5
8651
  8
0
 10
3854.5432684811930812
 20
121.9633180479302013
 30
0.0
 11
3854.5432684811930812
 21
122.021318047930194
 31
0.0
  0
ARC
  5
8652
  8
0
 10
3854.5592684811931576
 20
122.021318047930194
 30
0.0
 40
0.0160000000000196
 50
90.0000000003647642
 51
179.9999999999218119
  0
LINE
  5
8653
  8
0
 10
3854.5592684811931576
 20
122.0373180479301993
 30
0.0
 11
3854.5672684811929685
 21
122.0373180479301993
 31
0.0
  0
ARC
  5
8654
  8
0
 10
3854.5672684811929685
 20
122.0213180479302935
 30
0.0
 40
0.0159999999998988
 50
359.9999999994658992
 51
90.0000000003647642
  0
LINE
  5
8655
  8
0
 10
3854.5832684811930449
 20
122.021318047930194
 30
0.0
 11
3854.5832684811930449
 21
122.0033180479301933
 31
0.0
  0
ARC
  5
8656
  8
0
 10
3854.5992684811922118
 20
122.0033180479299943
 30
0.0
 40
0.015999999999849
 50
179.9999999994487041
 51
270.0000000011464181
  0
LINE
  5
8657
  8
0
 10
3854.6232684811980107
 20
122.1763180479301951
 30
0.0
 11
3854.6232684811980107
 21
122.1823180479301953
 31
0.0
  0
ARC
  5
8658
  8
0
 10
3854.6182684811979016
 20
122.1823180479302948
 30
0.0
 40
0.0049999999998462
 50
359.9999999983161842
 51
90.000000063261794
  0
LINE
  5
8659
  8
0
 10
3854.6182684811928993
 20
122.187318047930205
 30
0.0
 11
3854.5992684811931213
 21
122.1873180479092014
 31
0.0
  0
ARC
  5
865A
  8
0
 10
3854.5992684812108564
 20
122.171318047891603
 30
0.0
 40
0.0160000000176623
 50
90.000000063261794
 51
179.9999998616204948
  0
LINE
  5
865B
  8
0
 10
3854.5432684811930812
 20
122.0273180479301942
 30
0.0
 11
3854.5032684811931176
 21
122.0273180479301942
 31
0.0
  0
LINE
  5
865C
  8
0
 10
3854.5032684811931176
 20
122.0273180479301942
 30
0.0
 11
3854.5032684811931176
 21
122.2423180479301976
 31
0.0
  0
ARC
  5
865D
  8
0
 10
3854.5282684811932086
 20
122.2423180479301976
 30
0.0
 40
0.0249999999999915
 50
89.9999999999739515
 51
179.9999999999878071
  0
LINE
  5
865E
  8
0
 10
3854.5282684811932086
 20
122.2673180479302033
 30
0.0
 11
3854.7182684811928084
 21
122.2673180479301038
 31
0.0
  0
LINE
  5
865F
  8
0
 10
3854.7182684811928084
 20
122.2673180479301038
 30
0.0
 11
3854.7182684811928084
 21
122.035318047930204
 31
0.0
  0
LINE
  5
8660
  8
0
 10
3854.7182684811928084
 20
122.035318047930204
 30
0.0
 11
3854.6282684811931176
 21
122.035318047930204
 31
0.0
  0
LINE
  5
8661
  8
0
 10
3854.6282684811931176
 20
122.035318047930204
 30
0.0
 11
3854.6282684811931176
 21
121.9783180479302018
 31
0.0
  0
LINE
  5
8662
  8
0
 10
3854.6282684811931176
 20
121.9783180479302018
 30
0.0
 11
3854.5992684811931213
 21
121.9783180479302018
 31
0.0
  0
LINE
  5
8663
  8
0
 10
3854.5992684811931213
 20
121.9783180479302018
 30
0.0
 11
3854.5992684811931213
 21
122.1763180479301951
 31
0.0
  0
LINE
  5
8664
  8
0
 10
3854.5992684811931213
 20
122.1763180479301951
 30
0.0
 11
3854.6282684811931176
 21
122.1763180479301951
 31
0.0
  0
LINE
  5
8665
  8
0
 10
3854.6282684811931176
 20
122.1763180479301951
 30
0.0
 11
3854.6282684811931176
 21
122.119318047930193
 31
0.0
  0
LINE
  5
8666
  8
0
 10
3854.6282684811931176
 20
122.119318047930193
 30
0.0
 11
3854.6782684811928448
 21
122.119318047930193
 31
0.0
  0
LINE
  5
8667
  8
0
 10
3854.6782684811928448
 20
122.119318047930193
 30
0.0
 11
3854.6782684811928448
 21
122.2273180479301971
 31
0.0
  0
LINE
  5
8668
  8
0
 10
3854.6782684811928448
 20
122.2273180479301971
 30
0.0
 11
3854.5432684811930812
 21
122.2273180479301971
 31
0.0
  0
LINE
  5
8669
  8
0
 10
3854.5432684811930812
 20
122.2273180479301971
 30
0.0
 11
3854.5432684811930812
 21
122.0273180479301942
 31
0.0
  0
LINE
  5
866A
  8
0
 10
3854.5832684811930449
 20
122.171318047891603
 30
0.0
 11
3854.5832684811930449
 21
122.153318047930199
 31
0.0
  0
ARC
  5
866B
  8
0
 10
3854.5672684811929685
 20
122.153318047930199
 30
0.0
 40
0.0160000000000054
 50
270.0000000000259774
 51
359.999999999992724
  0
LINE
  5
866C
  8
0
 10
3854.5672684811929685
 20
122.1373180479301936
 30
0.0
 11
3854.5592684811931576
 21
122.1373180479301936
 31
0.0
  0
ARC
  5
866D
  8
0
 10
3854.5592684811931576
 20
122.153318047930199
 30
0.0
 40
0.0159999999999911
 50
179.9999999999616875
 51
270.0000000000259774
  0
LINE
  5
866E
  8
0
 10
3854.5432684811930812
 20
122.1438180479301963
 30
0.0
 11
3854.5463940880040354
 21
122.1438180479301963
 31
0.0
  0
LINE
  5
866F
  8
0
 10
3854.5801428743820907
 20
122.1438180479301963
 30
0.0
 11
3854.589268481192903
 21
122.1438180479301963
 31
0.0
  0
ARC
  5
8670
  8
0
 10
3854.589268481192903
 20
122.1488180479302059
 30
0.0
 40
0.0050000000000026
 50
270.0
 51
359.9999999999593001
  0
LINE
  5
8671
  8
0
 10
3854.5942684811930121
 20
122.1488180479302059
 30
0.0
 11
3854.5942684811930121
 21
122.1823180479301953
 31
0.0
  0
ARC
  5
8672
  8
0
 10
3854.5992684811931213
 20
122.1823180479301953
 30
0.0
 40
0.0050000000000026
 50
89.9999997978384414
 51
179.9999999999267004
  0
ARC
  5
8673
  8
0
 10
3854.6072684811920226
 20
122.1713180479301997
 30
0.0
 40
0.0160000000000054
 50
18.2099568643103389
 51
89.9999999999739515
  0
ARC
  5
8674
  8
0
 10
3854.556239043946789
 20
122.0618180478027028
 30
0.0
 40
0.0730000000319944
 50
60.9398843580073333
 51
100.2345938203543056
  0
ARC
  5
8675
  8
0
 10
3854.5892684811951767
 20
122.1212575656317938
 30
0.0
 40
0.0049999999972325
 50
359.9999999813949785
 51
60.9398843580065375
  0
LINE
  5
8676
  8
0
 10
3854.5942684811930121
 20
122.1212575656302022
 30
0.0
 11
3854.5942684811748222
 21
122.0663785301301942
 31
0.0
  0
ARC
  5
8677
  8
0
 10
3854.5892684812220068
 20
122.0663785301318001
 30
0.0
 40
0.0049999999530996
 50
299.0601153913095231
 51
359.9999999814137936
  0
ARC
  5
8678
  8
0
 10
3854.5562390437357863
 20
122.1258180490001024
 30
0.0
 40
0.0730000010113745
 50
259.7654064865075156
 51
299.0601153913095231
  0
LINE
  5
8679
  8
0
 10
3854.5432684811930812
 20
122.0438180479786041
 30
0.0
 11
3854.589268481192903
 21
122.0438180490919962
 31
0.0
  0
ARC
  5
867A
  8
0
 10
3854.5892684813129563
 20
122.0388180492130061
 30
0.0
 40
0.0049999998789794
 50
359.9999852996688219
 51
90.000001386808961
  0
LINE
  5
867B
  8
0
 10
3854.5942684811930121
 20
122.0388180479302065
 30
0.0
 11
3854.5942684811930121
 21
122.0053180479303023
 31
0.0
  0
ARC
  5
867C
  8
0
 10
3854.5992684811931213
 20
122.0053180479302029
 30
0.0
 40
0.0050000000000168
 50
179.9999999999593001
 51
269.9999999998436806
  0
ARC
  5
867D
  8
0
 10
3854.5592684811931576
 20
122.2113180479302059
 30
0.0
 40
0.0160000000000054
 50
90.0000000000260485
 51
179.9999999999870113
  0
ARC
  5
867E
  8
0
 10
3854.6472684811928957
 20
122.2113180479302059
 30
0.0
 40
0.0159999999999947
 50
359.9999999999869829
 51
90.0
  0
LINE
  5
867F
  8
0
 10
3854.6632684811929721
 20
122.2113180479302059
 30
0.0
 11
3854.6632684811929721
 21
122.119318047930193
 31
0.0
  0
LINE
  5
8680
  8
0
 10
3854.6632684811929721
 20
122.035318047930204
 30
0.0
 11
3854.6632684811929721
 21
122.008318047930203
 31
0.0
  0
ARC
  5
8681
  8
0
 10
3854.6792684811930485
 20
122.008318047930203
 30
0.0
 40
0.0160000000000054
 50
179.9999999999747047
 51
269.9999999999739089
  0
LINE
  5
8682
  8
0
 10
3854.6792684811930485
 20
121.9923180479301976
 30
0.0
 11
3854.7762601432909833
 21
121.9923180479301976
 31
0.0
  0
ARC
  5
8683
  8
0
 10
3854.7762601432909833
 20
122.1482537110373983
 30
0.0
 40
0.1559356631072255
 50
269.9999999999739089
 51
295.1024607745890762
  0
ARC
  5
8684
  8
0
 10
3854.8179045203442001
 20
122.4621739472617037
 30
0.0
 40
0.1893640156769119
 50
0.0436004744401291
 51
51.6475587689185218
  0
LINE
  5
8685
  8
0
 10
3855.007268481193023
 20
122.4623180479301965
 30
0.0
 11
3855.0074785093979699
 21
122.1863181278429948
 31
0.0
  0
ARC
  5
8686
  8
0
 10
3854.7698146614598045
 20
122.1861372723137009
 30
0.0
 40
0.2376639167518896
 50
314.1659398769024847
 51
0.0436004744393149
  0
ARC
  5
8687
  8
0
 10
3854.7684944287962026
 20
122.1862623767163001
 30
0.0
 40
0.1937740603936031
 50
329.4700247262596235
 51
0.0164610559145815
  0
LINE
  5
8688
  8
0
 10
3854.9622684811929503
 20
122.1863180479302002
 30
0.0
 11
3854.962189186498108
 21
122.4623180365395001
 31
0.0
  0
ARC
  5
8689
  8
0
 10
3854.817646260993115
 20
122.4622765094102022
 30
0.0
 40
0.1445429314696753
 50
0.0164610559153958
 51
35.4430102083183129
  0
CIRCLE
  5
868A
  8
0
 10
3853.9964043345930804
 20
155.9638277867302065
 30
0.0
 40
0.0940000000000005
  0
LINE
  5
868B
  8
0
 10
3853.0574043345927748
 20
156.7080482401302106
 30
0.0
 11
3851.3336226496721793
 21
156.7080492526301896
 31
0.0
  0
ARC
  5
868C
  8
0
 10
3851.3336225977950562
 20
156.6200928879893866
 30
0.0
 40
0.0879563646408086
 50
89.9999662065041264
 51
161.0642148558960116
  0
ARC
  5
868D
  8
0
 10
3852.2424791953808381
 20
156.1486886194049077
 30
0.0
 40
1.1109077475654181
 50
153.2541012824559061
 51
206.9774137948145096
  0
ARC
  5
868E
  8
0
 10
3851.3383742729979531
 20
155.6856193261394878
 30
0.0
 40
0.0951502191555963
 50
205.4458480146066961
 51
267.1508919371156026
  0
LINE
  5
868F
  8
0
 10
3851.3336447527731252
 20
155.5905867220301957
 30
0.0
 11
3853.0574043345927748
 21
155.5905867220301957
 31
0.0
  0
ENDSEC
  0
EOF
