  0
SECTION
  2
HEADER
  9
$ACADVER
  1
AC1009
  9
$INSBASE
 10
3814.4029156448868889
 20
203.9192392360222073
 30
0.0
  9
$EXTMIN
 10
3784.7466656448868889
 20
201.0679063492445096
 30
0.0
  9
$EXTMAX
 10
3844.1216656448868889
 20
205.0678725459445104
 30
0.0
  9
$LIMMIN
 10
0.0
 20
0.0
  9
$LIMMAX
 10
11.6929133858000007
 20
8.2677165353999982
  9
$ORTHOMODE
 70
     1
  9
$REGENMODE
 70
     1
  9
$FILLMODE
 70
     1
  9
$QTEXTMODE
 70
     0
  9
$MIRRTEXT
 70
     0
  9
$DRAGMODE
 70
     2
  9
$LTSCALE
 40
0.6431102362
  9
$OSMODE
 70
  4095
  9
$ATTMODE
 70
     1
  9
$TEXTSIZE
 40
0.2
  9
$TRACEWID
 40
0.05
  9
$TEXTSTYLE
  7
STANDARD
  9
$CLAYER
  8
0
  9
$CELTYPE
  6
BYLAYER
  9
$CECOLOR
 62
   256
  9
$DIMSCALE
 40
1.0
  9
$DIMASZ
 40
0.1875
  9
$DIMEXO
 40
0.0625
  9
$DIMDLI
 40
0.4443307087
  9
$DIMRND
 40
0.0
  9
$DIMDLE
 40
0.0
  9
$DIMEXE
 40
0.125
  9
$DIMTP
 40
0.01
  9
$DIMTM
 40
0.01
  9
$DIMTXT
 40
2.0
  9
$DIMCEN
 40
0.1052362205
  9
$DIMTSZ
 40
0.0
  9
$DIMTOL
 70
     1
  9
$DIMLIM
 70
     0
  9
$DIMTIH
 70
     1
  9
$DIMTOH
 70
     1
  9
$DIMSE1
 70
     0
  9
$DIMSE2
 70
     0
  9
$DIMTAD
 70
     0
  9
$DIMZIN
 70
     0
  9
$DIMBLK
  1

  9
$DIMASO
 70
     1
  9
$DIMSHO
 70
     1
  9
$DIMPOST
  1
\X
  9
$DIMAPOST
  1

  9
$DIMALT
 70
     1
  9
$DIMALTD
 70
     2
  9
$DIMALTF
 40
25.3999999999999986
  9
$DIMLFAC
 40
1.0
  9
$DIMTOFL
 70
     0
  9
$DIMTVP
 40
0.0
  9
$DIMTIX
 70
     0
  9
$DIMSOXD
 70
     0
  9
$DIMSAH
 70
     0
  9
$DIMBLK1
  1

  9
$DIMBLK2
  1

  9
$DIMSTYLE
  2
STANDARD
  9
$DIMCLRD
 70
     0
  9
$DIMCLRE
 70
     0
  9
$DIMCLRT
 70
     0
  9
$DIMTFAC
 40
1.0
  9
$DIMGAP
 40
0.09
  9
$LUNITS
 70
     2
  9
$LUPREC
 70
     4
  9
$SKETCHINC
 40
0.1
  9
$FILLETRAD
 40
0.0
  9
$AUNITS
 70
     0
  9
$AUPREC
 70
     0
  9
$MENU
  1
.
  9
$ELEVATION
 40
0.0
  9
$PELEVATION
 40
0.0
  9
$THICKNESS
 40
0.0
  9
$LIMCHECK
 70
     0
  9
$BLIPMODE
 70
     0
  9
$CHAMFERA
 40
0.0
  9
$CHAMFERB
 40
0.0
  9
$SKPOLY
 70
     0
  9
$TDCREATE
 40
2458060.468368056230247
  9
$TDUPDATE
 40
2459804.9842013888992369
  9
$TDINDWG
 40
0.3731204861
  9
$TDUSRTIMER
 40
0.3731204861
  9
$USRTIMER
 70
     1
  9
$ANGBASE
 50
0.0
  9
$ANGDIR
 70
     0
  9
$PDMODE
 70
     0
  9
$PDSIZE
 40
0.3125
  9
$PLINEWID
 40
0.0
  9
$COORDS
 70
     1
  9
$SPLFRAME
 70
     0
  9
$SPLINETYPE
 70
     6
  9
$SPLINESEGS
 70
     8
  9
$ATTDIA
 70
     1
  9
$ATTREQ
 70
     1
  9
$HANDLING
 70
     1
  9
$HANDSEED
  5
84F4
  9
$SURFTAB1
 70
     6
  9
$SURFTAB2
 70
     6
  9
$SURFTYPE
 70
     6
  9
$SURFU
 70
     6
  9
$SURFV
 70
     6
  9
$UCSNAME
  2

  9
$UCSORG
 10
0.0
 20
0.0
 30
0.0
  9
$UCSXDIR
 10
1.0
 20
0.0
 30
0.0
  9
$UCSYDIR
 10
0.0
 20
1.0
 30
0.0
  9
$PUCSNAME
  2

  9
$PUCSORG
 10
0.0
 20
0.0
 30
0.0
  9
$PUCSXDIR
 10
1.0
 20
0.0
 30
0.0
  9
$PUCSYDIR
 10
0.0
 20
1.0
 30
0.0
  9
$USERI1
 70
     0
  9
$USERI2
 70
     0
  9
$USERI3
 70
     0
  9
$USERI4
 70
     0
  9
$USERI5
 70
     0
  9
$USERR1
 40
0.0
  9
$USERR2
 40
0.0
  9
$USERR3
 40
0.0
  9
$USERR4
 40
0.0
  9
$USERR5
 40
0.0
  9
$WORLDVIEW
 70
     1
  9
$SHADEDGE
 70
     3
  9
$SHADEDIF
 70
    70
  9
$TILEMODE
 70
     1
  9
$MAXACTVP
 70
    64
  9
$PLIMCHECK
 70
     0
  9
$PEXTMIN
 10
1.0000000000000000E+20
 20
1.0000000000000000E+20
 30
1.0000000000000000E+20
  9
$PEXTMAX
 10
-1.0000000000000000E+20
 20
-1.0000000000000000E+20
 30
-1.0000000000000000E+20
  9
$PLIMMIN
 10
0.0
 20
0.0
  9
$PLIMMAX
 10
12.0
 20
9.0
  9
$UNITMODE
 70
     0
  9
$VISRETAIN
 70
     1
  9
$PLINEGEN
 70
     0
  9
$PSLTSCALE
 70
     1
  0
ENDSEC
  0
SECTION
  2
TABLES
  0
TABLE
  2
VPORT
 70
     1
  0
VPORT
  2
*ACTIVE
 70
     0
 10
0.0
 20
0.0
 11
1.0
 21
1.0
 12
0.0
 22
0.0
 13
0.0
 23
0.0
 14
1.0
 24
1.0
 15
0.0
 25
0.0
 16
0.0
 26
0.0
 36
170.9915453293396865
 17
3814.43408203125
 27
203.0678863525390909
 37
0.0
 40
59.538460850969372
 41
2.156179775280898
 42
50.0
 43
0.0
 44
0.0
 50
0.0
 51
0.0
 71
     0
 72
   100
 73
     1
 74
     1
 75
     0
 76
     0
 77
     0
 78
     0
  0
ENDTAB
  0
TABLE
  2
LTYPE
 70
     2
  0
LTYPE
  2
CONTINUOUS
 70
     0
  3
Solid line
 72
    65
 73
     0
 40
0.0
  0
LTYPE
  2
PHANTOM2
 70
     0
  3
___ _ _ ___ _ _ ___ _ _ ___ _ _
 72
    65
 73
     6
 40
1.25
 49
0.625
 49
-0.125
 49
0.125
 49
-0.125
 49
0.125
 49
-0.125
  0
ENDTAB
  0
TABLE
  2
LAYER
 70
     2
  0
LAYER
  2
0
 70
     0
 62
   255
  6
CONTINUOUS
  0
LAYER
  2
DEFPOINTS
 70
     0
 62
     7
  6
CONTINUOUS
  0
ENDTAB
  0
TABLE
  2
STYLE
 70
     1
  0
STYLE
  2
STANDARD
 70
     0
 40
0.0
 41
0.8
 50
0.0
 71
     0
 42
0.2
  3
txt
  4

  0
ENDTAB
  0
TABLE
  2
VIEW
 70
     0
  0
ENDTAB
  0
TABLE
  2
UCS
 70
     0
  0
ENDTAB
  0
TABLE
  2
APPID
 70
     9
  0
APPID
  2
ACAD
 70
     0
  0
APPID
  2
ACAD_MLEADERVER
 70
     0
  0
APPID
  2
ACAD_EXEMPT_FROM_CAD_STANDARDS
 70
     0
  0
APPID
  2
ACAD_NAV_VCDISPLAY
 70
     0
  0
APPID
  2
ACAECLAYERSTANDARD
 70
     0
  0
APPID
  2
ACCMTRANSPARENCY
 70
     0
  0
APPID
  2
ACAD_DSTYLE_DIMJAG
 70
     0
  0
APPID
  2
ACAD_DSTYLE_DIMTALN
 70
     0
  0
APPID
  2
ACDBATTR
 70
     0
  0
ENDTAB
  0
TABLE
  2
DIMSTYLE
 70
     1
  0
DIMSTYLE
  2
STANDARD
 70
     0
  3

  4

  5

  6

  7

 40
1.0
 41
0.1875
 42
0.0625
 43
0.38
 44
0.125
 45
0.0
 46
0.0
 47
0.01
 48
0.01
140
0.15625
141
0.09
142
0.0
143
25.3999999999999986
144
1.0
145
0.0
146
1.0
147
0.09
 71
     1
 72
     0
 73
     1
 74
     1
 75
     0
 76
     0
 77
     0
 78
     4
170
     0
171
     2
172
     0
173
     0
174
     0
175
     0
176
     0
177
     0
178
     0
  0
ENDTAB
  0
ENDSEC
  0
SECTION
  2
BLOCKS
  0
BLOCK
  8
0
  2
$MODEL_SPACE
 70
     0
 10
0.0
 20
0.0
 30
0.0
  3
$MODEL_SPACE
  1

  0
ENDBLK
  5
21
  8
0
  0
BLOCK
 67
     1
  8
0
  2
$PAPER_SPACE
 70
     0
 10
0.0
 20
0.0
 30
0.0
  3
$PAPER_SPACE
  1

  0
ENDBLK
  5
1D
 67
     1
  8
0
  0
ENDSEC
  0
SECTION
  2
ENTITIES
  0
ATTDEF
  5
80B8
  8
DEFPOINTS
 10
3814.4061937798092004
 20
203.924582395739094
 30
0.0
 40
0.001
  1
572115-G05
  3

  2
MODELNUMBER
 70
     0
1001
ACDBATTR
1070
     0
1070
     1
  0
ATTDEF
  5
80B9
  8
DEFPOINTS
 10
3814.4061937798092004
 20
203.9229157290724004
 30
0.0
 40
0.001
  1

  3

  2
TRADENAME
 70
     0
1001
ACDBATTR
1070
     0
1070
     1
  0
ATTDEF
  5
80BA
  8
DEFPOINTS
 10
3814.4061937798092004
 20
203.9212490624057921
 30
0.0
 40
0.001
  1
SHOWER DOOR
  3

  2
PRODUCT
 70
     0
1001
ACDBATTR
1070
     0
1070
     1
  0
LINE
  5
837E
  8
0
 10
3784.7466656448868889
 20
202.7408725459445122
 30
0.0
 11
3784.7466656448868889
 21
205.0678725459445104
 31
0.0
  0
LINE
  5
837F
  8
0
 10
3844.1216656448868889
 20
202.7408725459445122
 30
0.0
 11
3844.1216656448868889
 21
205.0678725459445104
 31
0.0
  0
LINE
  5
8380
  8
0
 10
3784.7466656448868889
 20
205.0678725459445104
 30
0.0
 11
3844.1216656448868889
 21
205.0678725459445104
 31
0.0
  0
LINE
  5
8381
  8
0
 10
3784.7466656448868889
 20
202.7408725459445122
 30
0.0
 11
3844.1216656448868889
 21
202.7408725459445122
 31
0.0
  0
LINE
  5
8382
  8
0
 10
3784.7466656448868889
 20
202.9584063090445056
 30
0.0
 11
3844.1216656448868889
 21
202.9584063090445056
 31
0.0
  0
ARC
  5
8383
  8
0
 10
3787.4049733169699721
 20
203.0462642342328934
 30
0.0
 40
1.500330451012704
 50
191.744608155887704
 51
207.2648825804022863
  0
ARC
  5
8384
  8
0
 10
3785.4363501637380978
 20
202.0231359979939896
 30
0.0
 40
0.7183154924621618
 50
0.0101688643236794
 51
27.8727814223351906
  0
LINE
  5
8385
  8
0
 10
3786.1546656448867907
 20
202.0232634847444899
 30
0.0
 11
3786.1546822845239149
 21
201.2027047741131867
 31
0.0
  0
ARC
  5
8386
  8
0
 10
3786.2796855129618052
 20
201.2027073089815019
 30
0.0
 40
0.1250032284645725
 50
180.0011618680397874
 51
267.9909395133179828
  0
LINE
  5
8387
  8
0
 10
3786.2753032078730939
 20
201.0777809205414997
 30
0.0
 11
3786.3354311214930021
 21
201.075671687535106
 31
0.0
  0
ARC
  5
8388
  8
0
 10
3787.0921971477409897
 20
202.931626799676792
 30
0.0
 40
0.6676443766579943
 50
196.6014347541882898
 51
210.8177040516038119
  0
ARC
  5
8389
  8
0
 10
3785.374399074134999
 20
202.015623139291904
 30
0.0
 40
1.2802893684885721
 50
0.3419243786554629
 51
26.6351771708536411
  0
LINE
  5
838A
  8
0
 10
3786.6546656448858812
 20
202.0232634847444899
 30
0.0
 11
3786.6546656448858812
 21
201.6808930651444882
 31
0.0
  0
ARC
  5
838B
  8
0
 10
3786.6310698412289639
 20
201.6842848364150029
 30
0.0
 40
0.0238377320240804
 50
293.865599949884313
 51
351.8301035983220117
  0
ARC
  5
838C
  8
0
 10
3786.5291882328151587
 20
201.8678335604242875
 30
0.0
 40
0.2336792589364382
 50
271.1867666892160855
 51
298.5067165563406206
  0
LINE
  5
838D
  8
0
 10
3786.5340280819868894
 20
201.6342044271445104
 30
0.0
 11
3786.4045398636781101
 21
201.6275886810950908
 31
0.0
  0
LINE
  5
838E
  8
0
 10
3786.4046656448858812
 20
201.2727634847445017
 30
0.0
 11
3786.4046656448858812
 21
201.6275951074445061
 31
0.0
  0
LINE
  5
838F
  8
0
 10
3786.3354314542862085
 20
201.0679063492445096
 30
0.0
 11
3786.3354314542862085
 21
201.2727634847445017
 31
0.0
  0
LINE
  5
8390
  8
0
 10
3786.3354314542862085
 20
201.2727634847445017
 30
0.0
 11
3813.7734314542858556
 21
201.2727634847445017
 31
0.0
  0
LINE
  5
8391
  8
0
 10
3786.3354314542862085
 20
201.0679063492445096
 30
0.0
 11
3813.7734314542858556
 21
201.0679063492445096
 31
0.0
  0
LINE
  5
8392
  8
0
 10
3786.5986337300328159
 20
201.6447118022445011
 30
0.0
 11
3813.5102291785410671
 21
201.6447118022445011
 31
0.0
  0
LINE
  5
8393
  8
0
 10
3786.6546656448858812
 20
201.7279063492445061
 30
0.0
 11
3813.4541972636870923
 21
201.7279063492445061
 31
0.0
  0
ARC
  5
8394
  8
0
 10
3812.7038895916030015
 20
203.0462642342328934
 30
0.0
 40
1.500330451012704
 50
332.7351174195976
 51
348.2553918441121823
  0
ARC
  5
8395
  8
0
 10
3814.6725127448357853
 20
202.0231359979939896
 30
0.0
 40
0.7183154924621623
 50
152.1272185776647916
 51
179.9898311356762974
  0
LINE
  5
8396
  8
0
 10
3813.9541972636870923
 20
202.0232634847444899
 30
0.0
 11
3813.9541806240499682
 21
201.2027047741131867
 31
0.0
  0
ARC
  5
8397
  8
0
 10
3813.8291773956111683
 20
201.2027073089815019
 30
0.0
 40
0.1250032284645725
 50
272.0090604866820172
 51
359.998838131960099
  0
LINE
  5
8398
  8
0
 10
3813.8335597007007891
 20
201.0777809205414997
 30
0.0
 11
3813.7734317870799714
 21
201.075671687535106
 31
0.0
  0
ARC
  5
8399
  8
0
 10
3813.0166657608319838
 20
202.931626799676792
 30
0.0
 40
0.6676443766579943
 50
329.1822959483948807
 51
343.3985652458117102
  0
ARC
  5
839A
  8
0
 10
3814.7344638344388841
 20
202.015623139291904
 30
0.0
 40
1.280289368488579
 50
153.3648228291463056
 51
179.6580756213444943
  0
LINE
  5
839B
  8
0
 10
3813.4541972636870923
 20
202.0232634847444899
 30
0.0
 11
3813.4541972636870923
 21
201.6808930651444882
 31
0.0
  0
ARC
  5
839C
  8
0
 10
3813.4777930673431001
 20
201.6842848364150029
 30
0.0
 40
0.0238377320240804
 50
188.169896401677903
 51
246.1344000501156017
  0
ARC
  5
839D
  8
0
 10
3813.5796746757591791
 20
201.8678335604242875
 30
0.0
 40
0.2336792589364382
 50
241.4932834436584983
 51
268.8132333107839145
  0
LINE
  5
839E
  8
0
 10
3813.5748348265869936
 20
201.6342044271445104
 30
0.0
 11
3813.7043230448948634
 21
201.6275886810950908
 31
0.0
  0
LINE
  5
839F
  8
0
 10
3813.7041972636870923
 20
201.2727634847445017
 30
0.0
 11
3813.7041972636870923
 21
201.6275951074445061
 31
0.0
  0
LINE
  5
83A0
  8
0
 10
3813.7734314542858556
 20
201.0679063492445096
 30
0.0
 11
3813.7734314542858556
 21
201.2727634847445017
 31
0.0
  0
LINE
  5
83A1
  8
0
 10
3786.3354314542862085
 20
201.1211989688445101
 30
0.0
 11
3813.7734314542858556
 21
201.1211989688445101
 31
0.0
  0
LINE
  5
83A2
  8
0
 10
3786.3354314542862085
 20
201.2018151672444901
 30
0.0
 11
3813.7734314542858556
 21
201.2018151672444901
 31
0.0
  0
ENDSEC
  0
EOF
