  0
SECTION
  2
HEADER
  9
$ACADVER
  1
AC1009
  9
$INSBASE
 10
4334.6452933637519891
 20
487.7448468565502822
 30
0.0
  9
$EXTMIN
 10
4304.7495862321038658
 20
484.866191522769725
 30
-0.0015258207003583
  9
$EXTMAX
 10
4364.502533627088269
 20
488.9175851882092161
 30
0.0000000349246037
  9
$LIMMIN
 10
0.0
 20
0.0
  9
$LIMMAX
 10
11.6929133858000007
 20
8.2677165353999982
  9
$ORTHOMODE
 70
     0
  9
$REGENMODE
 70
     1
  9
$FILLMODE
 70
     1
  9
$QTEXTMODE
 70
     0
  9
$MIRRTEXT
 70
     0
  9
$DRAGMODE
 70
     2
  9
$LTSCALE
 40
0.6431102362
  9
$OSMODE
 70
  4095
  9
$ATTMODE
 70
     1
  9
$TEXTSIZE
 40
0.2
  9
$TRACEWID
 40
0.05
  9
$TEXTSTYLE
  7
STANDARD
  9
$CLAYER
  8
0
  9
$CELTYPE
  6
BYLAYER
  9
$CECOLOR
 62
   256
  9
$DIMSCALE
 40
1.0
  9
$DIMASZ
 40
0.1875
  9
$DIMEXO
 40
0.0625
  9
$DIMDLI
 40
0.4443307087
  9
$DIMRND
 40
0.0
  9
$DIMDLE
 40
0.0
  9
$DIMEXE
 40
0.125
  9
$DIMTP
 40
0.01
  9
$DIMTM
 40
0.01
  9
$DIMTXT
 40
2.0
  9
$DIMCEN
 40
0.1052362205
  9
$DIMTSZ
 40
0.0
  9
$DIMTOL
 70
     1
  9
$DIMLIM
 70
     0
  9
$DIMTIH
 70
     1
  9
$DIMTOH
 70
     1
  9
$DIMSE1
 70
     0
  9
$DIMSE2
 70
     0
  9
$DIMTAD
 70
     0
  9
$DIMZIN
 70
     0
  9
$DIMBLK
  1

  9
$DIMASO
 70
     1
  9
$DIMSHO
 70
     1
  9
$DIMPOST
  1
\X
  9
$DIMAPOST
  1

  9
$DIMALT
 70
     1
  9
$DIMALTD
 70
     2
  9
$DIMALTF
 40
25.3999999999999986
  9
$DIMLFAC
 40
1.0
  9
$DIMTOFL
 70
     0
  9
$DIMTVP
 40
0.0
  9
$DIMTIX
 70
     0
  9
$DIMSOXD
 70
     0
  9
$DIMSAH
 70
     0
  9
$DIMBLK1
  1

  9
$DIMBLK2
  1

  9
$DIMSTYLE
  2
STANDARD
  9
$DIMCLRD
 70
     0
  9
$DIMCLRE
 70
     0
  9
$DIMCLRT
 70
     0
  9
$DIMTFAC
 40
1.0
  9
$DIMGAP
 40
0.09
  9
$LUNITS
 70
     2
  9
$LUPREC
 70
     4
  9
$SKETCHINC
 40
0.1
  9
$FILLETRAD
 40
0.0
  9
$AUNITS
 70
     0
  9
$AUPREC
 70
     0
  9
$MENU
  1
.
  9
$ELEVATION
 40
0.0
  9
$PELEVATION
 40
0.0
  9
$THICKNESS
 40
0.0
  9
$LIMCHECK
 70
     0
  9
$BLIPMODE
 70
     0
  9
$CHAMFERA
 40
0.0
  9
$CHAMFERB
 40
0.0
  9
$SKPOLY
 70
     0
  9
$TDCREATE
 40
2458060.468368056230247
  9
$TDUPDATE
 40
2459997.7767592598684132
  9
$TDINDWG
 40
0.3774260417
  9
$TDUSRTIMER
 40
0.3774260417
  9
$USRTIMER
 70
     1
  9
$ANGBASE
 50
0.0
  9
$ANGDIR
 70
     0
  9
$PDMODE
 70
     0
  9
$PDSIZE
 40
0.3125
  9
$PLINEWID
 40
0.0
  9
$COORDS
 70
     1
  9
$SPLFRAME
 70
     0
  9
$SPLINETYPE
 70
     6
  9
$SPLINESEGS
 70
     8
  9
$ATTDIA
 70
     1
  9
$ATTREQ
 70
     1
  9
$HANDLING
 70
     1
  9
$HANDSEED
  5
8A7B
  9
$SURFTAB1
 70
     6
  9
$SURFTAB2
 70
     6
  9
$SURFTYPE
 70
     6
  9
$SURFU
 70
     6
  9
$SURFV
 70
     6
  9
$UCSNAME
  2

  9
$UCSORG
 10
0.0
 20
0.0
 30
0.0
  9
$UCSXDIR
 10
1.0
 20
0.0
 30
0.0
  9
$UCSYDIR
 10
0.0
 20
1.0
 30
0.0
  9
$PUCSNAME
  2

  9
$PUCSORG
 10
0.0
 20
0.0
 30
0.0
  9
$PUCSXDIR
 10
1.0
 20
0.0
 30
0.0
  9
$PUCSYDIR
 10
0.0
 20
1.0
 30
0.0
  9
$USERI1
 70
     0
  9
$USERI2
 70
     0
  9
$USERI3
 70
     0
  9
$USERI4
 70
     0
  9
$USERI5
 70
     0
  9
$USERR1
 40
0.0
  9
$USERR2
 40
0.0
  9
$USERR3
 40
0.0
  9
$USERR4
 40
0.0
  9
$USERR5
 40
0.0
  9
$WORLDVIEW
 70
     1
  9
$SHADEDGE
 70
     3
  9
$SHADEDIF
 70
    70
  9
$TILEMODE
 70
     1
  9
$MAXACTVP
 70
    64
  9
$PLIMCHECK
 70
     0
  9
$PEXTMIN
 10
1.0000000000000000E+20
 20
1.0000000000000000E+20
 30
1.0000000000000000E+20
  9
$PEXTMAX
 10
-1.0000000000000000E+20
 20
-1.0000000000000000E+20
 30
-1.0000000000000000E+20
  9
$PLIMMIN
 10
0.0
 20
0.0
  9
$PLIMMAX
 10
12.0
 20
9.0
  9
$UNITMODE
 70
     0
  9
$VISRETAIN
 70
     1
  9
$PLINEGEN
 70
     0
  9
$PSLTSCALE
 70
     1
  0
ENDSEC
  0
SECTION
  2
TABLES
  0
TABLE
  2
VPORT
 70
     1
  0
VPORT
  2
*ACTIVE
 70
     0
 10
0.0
 20
0.0
 11
1.0
 21
1.0
 12
520.1902689139715221
 22
330.2328383676965018
 13
0.0
 23
0.0
 14
1.0
 24
1.0
 15
0.0
 25
0.0
 16
0.0
 26
0.0
 36
263.5995220269957144
 17
3814.435791015625
 27
156.6590499877929119
 37
0.0
 40
23.7375696378880399
 41
2.5251322751322749
 42
50.0
 43
0.0
 44
0.0
 50
0.0
 51
0.0
 71
     0
 72
   100
 73
     1
 74
     1
 75
     0
 76
     0
 77
     0
 78
     0
  0
ENDTAB
  0
TABLE
  2
LTYPE
 70
     2
  0
LTYPE
  2
CONTINUOUS
 70
     0
  3
Solid line
 72
    65
 73
     0
 40
0.0
  0
LTYPE
  2
PHANTOM2
 70
     0
  3
___ _ _ ___ _ _ ___ _ _ ___ _ _
 72
    65
 73
     6
 40
1.25
 49
0.625
 49
-0.125
 49
0.125
 49
-0.125
 49
0.125
 49
-0.125
  0
ENDTAB
  0
TABLE
  2
LAYER
 70
     2
  0
LAYER
  2
0
 70
     0
 62
   255
  6
CONTINUOUS
  0
LAYER
  2
DEFPOINTS
 70
     0
 62
     7
  6
CONTINUOUS
  0
ENDTAB
  0
TABLE
  2
STYLE
 70
     1
  0
STYLE
  2
STANDARD
 70
     0
 40
0.0
 41
0.8
 50
0.0
 71
     0
 42
0.2
  3
txt
  4

  0
ENDTAB
  0
TABLE
  2
VIEW
 70
     0
  0
ENDTAB
  0
TABLE
  2
UCS
 70
     0
  0
ENDTAB
  0
TABLE
  2
APPID
 70
     9
  0
APPID
  2
ACAD
 70
     0
  0
APPID
  2
ACAD_MLEADERVER
 70
     0
  0
APPID
  2
ACAD_EXEMPT_FROM_CAD_STANDARDS
 70
     0
  0
APPID
  2
ACAD_NAV_VCDISPLAY
 70
     0
  0
APPID
  2
ACAECLAYERSTANDARD
 70
     0
  0
APPID
  2
ACCMTRANSPARENCY
 70
     0
  0
APPID
  2
ACAD_DSTYLE_DIMJAG
 70
     0
  0
APPID
  2
ACAD_DSTYLE_DIMTALN
 70
     0
  0
APPID
  2
ACDBATTR
 70
     0
  0
ENDTAB
  0
TABLE
  2
DIMSTYLE
 70
     1
  0
DIMSTYLE
  2
STANDARD
 70
     0
  3

  4

  5

  6

  7

 40
1.0
 41
0.1875
 42
0.0625
 43
0.38
 44
0.125
 45
0.0
 46
0.0
 47
0.01
 48
0.01
140
0.15625
141
0.09
142
0.0
143
25.3999999999999986
144
1.0
145
0.0
146
1.0
147
0.09
 71
     1
 72
     0
 73
     1
 74
     1
 75
     0
 76
     0
 77
     0
 78
     4
170
     0
171
     2
172
     0
173
     0
174
     0
175
     0
176
     0
177
     0
178
     0
  0
ENDTAB
  0
ENDSEC
  0
SECTION
  2
BLOCKS
  0
BLOCK
  8
0
  2
$MODEL_SPACE
 70
     0
 10
0.0
 20
0.0
 30
0.0
  3
$MODEL_SPACE
  1

  0
ENDBLK
  5
21
  8
0
  0
BLOCK
 67
     1
  8
0
  2
$PAPER_SPACE
 70
     0
 10
0.0
 20
0.0
 30
0.0
  3
$PAPER_SPACE
  1

  0
ENDBLK
  5
1D
 67
     1
  8
0
  0
BLOCK
  8
0
  2
_FILLED
 70
     0
 10
0.0
 20
0.0
 30
0.0
  3
_FILLED
  1

  0
SOLID
  5
869D
  8
0
  6
BYBLOCK
 62
     0
 10
0.0
 20
0.0
 30
0.0
 11
-1.0
 21
0.1666666667
 31
0.0
 12
-1.0
 22
-0.1666666667
 32
0.0
 13
-1.0
 23
-0.1666666667
 33
0.0
  0
ENDBLK
  5
869E
  8
0
  6
BYBLOCK
 62
     0
  0
ENDSEC
  0
SECTION
  2
ENTITIES
  0
LINE
  5
8831
  8
0
 10
4304.9890433637519891
 20
486.5664801664726724
 30
0.0
 11
4304.9890433637519891
 21
488.8934801664726137
 31
0.0
  0
LINE
  5
8833
  8
0
 10
4364.3640433637519891
 20
486.5664801664726724
 30
0.0
 11
4364.3640433637519891
 21
488.8934801664726137
 31
0.0
  0
LINE
  5
8982
  8
0
 10
4304.9890433637519891
 20
488.8934801664726137
 30
0.0
 11
4364.3640433637519891
 21
488.8934801664726137
 31
0.0
  0
LINE
  5
8983
  8
0
 10
4304.9890433637519891
 20
486.5664801664726724
 30
0.0
 11
4364.3640433637519891
 21
486.5664801664726724
 31
0.0
  0
LINE
  5
8984
  8
0
 10
4304.9890433637519891
 20
486.7840139295727226
 30
0.0
 11
4364.3640433637519891
 21
486.7840139295727226
 31
0.0
  0
ARC
  5
8985
  8
0
 10
4307.6473510358346175
 20
486.871871854761082
 30
0.0
 40
1.500330451012704
 50
191.744608155887704
 51
207.2648825804029968
  0
ARC
  5
8986
  8
0
 10
4305.6787278826031979
 20
485.8487436185221213
 30
0.0
 40
0.7183154924621618
 50
0.010168864322051
 51
27.8727814223351906
  0
LINE
  5
8987
  8
0
 10
4306.3970433637514361
 20
485.8488711052726785
 30
0.0
 11
4306.3970600033881055
 21
485.0283123946413752
 31
0.0
  0
ARC
  5
8988
  8
0
 10
4306.5220632318269054
 20
485.0283149295096905
 30
0.0
 40
0.1250032284645725
 50
180.0011618680397874
 51
267.9909395133179828
  0
LINE
  5
8989
  8
0
 10
4306.5176809267368299
 20
484.9033885410697167
 30
0.0
 11
4306.5778088403576476
 21
484.9012793080632946
 31
0.0
  0
ARC
  5
898A
  8
0
 10
4307.3345748666060899
 20
486.7572344202048953
 30
0.0
 40
0.6676443766579943
 50
196.6014347541868119
 51
210.8177040516038119
  0
ARC
  5
898B
  8
0
 10
4305.6167767929991896
 20
485.841230759820121
 30
0.0
 40
1.2802893684885721
 50
0.3419243786554629
 51
26.6351771708529093
  0
LINE
  5
898C
  8
0
 10
4306.8970433637514361
 20
485.8488711052726785
 30
0.0
 11
4306.8970433637514361
 21
485.50650068567262
 31
0.0
  0
ARC
  5
898D
  8
0
 10
4306.8734475600949736
 20
485.5098924569430778
 30
0.0
 40
0.0238377320240804
 50
293.865599949884313
 51
351.8301035983220117
  0
ARC
  5
898E
  8
0
 10
4306.7715659516798041
 20
485.6934411809525045
 30
0.0
 40
0.2336792589364382
 50
271.1867666892160855
 51
298.5067165563410185
  0
LINE
  5
898F
  8
0
 10
4306.7764058008506254
 20
485.459812047672699
 30
0.0
 11
4306.6469175825432103
 21
485.4531963016232794
 31
0.0
  0
LINE
  5
8990
  8
0
 10
4306.6470433637514361
 20
485.0983711052726903
 30
0.0
 11
4306.6470433637514361
 21
485.4532027279727231
 31
0.0
  0
LINE
  5
8991
  8
0
 10
4306.5778091731508539
 20
484.8935139697726981
 30
0.0
 11
4306.5778091731508539
 21
485.0983711052726903
 31
0.0
  0
LINE
  5
8992
  8
0
 10
4306.5778091731508539
 20
485.0983711052726903
 30
0.0
 11
4334.0158091731509558
 21
485.0983711052726903
 31
0.0
  0
LINE
  5
8993
  8
0
 10
4306.5778091731508539
 20
484.8935139697726981
 30
0.0
 11
4334.0158091731509558
 21
484.8935139697726981
 31
0.0
  0
LINE
  5
8994
  8
0
 10
4306.8410114488979161
 20
485.4703194227727181
 30
0.0
 11
4333.752606897404803
 21
485.4703194227727181
 31
0.0
  0
LINE
  5
8995
  8
0
 10
4306.8970433637514361
 20
485.5535139697726095
 30
0.0
 11
4333.6965749825521925
 21
485.5535139697726095
 31
0.0
  0
ARC
  5
8996
  8
0
 10
4332.9462673104671921
 20
486.871871854761082
 30
0.0
 40
1.500330451012704
 50
332.7351174195969747
 51
348.2553918441121823
  0
ARC
  5
8997
  8
0
 10
4334.9148904637004307
 20
485.8487436185221213
 30
0.0
 40
0.7183154924621623
 50
152.1272185776647916
 51
179.9898311356778891
  0
LINE
  5
8998
  8
0
 10
4334.1965749825521925
 20
485.8488711052726785
 30
0.0
 11
4334.1965583429164326
 21
485.0283123946413752
 31
0.0
  0
ARC
  5
8999
  8
0
 10
4334.0715551144758138
 20
485.0283149295096905
 30
0.0
 40
0.1250032284645725
 50
272.0090604866820172
 51
359.998838131960099
  0
LINE
  5
899A
  8
0
 10
4334.0759374195658893
 20
484.9033885410697167
 30
0.0
 11
4334.0158095059441621
 21
484.9012793080632946
 31
0.0
  0
ARC
  5
899B
  8
0
 10
4333.2590434796984482
 20
486.7572344202048953
 30
0.0
 40
0.6676443766579943
 50
329.1822959483961881
 51
343.3985652458139839
  0
ARC
  5
899C
  8
0
 10
4334.976841553304439
 20
485.841230759820121
 30
0.0
 40
1.280289368488579
 50
153.3648228291471014
 51
179.6580756213444943
  0
LINE
  5
899D
  8
0
 10
4333.6965749825521925
 20
485.8488711052726785
 30
0.0
 11
4333.6965749825521925
 21
485.50650068567262
 31
0.0
  0
ARC
  5
899E
  8
0
 10
4333.7201707862077456
 20
485.5098924569430778
 30
0.0
 40
0.0238377320240804
 50
188.169896401677903
 51
246.1344000501156017
  0
ARC
  5
899F
  8
0
 10
4333.8220523946238245
 20
485.6934411809525045
 30
0.0
 40
0.2336792589364382
 50
241.4932834436588962
 51
268.8132333107839145
  0
LINE
  5
89A0
  8
0
 10
4333.8172125454520938
 20
485.459812047672699
 30
0.0
 11
4333.9467007637585994
 21
485.4531963016232794
 31
0.0
  0
LINE
  5
89A1
  8
0
 10
4333.9465749825521925
 20
485.0983711052726903
 30
0.0
 11
4333.9465749825521925
 21
485.4532027279727231
 31
0.0
  0
LINE
  5
89A2
  8
0
 10
4334.0158091731509558
 20
484.8935139697726981
 30
0.0
 11
4334.0158091731509558
 21
485.0983711052726903
 31
0.0
  0
ATTDEF
  5
89B0
  8
DEFPOINTS
 10
4334.6458400743749735
 20
487.7433659596258053
 30
0.0
 40
0.001
  1
572115-3G06
  3

  2
MODELNUMBER
 70
     0
1001
ACDBATTR
1070
     0
1070
     1
  0
ATTDEF
  5
89B1
  8
DEFPOINTS
 10
4334.6458400743749735
 20
487.741699292959197
 30
0.0
 40
0.001
  1
DELUXE
  3

  2
TRADENAME
 70
     0
1001
ACDBATTR
1070
     0
1070
     1
  0
ATTDEF
  5
89B2
  8
DEFPOINTS
 10
4334.6458400743749735
 20
487.740032626292475
 30
0.0
 40
0.001
  1
SHOWER DOOR
  3

  2
PRODUCT
 70
     0
1001
ACDBATTR
1070
     0
1070
     1
  0
ENDSEC
  0
EOF
