  0
SECTION
  2
HEADER
  9
$ACADVER
  1
AC1009
  9
$INSBASE
 10
4498.0173084018124428
 20
178.5114444975718868
 30
0.0
  9
$EXTMIN
 10
4473.4340482098696157
 20
175.6221818966222088
 30
-0.0015258207003583
  9
$EXTMAX
 10
4522.7398850570343711
 20
179.6560005096127952
 30
0.0000000349246037
  9
$LIMMIN
 10
0.0
 20
0.0
  9
$LIMMAX
 10
11.6929133858000007
 20
8.2677165353999982
  9
$ORTHOMODE
 70
     0
  9
$REGENMODE
 70
     1
  9
$FILLMODE
 70
     1
  9
$QTEXTMODE
 70
     0
  9
$MIRRTEXT
 70
     0
  9
$DRAGMODE
 70
     2
  9
$LTSCALE
 40
0.6431102362
  9
$OSMODE
 70
  4095
  9
$ATTMODE
 70
     1
  9
$TEXTSIZE
 40
0.2
  9
$TRACEWID
 40
0.05
  9
$TEXTSTYLE
  7
STANDARD
  9
$CLAYER
  8
0
  9
$CELTYPE
  6
BYLAYER
  9
$CECOLOR
 62
   256
  9
$DIMSCALE
 40
1.0
  9
$DIMASZ
 40
0.1875
  9
$DIMEXO
 40
0.0625
  9
$DIMDLI
 40
0.4443307087
  9
$DIMRND
 40
0.0
  9
$DIMDLE
 40
0.0
  9
$DIMEXE
 40
0.125
  9
$DIMTP
 40
0.01
  9
$DIMTM
 40
0.01
  9
$DIMTXT
 40
2.0
  9
$DIMCEN
 40
0.1052362205
  9
$DIMTSZ
 40
0.0
  9
$DIMTOL
 70
     1
  9
$DIMLIM
 70
     0
  9
$DIMTIH
 70
     1
  9
$DIMTOH
 70
     1
  9
$DIMSE1
 70
     0
  9
$DIMSE2
 70
     0
  9
$DIMTAD
 70
     0
  9
$DIMZIN
 70
     0
  9
$DIMBLK
  1

  9
$DIMASO
 70
     1
  9
$DIMSHO
 70
     1
  9
$DIMPOST
  1
\X
  9
$DIMAPOST
  1

  9
$DIMALT
 70
     1
  9
$DIMALTD
 70
     2
  9
$DIMALTF
 40
25.3999999999999986
  9
$DIMLFAC
 40
1.0
  9
$DIMTOFL
 70
     0
  9
$DIMTVP
 40
0.0
  9
$DIMTIX
 70
     0
  9
$DIMSOXD
 70
     0
  9
$DIMSAH
 70
     0
  9
$DIMBLK1
  1

  9
$DIMBLK2
  1

  9
$DIMSTYLE
  2
STANDARD
  9
$DIMCLRD
 70
     0
  9
$DIMCLRE
 70
     0
  9
$DIMCLRT
 70
     0
  9
$DIMTFAC
 40
1.0
  9
$DIMGAP
 40
0.09
  9
$LUNITS
 70
     2
  9
$LUPREC
 70
     4
  9
$SKETCHINC
 40
0.1
  9
$FILLETRAD
 40
0.0
  9
$AUNITS
 70
     0
  9
$AUPREC
 70
     0
  9
$MENU
  1
.
  9
$ELEVATION
 40
0.0
  9
$PELEVATION
 40
0.0
  9
$THICKNESS
 40
0.0
  9
$LIMCHECK
 70
     0
  9
$BLIPMODE
 70
     0
  9
$CHAMFERA
 40
0.0
  9
$CHAMFERB
 40
0.0
  9
$SKPOLY
 70
     0
  9
$TDCREATE
 40
2458060.468368056230247
  9
$TDUPDATE
 40
2459839.6960648149251938
  9
$TDINDWG
 40
0.3515579861
  9
$TDUSRTIMER
 40
0.3515579861
  9
$USRTIMER
 70
     1
  9
$ANGBASE
 50
0.0
  9
$ANGDIR
 70
     0
  9
$PDMODE
 70
     0
  9
$PDSIZE
 40
0.3125
  9
$PLINEWID
 40
0.0
  9
$COORDS
 70
     1
  9
$SPLFRAME
 70
     0
  9
$SPLINETYPE
 70
     6
  9
$SPLINESEGS
 70
     8
  9
$ATTDIA
 70
     1
  9
$ATTREQ
 70
     1
  9
$HANDLING
 70
     1
  9
$HANDSEED
  5
B05D
  9
$SURFTAB1
 70
     6
  9
$SURFTAB2
 70
     6
  9
$SURFTYPE
 70
     6
  9
$SURFU
 70
     6
  9
$SURFV
 70
     6
  9
$UCSNAME
  2

  9
$UCSORG
 10
0.0
 20
0.0
 30
0.0
  9
$UCSXDIR
 10
1.0
 20
0.0
 30
0.0
  9
$UCSYDIR
 10
0.0
 20
1.0
 30
0.0
  9
$PUCSNAME
  2

  9
$PUCSORG
 10
0.0
 20
0.0
 30
0.0
  9
$PUCSXDIR
 10
1.0
 20
0.0
 30
0.0
  9
$PUCSYDIR
 10
0.0
 20
1.0
 30
0.0
  9
$USERI1
 70
     0
  9
$USERI2
 70
     0
  9
$USERI3
 70
     0
  9
$USERI4
 70
     0
  9
$USERI5
 70
     0
  9
$USERR1
 40
0.0
  9
$USERR2
 40
0.0
  9
$USERR3
 40
0.0
  9
$USERR4
 40
0.0
  9
$USERR5
 40
0.0
  9
$WORLDVIEW
 70
     1
  9
$SHADEDGE
 70
     3
  9
$SHADEDIF
 70
    70
  9
$TILEMODE
 70
     1
  9
$MAXACTVP
 70
    64
  9
$PLIMCHECK
 70
     0
  9
$PEXTMIN
 10
1.0000000000000000E+20
 20
1.0000000000000000E+20
 30
1.0000000000000000E+20
  9
$PEXTMAX
 10
-1.0000000000000000E+20
 20
-1.0000000000000000E+20
 30
-1.0000000000000000E+20
  9
$PLIMMIN
 10
0.0
 20
0.0
  9
$PLIMMAX
 10
12.0
 20
9.0
  9
$UNITMODE
 70
     0
  9
$VISRETAIN
 70
     1
  9
$PLINEGEN
 70
     0
  9
$PSLTSCALE
 70
     1
  0
ENDSEC
  0
SECTION
  2
TABLES
  0
TABLE
  2
VPORT
 70
     1
  0
VPORT
  2
*ACTIVE
 70
     0
 10
0.0
 20
0.0
 11
1.0
 21
1.0
 12
190.4050818678269934
 22
7.0944472390049231
 13
0.0
 23
0.0
 14
1.0
 24
1.0
 15
0.0
 25
0.0
 16
0.0
 26
0.0
 36
51.6279055704596388
 17
4307.6818847656240905
 27
170.5446439641125949
 37
0.0
 40
24.2100957140904214
 41
2.0416666666666661
 42
50.0
 43
0.0
 44
0.0
 50
0.0
 51
0.0
 71
     0
 72
   100
 73
     1
 74
     1
 75
     0
 76
     0
 77
     0
 78
     0
  0
ENDTAB
  0
TABLE
  2
LTYPE
 70
     2
  0
LTYPE
  2
CONTINUOUS
 70
     0
  3
Solid line
 72
    65
 73
     0
 40
0.0
  0
LTYPE
  2
PHANTOM2
 70
     0
  3
___ _ _ ___ _ _ ___ _ _ ___ _ _
 72
    65
 73
     6
 40
1.25
 49
0.625
 49
-0.125
 49
0.125
 49
-0.125
 49
0.125
 49
-0.125
  0
ENDTAB
  0
TABLE
  2
LAYER
 70
     2
  0
LAYER
  2
0
 70
     0
 62
   255
  6
CONTINUOUS
  0
LAYER
  2
DEFPOINTS
 70
     0
 62
     7
  6
CONTINUOUS
  0
ENDTAB
  0
TABLE
  2
STYLE
 70
     1
  0
STYLE
  2
STANDARD
 70
     0
 40
0.0
 41
0.8
 50
0.0
 71
     0
 42
0.2
  3
txt
  4

  0
ENDTAB
  0
TABLE
  2
VIEW
 70
     0
  0
ENDTAB
  0
TABLE
  2
UCS
 70
     0
  0
ENDTAB
  0
TABLE
  2
APPID
 70
     9
  0
APPID
  2
ACAD
 70
     0
  0
APPID
  2
ACAD_MLEADERVER
 70
     0
  0
APPID
  2
ACAD_EXEMPT_FROM_CAD_STANDARDS
 70
     0
  0
APPID
  2
ACAD_NAV_VCDISPLAY
 70
     0
  0
APPID
  2
ACAECLAYERSTANDARD
 70
     0
  0
APPID
  2
ACCMTRANSPARENCY
 70
     0
  0
APPID
  2
ACAD_DSTYLE_DIMJAG
 70
     0
  0
APPID
  2
ACAD_DSTYLE_DIMTALN
 70
     0
  0
APPID
  2
ACDBATTR
 70
     0
  0
ENDTAB
  0
TABLE
  2
DIMSTYLE
 70
     1
  0
DIMSTYLE
  2
STANDARD
 70
     0
  3

  4

  5

  6

  7

 40
1.0
 41
0.1875
 42
0.0625
 43
0.38
 44
0.125
 45
0.0
 46
0.0
 47
0.01
 48
0.01
140
0.15625
141
0.09
142
0.0
143
25.3999999999999986
144
1.0
145
0.0
146
1.0
147
0.09
 71
     1
 72
     0
 73
     1
 74
     1
 75
     0
 76
     0
 77
     0
 78
     4
170
     0
171
     2
172
     0
173
     0
174
     0
175
     0
176
     0
177
     0
178
     0
  0
ENDTAB
  0
ENDSEC
  0
SECTION
  2
BLOCKS
  0
BLOCK
  8
0
  2
$MODEL_SPACE
 70
     0
 10
0.0
 20
0.0
 30
0.0
  3
$MODEL_SPACE
  1

  0
ENDBLK
  5
21
  8
0
  0
BLOCK
 67
     1
  8
0
  2
$PAPER_SPACE
 70
     0
 10
0.0
 20
0.0
 30
0.0
  3
$PAPER_SPACE
  1

  0
ENDBLK
  5
1D
 67
     1
  8
0
  0
ENDSEC
  0
SECTION
  2
ENTITIES
  0
ATTDEF
  5
3930
  8
DEFPOINTS
 10
4498.0123656386622315
 20
178.506582164845895
 30
0.0
 40
0.001
  1
572114-G10
  3

  2
MODELNUMBER
 70
     0
1001
ACDBATTR
1070
     0
1070
     1
  0
ATTDEF
  5
3931
  8
DEFPOINTS
 10
4498.0123656386622315
 20
178.5049154981792867
 30
0.0
 40
0.001
  1

  3

  2
TRADENAME
 70
     0
1001
ACDBATTR
1070
     0
1070
     1
  0
ATTDEF
  5
3932
  8
DEFPOINTS
 10
4498.0123656386622315
 20
178.5032488315125931
 30
0.0
 40
0.001
  1
SHOWER DOOR
  3

  2
PRODUCT
 70
     0
1001
ACDBATTR
1070
     0
1070
     1
  0
LINE
  5
AF7B
  8
0
 10
4473.5798084018106238
 20
179.6465444975719095
 30
0.0
 11
4473.5798084018106238
 21
177.3195444975719113
 31
0.0
  0
LINE
  5
AF7C
  8
0
 10
4474.9878084018118898
 20
176.5940354363719109
 30
0.0
 11
4474.9878084018118898
 21
175.7636783008719021
 31
0.0
  0
LINE
  5
AF7D
  8
0
 10
4475.4878084018109803
 20
176.5940354363719109
 30
0.0
 11
4475.4878084018109803
 21
176.2516692346719083
 31
0.0
  0
LINE
  5
AF7E
  8
0
 10
4497.4123400206117367
 20
175.6386783008719021
 30
0.0
 11
4475.1128084018118898
 21
175.6386783008719021
 31
0.0
  0
ARC
  5
AF7F
  8
0
 10
4475.1128084018118898
 20
175.7636783008719021
 30
0.0
 40
0.125
 50
180.0
 51
270.0
  0
LINE
  5
AF80
  8
0
 10
4475.1128084018118898
 20
175.7725871188719111
 30
0.0
 11
4497.4123400206117367
 21
175.7725871188719111
 31
0.0
  0
ARC
  5
AF81
  8
0
 10
4475.1128084018118898
 20
175.8975871188719111
 30
0.0
 40
0.125
 50
180.0
 51
270.0
  0
LINE
  5
AF82
  8
0
 10
4475.4325843999058634
 20
176.2154837538718937
 30
0.0
 11
4497.0925640225123061
 21
176.2154837538718937
 31
0.0
  0
LINE
  5
AF83
  8
0
 10
4497.0373400206117367
 20
176.2986783008718987
 30
0.0
 11
4475.4878084018109803
 21
176.2986783008718987
 31
0.0
  0
LINE
  5
AF84
  8
0
 10
4522.4548084018106238
 20
177.3195444975719113
 30
0.0
 11
4473.5798084018106238
 21
177.3195444975719113
 31
0.0
  0
LINE
  5
AF85
  8
0
 10
4473.5798084018106238
 20
177.4066218173718994
 30
0.0
 11
4522.4548084018106238
 21
177.4066218173718994
 31
0.0
  0
LINE
  5
AF86
  8
0
 10
4473.5798084018106238
 20
177.4312770129718899
 30
0.0
 11
4522.4548084018106238
 21
177.4312770129718899
 31
0.0
  0
LINE
  5
AF87
  8
0
 10
4522.4548084018106238
 20
179.6465444975719095
 30
0.0
 11
4473.5798084018106238
 21
179.6465444975719095
 31
0.0
  0
LINE
  5
AF88
  8
0
 10
4522.4548084018106238
 20
177.3195444975719113
 30
0.0
 11
4522.4548084018106238
 21
179.6465444975719095
 31
0.0
  0
ARC
  5
AF89
  8
0
 10
4476.2378084018109803
 20
177.6248118427718907
 30
0.0
 40
1.5
 50
191.7423812516265968
 51
207.2660444503003134
  0
ARC
  5
AF8A
  8
0
 10
4474.2378084018118898
 20
176.5940354363719109
 30
0.0
 40
1.25
 50
0.0
 51
27.2660444506889696
  0
ARC
  5
AF8B
  8
0
 10
4476.2378084018109803
 20
177.6248118427718907
 30
0.0
 40
1.0
 50
197.7742487520976908
 51
207.266044450688895
  0
ARC
  5
AF8C
  8
0
 10
4474.2378084018118898
 20
176.5940354363719109
 30
0.0
 40
0.75
 50
0.0
 51
27.26604445151251
  0
ARC
  5
AF8D
  8
0
 10
4475.3753208031048416
 20
176.3631082862549135
 30
0.0
 40
0.1583417888005701
 50
291.2012868012317881
 51
315.2682882348277076
  0
LINE
  5
AF8E
  8
0
 10
4497.5373400206117367
 20
176.5940354363719109
 30
0.0
 11
4497.5373400206117367
 21
175.7636783008719021
 31
0.0
  0
LINE
  5
AF8F
  8
0
 10
4497.0373400206117367
 20
176.5940354363719109
 30
0.0
 11
4497.0373400206117367
 21
176.2516692346719083
 31
0.0
  0
ARC
  5
AF90
  8
0
 10
4497.4123400206117367
 20
175.7636783008719021
 30
0.0
 40
0.125
 50
270.0
 51
0.0
  0
ARC
  5
AF91
  8
0
 10
4497.4123400206117367
 20
175.8975871188719111
 30
0.0
 40
0.125
 50
270.0
 51
0.0
  0
ARC
  5
AF92
  8
0
 10
4496.2873400206117367
 20
177.6248118427718907
 30
0.0
 40
1.5
 50
332.733955549699715
 51
348.2576187483733747
  0
ARC
  5
AF93
  8
0
 10
4498.2873400206117367
 20
176.5940354363719109
 30
0.0
 40
1.25
 50
152.7339555493109913
 51
180.0
  0
ARC
  5
AF94
  8
0
 10
4496.2873400206117367
 20
177.6248118427718907
 30
0.0
 40
1.0
 50
332.7339555493110197
 51
342.2257512479022807
  0
ARC
  5
AF95
  8
0
 10
4498.2873400206117367
 20
176.5940354363719109
 30
0.0
 40
0.75
 50
152.7339555484875007
 51
180.0
  0
ARC
  5
AF96
  8
0
 10
4497.1498276193187849
 20
176.3631082862549135
 30
0.0
 40
0.1583417888005701
 50
224.7317117651722924
 51
248.7987131974261104
  0
ENDSEC
  0
EOF
