  0
SECTION
  2
HEADER
  9
$ACADVER
  1
AC1009
  9
$INSBASE
 10
3814.4056709900728492
 20
196.1334986503725872
 30
0.0
  9
$EXTMIN
 10
3784.7494209900728492
 20
193.2742657635949115
 30
0.0
  9
$EXTMAX
 10
3844.1244209900728492
 20
197.2821319602948904
 30
0.0
  9
$LIMMIN
 10
0.0
 20
0.0
  9
$LIMMAX
 10
11.6929133858000007
 20
8.2677165353999982
  9
$ORTHOMODE
 70
     1
  9
$REGENMODE
 70
     1
  9
$FILLMODE
 70
     1
  9
$QTEXTMODE
 70
     0
  9
$MIRRTEXT
 70
     0
  9
$DRAGMODE
 70
     2
  9
$LTSCALE
 40
0.6431102362
  9
$OSMODE
 70
  4095
  9
$ATTMODE
 70
     1
  9
$TEXTSIZE
 40
0.2
  9
$TRACEWID
 40
0.05
  9
$TEXTSTYLE
  7
STANDARD
  9
$CLAYER
  8
0
  9
$CELTYPE
  6
BYLAYER
  9
$CECOLOR
 62
   256
  9
$DIMSCALE
 40
1.0
  9
$DIMASZ
 40
0.1875
  9
$DIMEXO
 40
0.0625
  9
$DIMDLI
 40
0.4443307087
  9
$DIMRND
 40
0.0
  9
$DIMDLE
 40
0.0
  9
$DIMEXE
 40
0.125
  9
$DIMTP
 40
0.01
  9
$DIMTM
 40
0.01
  9
$DIMTXT
 40
2.0
  9
$DIMCEN
 40
0.1052362205
  9
$DIMTSZ
 40
0.0
  9
$DIMTOL
 70
     1
  9
$DIMLIM
 70
     0
  9
$DIMTIH
 70
     1
  9
$DIMTOH
 70
     1
  9
$DIMSE1
 70
     0
  9
$DIMSE2
 70
     0
  9
$DIMTAD
 70
     0
  9
$DIMZIN
 70
     0
  9
$DIMBLK
  1

  9
$DIMASO
 70
     1
  9
$DIMSHO
 70
     1
  9
$DIMPOST
  1
\X
  9
$DIMAPOST
  1

  9
$DIMALT
 70
     1
  9
$DIMALTD
 70
     2
  9
$DIMALTF
 40
25.3999999999999986
  9
$DIMLFAC
 40
1.0
  9
$DIMTOFL
 70
     0
  9
$DIMTVP
 40
0.0
  9
$DIMTIX
 70
     0
  9
$DIMSOXD
 70
     0
  9
$DIMSAH
 70
     0
  9
$DIMBLK1
  1

  9
$DIMBLK2
  1

  9
$DIMSTYLE
  2
STANDARD
  9
$DIMCLRD
 70
     0
  9
$DIMCLRE
 70
     0
  9
$DIMCLRT
 70
     0
  9
$DIMTFAC
 40
1.0
  9
$DIMGAP
 40
0.09
  9
$LUNITS
 70
     2
  9
$LUPREC
 70
     4
  9
$SKETCHINC
 40
0.1
  9
$FILLETRAD
 40
0.0
  9
$AUNITS
 70
     0
  9
$AUPREC
 70
     0
  9
$MENU
  1
.
  9
$ELEVATION
 40
0.0
  9
$PELEVATION
 40
0.0
  9
$THICKNESS
 40
0.0
  9
$LIMCHECK
 70
     0
  9
$BLIPMODE
 70
     0
  9
$CHAMFERA
 40
0.0
  9
$CHAMFERB
 40
0.0
  9
$SKPOLY
 70
     0
  9
$TDCREATE
 40
2458060.468368056230247
  9
$TDUPDATE
 40
2459804.9830439807847142
  9
$TDINDWG
 40
0.3801459491
  9
$TDUSRTIMER
 40
0.3801459491
  9
$USRTIMER
 70
     1
  9
$ANGBASE
 50
0.0
  9
$ANGDIR
 70
     0
  9
$PDMODE
 70
     0
  9
$PDSIZE
 40
0.3125
  9
$PLINEWID
 40
0.0
  9
$COORDS
 70
     1
  9
$SPLFRAME
 70
     0
  9
$SPLINETYPE
 70
     6
  9
$SPLINESEGS
 70
     8
  9
$ATTDIA
 70
     1
  9
$ATTREQ
 70
     1
  9
$HANDLING
 70
     1
  9
$HANDSEED
  5
826A
  9
$SURFTAB1
 70
     6
  9
$SURFTAB2
 70
     6
  9
$SURFTYPE
 70
     6
  9
$SURFU
 70
     6
  9
$SURFV
 70
     6
  9
$UCSNAME
  2

  9
$UCSORG
 10
0.0
 20
0.0
 30
0.0
  9
$UCSXDIR
 10
1.0
 20
0.0
 30
0.0
  9
$UCSYDIR
 10
0.0
 20
1.0
 30
0.0
  9
$PUCSNAME
  2

  9
$PUCSORG
 10
0.0
 20
0.0
 30
0.0
  9
$PUCSXDIR
 10
1.0
 20
0.0
 30
0.0
  9
$PUCSYDIR
 10
0.0
 20
1.0
 30
0.0
  9
$USERI1
 70
     0
  9
$USERI2
 70
     0
  9
$USERI3
 70
     0
  9
$USERI4
 70
     0
  9
$USERI5
 70
     0
  9
$USERR1
 40
0.0
  9
$USERR2
 40
0.0
  9
$USERR3
 40
0.0
  9
$USERR4
 40
0.0
  9
$USERR5
 40
0.0
  9
$WORLDVIEW
 70
     1
  9
$SHADEDGE
 70
     3
  9
$SHADEDIF
 70
    70
  9
$TILEMODE
 70
     1
  9
$MAXACTVP
 70
    64
  9
$PLIMCHECK
 70
     0
  9
$PEXTMIN
 10
1.0000000000000000E+20
 20
1.0000000000000000E+20
 30
1.0000000000000000E+20
  9
$PEXTMAX
 10
-1.0000000000000000E+20
 20
-1.0000000000000000E+20
 30
-1.0000000000000000E+20
  9
$PLIMMIN
 10
0.0
 20
0.0
  9
$PLIMMAX
 10
12.0
 20
9.0
  9
$UNITMODE
 70
     0
  9
$VISRETAIN
 70
     1
  9
$PLINEGEN
 70
     0
  9
$PSLTSCALE
 70
     1
  0
ENDSEC
  0
SECTION
  2
TABLES
  0
TABLE
  2
VPORT
 70
     1
  0
VPORT
  2
*ACTIVE
 70
     0
 10
0.0
 20
0.0
 11
1.0
 21
1.0
 12
0.0
 22
0.0
 13
0.0
 23
0.0
 14
1.0
 24
1.0
 15
0.0
 25
0.0
 16
0.0
 26
0.0
 36
170.9930733677726948
 17
3814.43701171875
 27
195.2781982421875
 37
0.0
 40
59.528836949077423
 41
2.156179775280898
 42
50.0
 43
0.0
 44
0.0
 50
0.0
 51
0.0
 71
     0
 72
   100
 73
     1
 74
     1
 75
     0
 76
     0
 77
     0
 78
     0
  0
ENDTAB
  0
TABLE
  2
LTYPE
 70
     2
  0
LTYPE
  2
CONTINUOUS
 70
     0
  3
Solid line
 72
    65
 73
     0
 40
0.0
  0
LTYPE
  2
PHANTOM2
 70
     0
  3
___ _ _ ___ _ _ ___ _ _ ___ _ _
 72
    65
 73
     6
 40
1.25
 49
0.625
 49
-0.125
 49
0.125
 49
-0.125
 49
0.125
 49
-0.125
  0
ENDTAB
  0
TABLE
  2
LAYER
 70
     2
  0
LAYER
  2
0
 70
     0
 62
   255
  6
CONTINUOUS
  0
LAYER
  2
DEFPOINTS
 70
     0
 62
     7
  6
CONTINUOUS
  0
ENDTAB
  0
TABLE
  2
STYLE
 70
     1
  0
STYLE
  2
STANDARD
 70
     0
 40
0.0
 41
0.8
 50
0.0
 71
     0
 42
0.2
  3
txt
  4

  0
ENDTAB
  0
TABLE
  2
VIEW
 70
     0
  0
ENDTAB
  0
TABLE
  2
UCS
 70
     0
  0
ENDTAB
  0
TABLE
  2
APPID
 70
     9
  0
APPID
  2
ACAD
 70
     0
  0
APPID
  2
ACAD_MLEADERVER
 70
     0
  0
APPID
  2
ACAD_EXEMPT_FROM_CAD_STANDARDS
 70
     0
  0
APPID
  2
ACAD_NAV_VCDISPLAY
 70
     0
  0
APPID
  2
ACAECLAYERSTANDARD
 70
     0
  0
APPID
  2
ACCMTRANSPARENCY
 70
     0
  0
APPID
  2
ACAD_DSTYLE_DIMJAG
 70
     0
  0
APPID
  2
ACAD_DSTYLE_DIMTALN
 70
     0
  0
APPID
  2
ACDBATTR
 70
     0
  0
ENDTAB
  0
TABLE
  2
DIMSTYLE
 70
     1
  0
DIMSTYLE
  2
STANDARD
 70
     0
  3

  4

  5

  6

  7

 40
1.0
 41
0.1875
 42
0.0625
 43
0.38
 44
0.125
 45
0.0
 46
0.0
 47
0.01
 48
0.01
140
0.15625
141
0.09
142
0.0
143
25.3999999999999986
144
1.0
145
0.0
146
1.0
147
0.09
 71
     1
 72
     0
 73
     1
 74
     1
 75
     0
 76
     0
 77
     0
 78
     4
170
     0
171
     2
172
     0
173
     0
174
     0
175
     0
176
     0
177
     0
178
     0
  0
ENDTAB
  0
ENDSEC
  0
SECTION
  2
BLOCKS
  0
BLOCK
  8
0
  2
$MODEL_SPACE
 70
     0
 10
0.0
 20
0.0
 30
0.0
  3
$MODEL_SPACE
  1

  0
ENDBLK
  5
21
  8
0
  0
BLOCK
 67
     1
  8
0
  2
$PAPER_SPACE
 70
     0
 10
0.0
 20
0.0
 30
0.0
  3
$PAPER_SPACE
  1

  0
ENDBLK
  5
1D
 67
     1
  8
0
  0
ENDSEC
  0
SECTION
  2
ENTITIES
  0
ATTDEF
  5
7B78
  8
DEFPOINTS
 10
3814.4061937798092004
 20
196.1377197340019052
 30
0.0
 40
0.001
  1
572113-G10
  3

  2
MODELNUMBER
 70
     0
1001
ACDBATTR
1070
     0
1070
     1
  0
ATTDEF
  5
7B79
  8
DEFPOINTS
 10
3814.4061937798092004
 20
196.1360530673352116
 30
0.0
 40
0.001
  1

  3

  2
TRADENAME
 70
     0
1001
ACDBATTR
1070
     0
1070
     1
  0
ATTDEF
  5
7B7A
  8
DEFPOINTS
 10
3814.4061937798092004
 20
196.1343864006686033
 30
0.0
 40
0.001
  1
SHOWER DOOR
  3

  2
PRODUCT
 70
     0
1001
ACDBATTR
1070
     0
1070
     1
  0
LINE
  5
80F4
  8
0
 10
3784.7494209900728492
 20
194.9551319602948922
 30
0.0
 11
3784.7494209900728492
 21
197.2821319602948904
 31
0.0
  0
LINE
  5
80F5
  8
0
 10
3844.1244209900728492
 20
194.9551319602948922
 30
0.0
 11
3844.1244209900728492
 21
197.2821319602948904
 31
0.0
  0
LINE
  5
80F6
  8
0
 10
3784.7494209900728492
 20
197.2821319602948904
 30
0.0
 11
3844.1244209900728492
 21
197.2821319602948904
 31
0.0
  0
LINE
  5
80F7
  8
0
 10
3784.7494209900728492
 20
194.9551319602948922
 30
0.0
 11
3844.1244209900728492
 21
194.9551319602948922
 31
0.0
  0
LINE
  5
80F8
  8
0
 10
3784.7494209900728492
 20
195.172665723394914
 30
0.0
 11
3844.1244209900728492
 21
195.172665723394914
 31
0.0
  0
ARC
  5
80F9
  8
0
 10
3787.4077286621559324
 20
195.2605236485833018
 30
0.0
 40
1.500330451012704
 50
191.744608155887704
 51
207.2648825804022863
  0
ARC
  5
80FA
  8
0
 10
3785.4073582772712143
 20
194.2296076890060874
 30
0.0
 40
0.7500627129568601
 50
0.0011618680397964
 51
27.2648825804023005
  0
LINE
  5
80FB
  8
0
 10
3786.1574209900732058
 20
194.2296228990948919
 30
0.0
 11
3786.1574376297098752
 21
193.4090641884635886
 31
0.0
  0
ARC
  5
80FC
  8
0
 10
3786.2824408581482203
 20
193.4090667233319039
 30
0.0
 40
0.1250032284645725
 50
180.0011618680397874
 51
267.9909395133179828
  0
LINE
  5
80FD
  8
0
 10
3786.2780585530590542
 20
193.2841403348919016
 30
0.0
 11
3786.3381864666789625
 21
193.282031101885508
 31
0.0
  0
ARC
  5
80FE
  8
0
 10
3787.0949524929269501
 20
195.1458862140272004
 30
0.0
 40
0.6676443766579943
 50
196.6014347541882898
 51
210.8177040516038119
  0
ARC
  5
80FF
  8
0
 10
3785.3435881271830112
 20
194.2219926339035112
 30
0.0
 40
1.313855019610908
 50
0.3327493848651523
 51
26.2865043035732491
  0
LINE
  5
8100
  8
0
 10
3786.6574209900732058
 20
194.2296228990948919
 30
0.0
 11
3786.6574209900732058
 21
193.8872524794948902
 31
0.0
  0
ARC
  5
8101
  8
0
 10
3786.6338251864158337
 20
193.8906442507654049
 30
0.0
 40
0.0238377320240804
 50
293.865599949884313
 51
351.8301035983220117
  0
ARC
  5
8102
  8
0
 10
3786.531943578001119
 20
194.0741929747746894
 30
0.0
 40
0.2336792589364382
 50
271.1867666892160855
 51
298.5067165563406206
  0
LINE
  5
8103
  8
0
 10
3786.5367834271728498
 20
193.8405638414949124
 30
0.0
 11
3786.4072952088649799
 21
193.8339480954456064
 31
0.0
  0
LINE
  5
8104
  8
0
 10
3786.4074209900732058
 20
193.4791228990949037
 30
0.0
 11
3786.4074209900732058
 21
193.833954521794908
 31
0.0
  0
LINE
  5
8105
  8
0
 10
3786.3381867994721688
 20
193.2742657635949115
 30
0.0
 11
3786.3381867994721688
 21
193.4791228990949037
 31
0.0
  0
LINE
  5
8106
  8
0
 10
3786.3381867994721688
 20
193.4791228990949037
 30
0.0
 11
3813.7761867994718159
 21
193.4791228990949037
 31
0.0
  0
LINE
  5
8107
  8
0
 10
3786.3381867994721688
 20
193.2742657635949115
 30
0.0
 11
3813.7761867994718159
 21
193.2742657635949115
 31
0.0
  0
LINE
  5
8108
  8
0
 10
3786.6013890752187763
 20
193.851071216594903
 30
0.0
 11
3813.5129845237279369
 21
193.851071216594903
 31
0.0
  0
LINE
  5
8109
  8
0
 10
3786.6574209900732058
 20
193.9342657635949081
 30
0.0
 11
3813.4569526088730527
 21
193.9342657635949081
 31
0.0
  0
ARC
  5
810A
  8
0
 10
3812.7066449367898713
 20
195.2605236485833018
 30
0.0
 40
1.500330451012704
 50
332.7351174195976
 51
348.2553918441121823
  0
ARC
  5
810B
  8
0
 10
3814.7070153216750441
 20
194.2296076890060874
 30
0.0
 40
0.7500627129568601
 50
152.7351174195977137
 51
179.9988381319602126
  0
LINE
  5
810C
  8
0
 10
3813.9569526088730527
 20
194.2296228990948919
 30
0.0
 11
3813.956935969236838
 21
193.4090641884635886
 31
0.0
  0
ARC
  5
810D
  8
0
 10
3813.8319327407980381
 20
193.4090667233319039
 30
0.0
 40
0.1250032284645725
 50
272.0090604866820172
 51
359.998838131960099
  0
LINE
  5
810E
  8
0
 10
3813.8363150458858399
 20
193.2841403348919016
 30
0.0
 11
3813.7761871322668412
 21
193.282031101885508
 31
0.0
  0
ARC
  5
810F
  8
0
 10
3813.0194211060188536
 20
195.1458862140272004
 30
0.0
 40
0.6676443766579943
 50
329.1822959483948807
 51
343.3985652458117102
  0
ARC
  5
8110
  8
0
 10
3814.7707854717627924
 20
194.2219926339035112
 30
0.0
 40
1.313855019610908
 50
153.7134956964266905
 51
179.6672506151332129
  0
LINE
  5
8111
  8
0
 10
3813.4569526088730527
 20
194.2296228990948919
 30
0.0
 11
3813.4569526088730527
 21
193.8872524794948902
 31
0.0
  0
ARC
  5
8112
  8
0
 10
3813.4805484125299699
 20
193.8906442507654049
 30
0.0
 40
0.0238377320240804
 50
188.169896401677903
 51
246.1344000501156017
  0
ARC
  5
8113
  8
0
 10
3813.5824300209451394
 20
194.0741929747746894
 30
0.0
 40
0.2336792589364382
 50
241.4932834436592941
 51
268.8132333107839145
  0
LINE
  5
8114
  8
0
 10
3813.5775901717729539
 20
193.8405638414949124
 30
0.0
 11
3813.7070783900808237
 21
193.8339480954456064
 31
0.0
  0
LINE
  5
8115
  8
0
 10
3813.7069526088730527
 20
193.4791228990949037
 30
0.0
 11
3813.7069526088730527
 21
193.833954521794908
 31
0.0
  0
LINE
  5
8116
  8
0
 10
3813.7761867994718159
 20
193.2742657635949115
 30
0.0
 11
3813.7761867994718159
 21
193.4791228990949037
 31
0.0
  0
LINE
  5
8117
  8
0
 10
3786.3381867994721688
 20
193.327558383194912
 30
0.0
 11
3813.7761867994718159
 21
193.327558383194912
 31
0.0
  0
LINE
  5
8118
  8
0
 10
3786.3381867994721688
 20
193.4081745815948921
 30
0.0
 11
3813.7761867994718159
 21
193.4081745815948921
 31
0.0
  0
ENDSEC
  0
EOF
