  0
SECTION
  2
HEADER
  9
$ACADVER
  1
AC1009
  9
$INSBASE
 10
4067.1122605138962172
 20
152.4258053826258106
 30
0.0
  9
$EXTMIN
 10
4037.3000105138949039
 20
152.4207950334944996
 30
0.0
  9
$EXTMAX
 10
4096.9245105138952567
 20
222.3938053826259136
 30
0.0
  9
$LIMMIN
 10
0.0
 20
0.0
  9
$LIMMAX
 10
11.6929133858000007
 20
8.2677165353999982
  9
$ORTHOMODE
 70
     1
  9
$REGENMODE
 70
     1
  9
$FILLMODE
 70
     1
  9
$QTEXTMODE
 70
     0
  9
$MIRRTEXT
 70
     0
  9
$DRAGMODE
 70
     2
  9
$LTSCALE
 40
0.6431102362
  9
$OSMODE
 70
  4095
  9
$ATTMODE
 70
     1
  9
$TEXTSIZE
 40
0.2
  9
$TRACEWID
 40
0.05
  9
$TEXTSTYLE
  7
STANDARD
  9
$CLAYER
  8
0
  9
$CELTYPE
  6
BYLAYER
  9
$CECOLOR
 62
   256
  9
$DIMSCALE
 40
1.0
  9
$DIMASZ
 40
0.1875
  9
$DIMEXO
 40
0.0625
  9
$DIMDLI
 40
0.4443307087
  9
$DIMRND
 40
0.0
  9
$DIMDLE
 40
0.0
  9
$DIMEXE
 40
0.125
  9
$DIMTP
 40
0.01
  9
$DIMTM
 40
0.01
  9
$DIMTXT
 40
2.0
  9
$DIMCEN
 40
0.1052362205
  9
$DIMTSZ
 40
0.0
  9
$DIMTOL
 70
     1
  9
$DIMLIM
 70
     0
  9
$DIMTIH
 70
     1
  9
$DIMTOH
 70
     1
  9
$DIMSE1
 70
     0
  9
$DIMSE2
 70
     0
  9
$DIMTAD
 70
     0
  9
$DIMZIN
 70
     0
  9
$DIMBLK
  1

  9
$DIMASO
 70
     1
  9
$DIMSHO
 70
     1
  9
$DIMPOST
  1
\X
  9
$DIMAPOST
  1

  9
$DIMALT
 70
     1
  9
$DIMALTD
 70
     2
  9
$DIMALTF
 40
25.3999999999999986
  9
$DIMLFAC
 40
1.0
  9
$DIMTOFL
 70
     0
  9
$DIMTVP
 40
0.0
  9
$DIMTIX
 70
     0
  9
$DIMSOXD
 70
     0
  9
$DIMSAH
 70
     0
  9
$DIMBLK1
  1

  9
$DIMBLK2
  1

  9
$DIMSTYLE
  2
STANDARD
  9
$DIMCLRD
 70
     0
  9
$DIMCLRE
 70
     0
  9
$DIMCLRT
 70
     0
  9
$DIMTFAC
 40
1.0
  9
$DIMGAP
 40
0.09
  9
$LUNITS
 70
     2
  9
$LUPREC
 70
     4
  9
$SKETCHINC
 40
0.1
  9
$FILLETRAD
 40
0.0
  9
$AUNITS
 70
     0
  9
$AUPREC
 70
     0
  9
$MENU
  1
.
  9
$ELEVATION
 40
0.0
  9
$PELEVATION
 40
0.0
  9
$THICKNESS
 40
0.0
  9
$LIMCHECK
 70
     0
  9
$BLIPMODE
 70
     0
  9
$CHAMFERA
 40
0.0
  9
$CHAMFERB
 40
0.0
  9
$SKPOLY
 70
     0
  9
$TDCREATE
 40
2458060.468368056230247
  9
$TDUPDATE
 40
2458922.2716087969020009
  9
$TDINDWG
 40
0.2986181713
  9
$TDUSRTIMER
 40
0.2986181713
  9
$USRTIMER
 70
     1
  9
$ANGBASE
 50
0.0
  9
$ANGDIR
 70
     0
  9
$PDMODE
 70
     0
  9
$PDSIZE
 40
0.3125
  9
$PLINEWID
 40
0.0
  9
$COORDS
 70
     1
  9
$SPLFRAME
 70
     0
  9
$SPLINETYPE
 70
     6
  9
$SPLINESEGS
 70
     8
  9
$ATTDIA
 70
     1
  9
$ATTREQ
 70
     1
  9
$HANDLING
 70
     1
  9
$HANDSEED
  5
66CC
  9
$SURFTAB1
 70
     6
  9
$SURFTAB2
 70
     6
  9
$SURFTYPE
 70
     6
  9
$SURFU
 70
     6
  9
$SURFV
 70
     6
  9
$UCSNAME
  2

  9
$UCSORG
 10
0.0
 20
0.0
 30
0.0
  9
$UCSXDIR
 10
1.0
 20
0.0
 30
0.0
  9
$UCSYDIR
 10
0.0
 20
1.0
 30
0.0
  9
$PUCSNAME
  2

  9
$PUCSORG
 10
0.0
 20
0.0
 30
0.0
  9
$PUCSXDIR
 10
1.0
 20
0.0
 30
0.0
  9
$PUCSYDIR
 10
0.0
 20
1.0
 30
0.0
  9
$USERI1
 70
     0
  9
$USERI2
 70
     0
  9
$USERI3
 70
     0
  9
$USERI4
 70
     0
  9
$USERI5
 70
     0
  9
$USERR1
 40
0.0
  9
$USERR2
 40
0.0
  9
$USERR3
 40
0.0
  9
$USERR4
 40
0.0
  9
$USERR5
 40
0.0
  9
$WORLDVIEW
 70
     1
  9
$SHADEDGE
 70
     3
  9
$SHADEDIF
 70
    70
  9
$TILEMODE
 70
     1
  9
$MAXACTVP
 70
    64
  9
$PLIMCHECK
 70
     0
  9
$PEXTMIN
 10
1.0000000000000000E+20
 20
1.0000000000000000E+20
 30
1.0000000000000000E+20
  9
$PEXTMAX
 10
-1.0000000000000000E+20
 20
-1.0000000000000000E+20
 30
-1.0000000000000000E+20
  9
$PLIMMIN
 10
0.0
 20
0.0
  9
$PLIMMAX
 10
12.0
 20
9.0
  9
$UNITMODE
 70
     0
  9
$VISRETAIN
 70
     1
  9
$PLINEGEN
 70
     0
  9
$PSLTSCALE
 70
     1
  0
ENDSEC
  0
SECTION
  2
TABLES
  0
TABLE
  2
VPORT
 70
     1
  0
VPORT
  2
*ACTIVE
 70
     0
 10
0.0
 20
0.0
 11
1.0
 21
1.0
 12
0.0
 22
0.0
 13
0.0
 23
0.0
 14
1.0
 24
1.0
 15
0.0
 25
0.0
 16
0.0
 26
0.0
 36
263.3680685542782953
 17
4067.1121826171870453
 27
187.4072969308097072
 37
0.0
 40
91.9319704670232056
 41
2.1481900452488678
 42
50.0
 43
0.0
 44
0.0
 50
0.0
 51
0.0
 71
     0
 72
   100
 73
     1
 74
     1
 75
     0
 76
     0
 77
     0
 78
     0
  0
ENDTAB
  0
TABLE
  2
LTYPE
 70
     2
  0
LTYPE
  2
CONTINUOUS
 70
     0
  3
Solid line
 72
    65
 73
     0
 40
0.0
  0
LTYPE
  2
PHANTOM2
 70
     0
  3
___ _ _ ___ _ _ ___ _ _ ___ _ _
 72
    65
 73
     6
 40
1.25
 49
0.625
 49
-0.125
 49
0.125
 49
-0.125
 49
0.125
 49
-0.125
  0
ENDTAB
  0
TABLE
  2
LAYER
 70
     2
  0
LAYER
  2
0
 70
     0
 62
   255
  6
CONTINUOUS
  0
LAYER
  2
DEFPOINTS
 70
     0
 62
     7
  6
CONTINUOUS
  0
ENDTAB
  0
TABLE
  2
STYLE
 70
     1
  0
STYLE
  2
STANDARD
 70
     0
 40
0.0
 41
0.8
 50
0.0
 71
     0
 42
0.2
  3
txt
  4

  0
ENDTAB
  0
TABLE
  2
VIEW
 70
     0
  0
ENDTAB
  0
TABLE
  2
UCS
 70
     0
  0
ENDTAB
  0
TABLE
  2
APPID
 70
     9
  0
APPID
  2
ACAD
 70
     0
  0
APPID
  2
ACAD_MLEADERVER
 70
     0
  0
APPID
  2
ACAD_EXEMPT_FROM_CAD_STANDARDS
 70
     0
  0
APPID
  2
ACAD_NAV_VCDISPLAY
 70
     0
  0
APPID
  2
ACAECLAYERSTANDARD
 70
     0
  0
APPID
  2
ACCMTRANSPARENCY
 70
     0
  0
APPID
  2
ACAD_DSTYLE_DIMJAG
 70
     0
  0
APPID
  2
ACAD_DSTYLE_DIMTALN
 70
     0
  0
APPID
  2
ACDBATTR
 70
     0
  0
ENDTAB
  0
TABLE
  2
DIMSTYLE
 70
     1
  0
DIMSTYLE
  2
STANDARD
 70
     0
  3

  4

  5

  6

  7

 40
1.0
 41
0.1875
 42
0.0625
 43
0.38
 44
0.125
 45
0.0
 46
0.0
 47
0.01
 48
0.01
140
0.15625
141
0.09
142
0.0
143
25.3999999999999986
144
1.0
145
0.0
146
1.0
147
0.09
 71
     1
 72
     0
 73
     1
 74
     1
 75
     0
 76
     0
 77
     0
 78
     4
170
     0
171
     2
172
     0
173
     0
174
     0
175
     0
176
     0
177
     0
178
     0
  0
ENDTAB
  0
ENDSEC
  0
SECTION
  2
BLOCKS
  0
BLOCK
  8
0
  2
$MODEL_SPACE
 70
     0
 10
0.0
 20
0.0
 30
0.0
  3
$MODEL_SPACE
  1

  0
ENDBLK
  5
21
  8
0
  0
BLOCK
 67
     1
  8
0
  2
$PAPER_SPACE
 70
     0
 10
0.0
 20
0.0
 30
0.0
  3
$PAPER_SPACE
  1

  0
ENDBLK
  5
1D
 67
     1
  8
0
  0
ENDSEC
  0
SECTION
  2
ENTITIES
  0
ATTDEF
  5
3930
  8
DEFPOINTS
 10
4067.1071643183568085
 20
152.4241283668278015
 30
0.0
 40
0.001
  1
547808-59*
  3

  2
MODELNUMBER
 70
     0
1001
ACDBATTR
1070
     0
1070
     1
  0
ATTDEF
  5
3931
  8
DEFPOINTS
 10
4067.1071643183568085
 20
152.422461700161108
 30
0.0
 40
0.001
  1
FINESSE
  3

  2
TRADENAME
 70
     0
1001
ACDBATTR
1070
     0
1070
     1
  0
ATTDEF
  5
3932
  8
DEFPOINTS
 10
4067.1071643183568085
 20
152.4207950334944996
 30
0.0
 40
0.001
  1
SHOWER DOOR
  3

  2
PRODUCT
 70
     0
1001
ACDBATTR
1070
     0
1070
     1
  0
LINE
  5
6579
  8
0
 10
4037.3000105138949039
 20
152.4258053826258106
 30
0.0
 11
4096.9245105138952567
 21
152.4258053826258106
 31
0.0
  0
LINE
  5
657A
  8
0
 10
4038.7090105138950094
 20
153.320897696925897
 30
0.0
 11
4095.5155105138951512
 21
153.320897696925897
 31
0.0
  0
LINE
  5
657B
  8
0
 10
4038.7090105138950094
 20
154.3733045201259131
 30
0.0
 11
4095.5155105138951512
 21
154.3733045201259131
 31
0.0
  0
LINE
  5
657C
  8
0
 10
4069.0843595619949156
 20
154.368934661225893
 30
0.0
 11
4068.8340105138950094
 21
154.3733045201259131
 31
0.0
  0
LINE
  5
657D
  8
0
 10
4037.3000105138949039
 20
152.4258053826258106
 30
0.0
 11
4037.3000105138949039
 21
222.3938053826259136
 31
0.0
  0
LINE
  5
657E
  8
0
 10
4038.7090105138950094
 20
219.3938053826259136
 30
0.0
 11
4038.7090105138950094
 21
152.4258053826258106
 31
0.0
  0
LINE
  5
657F
  8
0
 10
4041.2950259693961925
 20
181.5632168393258894
 30
0.0
 11
4041.2950259693961925
 21
193.245390501025895
 31
0.0
  0
LINE
  5
6580
  8
0
 10
4068.795010513896159
 20
154.3733045201259131
 30
0.0
 11
4068.795010513896159
 21
219.3938053826259136
 31
0.0
  0
LINE
  5
6581
  8
0
 10
4068.8340105138950094
 20
153.320897696925897
 30
0.0
 11
4068.8340105138950094
 21
154.3733045201259131
 31
0.0
  0
LINE
  5
6582
  8
0
 10
4069.1040105138949912
 20
154.3489377073258879
 30
0.0
 11
4069.1040105138949912
 21
153.320897696925897
 31
0.0
  0
LINE
  5
6583
  8
0
 10
4092.4295105138949111
 20
191.7354944017257878
 30
0.0
 11
4092.3591980138949111
 21
191.6948994609257966
 31
0.0
  0
LINE
  5
6584
  8
0
 10
4092.4295105138949111
 20
191.573114638525908
 30
0.0
 11
4092.4998230138949111
 21
191.613709579325814
 31
0.0
  0
LINE
  5
6585
  8
0
 10
4092.3591980138949111
 20
191.613709579325814
 30
0.0
 11
4092.4295105138949111
 21
191.573114638525908
 31
0.0
  0
LINE
  5
6586
  8
0
 10
4092.4998230138949111
 20
191.6948994609257966
 30
0.0
 11
4092.4295105138949111
 21
191.7354944017257878
 31
0.0
  0
LINE
  5
6587
  8
0
 10
4092.0745105138948929
 20
191.4475247100259026
 30
0.0
 11
4092.0745105138948929
 21
191.861084330225907
 31
0.0
  0
LINE
  5
6588
  8
0
 10
4092.3591980138949111
 20
191.613709579325814
 30
0.0
 11
4092.3591980138949111
 21
191.6948994609257966
 31
0.0
  0
LINE
  5
6589
  8
0
 10
4092.4998230138949111
 20
191.6948994609257966
 30
0.0
 11
4092.4998230138949111
 21
191.613709579325814
 31
0.0
  0
LINE
  5
658A
  8
0
 10
4092.7845105138958388
 20
191.861084330225907
 30
0.0
 11
4092.7845105138958388
 21
191.4475247100259026
 31
0.0
  0
LINE
  5
658B
  8
0
 10
4095.5155105138951512
 20
152.4258053826258106
 30
0.0
 11
4095.5155105138951512
 21
219.3938053826259136
 31
0.0
  0
LINE
  5
658C
  8
0
 10
4096.9245105138952567
 20
222.3938053826259136
 30
0.0
 11
4096.9245105138952567
 21
152.4258053826258106
 31
0.0
  0
LINE
  5
658D
  8
0
 10
4096.9245105138952567
 20
219.3938053826259136
 30
0.0
 11
4037.3000105138949039
 21
219.3938053826259136
 31
0.0
  0
LINE
  5
658E
  8
0
 10
4037.3000105138949039
 20
222.3938053826259136
 30
0.0
 11
4096.9245105138952567
 21
222.3938053826259136
 31
0.0
  0
ARC
  5
658F
  8
0
 10
4069.0840105138950094
 20
154.3489377073258879
 30
0.0
 40
0.02
 50
0.0
 51
89.0000000001024603
  0
ARC
  5
6590
  8
0
 10
4092.1065105138959552
 20
191.861084330225907
 30
0.0
 40
0.032
 50
119.8916009938960059
 51
180.0
  0
ARC
  5
6591
  8
0
 10
4092.1065105138959552
 20
191.4475247100259026
 30
0.0
 40
0.032
 50
180.0
 51
240.1083990061040083
  0
ARC
  5
6592
  8
0
 10
4092.3195105138947838
 20
191.6543045201258053
 30
0.0
 40
0.03
 50
142.3415379937798946
 51
217.6584620062199917
  0
ARC
  5
6593
  8
0
 10
4092.3195105138947838
 20
191.6543045201258053
 30
0.0
 40
0.0275
 50
152.5479178154633075
 51
207.4520821845366925
  0
ARC
  5
6594
  8
0
 10
4092.4295105138949111
 20
191.2991795201259038
 30
0.0
 40
0.680125
 50
60.1083990058963735
 51
119.8916009941035981
  0
CIRCLE
  5
6595
  8
0
 10
4092.4295105138949111
 20
191.6543045201258053
 30
0.0
 40
0.14
  0
CIRCLE
  5
6596
  8
0
 10
4092.4295105138949111
 20
191.6543045201258053
 30
0.0
 40
0.135
  0
ARC
  5
6597
  8
0
 10
4092.4295105138949111
 20
192.0094295201257921
 30
0.0
 40
0.680125
 50
240.1083990058963877
 51
299.8916009941036123
  0
ARC
  5
6598
  8
0
 10
4092.5395105138950385
 20
191.6543045201258053
 30
0.0
 40
0.03
 50
322.3415379937877105
 51
37.6584620062122823
  0
ARC
  5
6599
  8
0
 10
4092.5395105138950385
 20
191.6543045201258053
 30
0.0
 40
0.0275
 50
332.5479178154791953
 51
27.4520821845087788
  0
ARC
  5
659A
  8
0
 10
4092.7525105138947765
 20
191.4475247100259026
 30
0.0
 40
0.032
 50
299.8916009938960201
 51
0.0
  0
ARC
  5
659B
  8
0
 10
4092.7525105138947765
 20
191.861084330225907
 30
0.0
 40
0.032
 50
0.0
 51
60.1083990061040012
  0
ARC
  5
659C
  8
0
 10
4041.5064975478198903
 20
181.6461487853572123
 30
0.0
 40
0.2271517909987878
 50
201.4134192289700991
 51
266.9611881108314719
  0
ARC
  5
659D
  8
0
 10
4041.7952097832389882
 20
174.188044392974092
 30
0.0
 40
7.2375236035624626
 50
90.0080232737973489
 51
92.3816024294900444
  0
ARC
  5
659E
  8
0
 10
4041.7955835495890824
 20
200.6615627527314984
 30
0.0
 40
7.2785319313293932
 50
267.6288794235622959
 51
269.9890796840631992
  0
ARC
  5
659F
  8
0
 10
4041.5055412681531379
 20
193.1637394712832929
 30
0.0
 40
0.2257954420914143
 50
92.8140865710401215
 51
158.8005851459446092
  0
LINE
  5
65A0
  8
0
 10
4042.2933666193957833
 20
181.5632168393258894
 30
0.0
 11
4042.2933666193957833
 21
193.245390501025895
 31
0.0
  0
ARC
  5
65A1
  8
0
 10
4042.0818950409711761
 20
181.6461487853570986
 30
0.0
 40
0.2271517909987819
 50
273.0388118891685281
 51
338.5865807710299009
  0
ARC
  5
65A2
  8
0
 10
4041.7931828055520782
 20
174.1880443929738078
 30
0.0
 40
7.2375236035627841
 50
87.6183975705099556
 51
89.9919767262026369
  0
ARC
  5
65A3
  8
0
 10
4041.7928090392010745
 20
200.6615627527324079
 30
0.0
 40
7.2785319313302947
 50
270.0109203159369144
 51
272.3711205764377041
  0
ARC
  5
65A4
  8
0
 10
4042.0828513206370189
 20
193.1637394712832929
 30
0.0
 40
0.2257954420914111
 50
21.1994148540561511
 51
87.1859134289598643
  0
LINE
  5
65A5
  8
0
 10
4092.4295105138949111
 20
183.2354944017259015
 30
0.0
 11
4092.3591980138949111
 21
183.1948994609259103
 31
0.0
  0
LINE
  5
65A6
  8
0
 10
4092.4295105138949111
 20
183.073114638525908
 30
0.0
 11
4092.4998230138949111
 21
183.113709579325814
 31
0.0
  0
LINE
  5
65A7
  8
0
 10
4092.3591980138949111
 20
183.113709579325814
 30
0.0
 11
4092.4295105138949111
 21
183.073114638525908
 31
0.0
  0
LINE
  5
65A8
  8
0
 10
4092.4998230138949111
 20
183.1948994609259103
 30
0.0
 11
4092.4295105138949111
 21
183.2354944017259015
 31
0.0
  0
LINE
  5
65A9
  8
0
 10
4092.0745105138948929
 20
182.9475247100259026
 30
0.0
 11
4092.0745105138948929
 21
183.361084330225907
 31
0.0
  0
LINE
  5
65AA
  8
0
 10
4092.3591980138949111
 20
183.113709579325814
 30
0.0
 11
4092.3591980138949111
 21
183.1948994609259103
 31
0.0
  0
LINE
  5
65AB
  8
0
 10
4092.4998230138949111
 20
183.1948994609259103
 30
0.0
 11
4092.4998230138949111
 21
183.113709579325814
 31
0.0
  0
LINE
  5
65AC
  8
0
 10
4092.7845105138958388
 20
183.361084330225907
 30
0.0
 11
4092.7845105138958388
 21
182.9475247100259026
 31
0.0
  0
ARC
  5
65AD
  8
0
 10
4092.1065105138959552
 20
183.361084330225907
 30
0.0
 40
0.032
 50
119.8916009938960059
 51
180.0
  0
ARC
  5
65AE
  8
0
 10
4092.1065105138959552
 20
182.9475247100259026
 30
0.0
 40
0.032
 50
180.0
 51
240.1083990061040083
  0
ARC
  5
65AF
  8
0
 10
4092.3195105138947838
 20
183.1543045201258906
 30
0.0
 40
0.03
 50
142.3415379937798946
 51
217.6584620062199917
  0
ARC
  5
65B0
  8
0
 10
4092.3195105138947838
 20
183.1543045201258906
 30
0.0
 40
0.0275
 50
152.5479178154633075
 51
207.4520821845366925
  0
ARC
  5
65B1
  8
0
 10
4092.4295105138949111
 20
182.7991795201259038
 30
0.0
 40
0.680125
 50
60.1083990058963735
 51
119.8916009941035981
  0
CIRCLE
  5
65B2
  8
0
 10
4092.4295105138949111
 20
183.1543045201258906
 30
0.0
 40
0.14
  0
CIRCLE
  5
65B3
  8
0
 10
4092.4295105138949111
 20
183.1543045201258906
 30
0.0
 40
0.135
  0
ARC
  5
65B4
  8
0
 10
4092.4295105138949111
 20
183.5094295201257921
 30
0.0
 40
0.680125
 50
240.1083990058963877
 51
299.8916009941036123
  0
ARC
  5
65B5
  8
0
 10
4092.5395105138950385
 20
183.1543045201258906
 30
0.0
 40
0.03
 50
322.3415379937877105
 51
37.6584620062122823
  0
ARC
  5
65B6
  8
0
 10
4092.5395105138950385
 20
183.1543045201258906
 30
0.0
 40
0.0275
 50
332.5479178154791953
 51
27.4520821845087788
  0
ARC
  5
65B7
  8
0
 10
4092.7525105138947765
 20
182.9475247100259026
 30
0.0
 40
0.032
 50
299.8916009938960201
 51
0.0
  0
ARC
  5
65B8
  8
0
 10
4092.7525105138947765
 20
183.361084330225907
 30
0.0
 40
0.032
 50
0.0
 51
60.1083990061040012
  0
ENDSEC
  0
EOF
