  0
SECTION
  2
HEADER
  9
$ACADVER
  1
AC1009
  9
$INSBASE
 10
4368.6129973207953299
 20
163.7246207860573008
 30
0.0
  9
$EXTMIN
 10
4344.8007473207953808
 20
161.2456061866573123
 30
0.0
  9
$EXTMAX
 10
4392.4252473207952789
 20
166.3653881993573975
 30
0.0
  9
$LIMMIN
 10
0.0
 20
0.0
  9
$LIMMAX
 10
11.6929133858000007
 20
8.2677165353999982
  9
$ORTHOMODE
 70
     1
  9
$REGENMODE
 70
     1
  9
$FILLMODE
 70
     1
  9
$QTEXTMODE
 70
     0
  9
$MIRRTEXT
 70
     0
  9
$DRAGMODE
 70
     2
  9
$LTSCALE
 40
0.6431102362
  9
$OSMODE
 70
  4095
  9
$ATTMODE
 70
     1
  9
$TEXTSIZE
 40
0.2
  9
$TRACEWID
 40
0.05
  9
$TEXTSTYLE
  7
STANDARD
  9
$CLAYER
  8
0
  9
$CELTYPE
  6
BYLAYER
  9
$CECOLOR
 62
   256
  9
$DIMSCALE
 40
1.0
  9
$DIMASZ
 40
0.1875
  9
$DIMEXO
 40
0.0625
  9
$DIMDLI
 40
0.4443307087
  9
$DIMRND
 40
0.0
  9
$DIMDLE
 40
0.0
  9
$DIMEXE
 40
0.125
  9
$DIMTP
 40
0.01
  9
$DIMTM
 40
0.01
  9
$DIMTXT
 40
2.0
  9
$DIMCEN
 40
0.1052362205
  9
$DIMTSZ
 40
0.0
  9
$DIMTOL
 70
     1
  9
$DIMLIM
 70
     0
  9
$DIMTIH
 70
     1
  9
$DIMTOH
 70
     1
  9
$DIMSE1
 70
     0
  9
$DIMSE2
 70
     0
  9
$DIMTAD
 70
     0
  9
$DIMZIN
 70
     0
  9
$DIMBLK
  1

  9
$DIMASO
 70
     1
  9
$DIMSHO
 70
     1
  9
$DIMPOST
  1
\X
  9
$DIMAPOST
  1

  9
$DIMALT
 70
     1
  9
$DIMALTD
 70
     2
  9
$DIMALTF
 40
25.3999999999999986
  9
$DIMLFAC
 40
1.0
  9
$DIMTOFL
 70
     0
  9
$DIMTVP
 40
0.0
  9
$DIMTIX
 70
     0
  9
$DIMSOXD
 70
     0
  9
$DIMSAH
 70
     0
  9
$DIMBLK1
  1

  9
$DIMBLK2
  1

  9
$DIMSTYLE
  2
STANDARD
  9
$DIMCLRD
 70
     0
  9
$DIMCLRE
 70
     0
  9
$DIMCLRT
 70
     0
  9
$DIMTFAC
 40
1.0
  9
$DIMGAP
 40
0.09
  9
$LUNITS
 70
     2
  9
$LUPREC
 70
     4
  9
$SKETCHINC
 40
0.1
  9
$FILLETRAD
 40
0.0
  9
$AUNITS
 70
     0
  9
$AUPREC
 70
     0
  9
$MENU
  1
.
  9
$ELEVATION
 40
0.0
  9
$PELEVATION
 40
0.0
  9
$THICKNESS
 40
0.0
  9
$LIMCHECK
 70
     0
  9
$BLIPMODE
 70
     0
  9
$CHAMFERA
 40
0.0
  9
$CHAMFERB
 40
0.0
  9
$SKPOLY
 70
     0
  9
$TDCREATE
 40
2458060.468368056230247
  9
$TDUPDATE
 40
2458922.2707870369777083
  9
$TDINDWG
 40
0.3006667824
  9
$TDUSRTIMER
 40
0.3006667824
  9
$USRTIMER
 70
     1
  9
$ANGBASE
 50
0.0
  9
$ANGDIR
 70
     0
  9
$PDMODE
 70
     0
  9
$PDSIZE
 40
0.3125
  9
$PLINEWID
 40
0.0
  9
$COORDS
 70
     1
  9
$SPLFRAME
 70
     0
  9
$SPLINETYPE
 70
     6
  9
$SPLINESEGS
 70
     8
  9
$ATTDIA
 70
     1
  9
$ATTREQ
 70
     1
  9
$HANDLING
 70
     1
  9
$HANDSEED
  5
6824
  9
$SURFTAB1
 70
     6
  9
$SURFTAB2
 70
     6
  9
$SURFTYPE
 70
     6
  9
$SURFU
 70
     6
  9
$SURFV
 70
     6
  9
$UCSNAME
  2

  9
$UCSORG
 10
0.0
 20
0.0
 30
0.0
  9
$UCSXDIR
 10
1.0
 20
0.0
 30
0.0
  9
$UCSYDIR
 10
0.0
 20
1.0
 30
0.0
  9
$PUCSNAME
  2

  9
$PUCSORG
 10
0.0
 20
0.0
 30
0.0
  9
$PUCSXDIR
 10
1.0
 20
0.0
 30
0.0
  9
$PUCSYDIR
 10
0.0
 20
1.0
 30
0.0
  9
$USERI1
 70
     0
  9
$USERI2
 70
     0
  9
$USERI3
 70
     0
  9
$USERI4
 70
     0
  9
$USERI5
 70
     0
  9
$USERR1
 40
0.0
  9
$USERR2
 40
0.0
  9
$USERR3
 40
0.0
  9
$USERR4
 40
0.0
  9
$USERR5
 40
0.0
  9
$WORLDVIEW
 70
     1
  9
$SHADEDGE
 70
     3
  9
$SHADEDIF
 70
    70
  9
$TILEMODE
 70
     1
  9
$MAXACTVP
 70
    64
  9
$PLIMCHECK
 70
     0
  9
$PEXTMIN
 10
1.0000000000000000E+20
 20
1.0000000000000000E+20
 30
1.0000000000000000E+20
  9
$PEXTMAX
 10
-1.0000000000000000E+20
 20
-1.0000000000000000E+20
 30
-1.0000000000000000E+20
  9
$PLIMMIN
 10
0.0
 20
0.0
  9
$PLIMMAX
 10
12.0
 20
9.0
  9
$UNITMODE
 70
     0
  9
$VISRETAIN
 70
     1
  9
$PLINEGEN
 70
     0
  9
$PSLTSCALE
 70
     1
  0
ENDSEC
  0
SECTION
  2
TABLES
  0
TABLE
  2
VPORT
 70
     1
  0
VPORT
  2
*ACTIVE
 70
     0
 10
0.0
 20
0.0
 11
1.0
 21
1.0
 12
0.0
 22
0.0
 13
0.0
 23
0.0
 14
1.0
 24
1.0
 15
0.0
 25
0.0
 16
0.0
 26
0.0
 36
137.2232530240748076
 17
4368.613037109375
 27
163.8054962158203125
 37
0.0
 40
47.9258839191312305
 41
2.1481900452488678
 42
50.0
 43
0.0
 44
0.0
 50
0.0
 51
0.0
 71
     0
 72
   100
 73
     1
 74
     1
 75
     0
 76
     0
 77
     0
 78
     0
  0
ENDTAB
  0
TABLE
  2
LTYPE
 70
     2
  0
LTYPE
  2
CONTINUOUS
 70
     0
  3
Solid line
 72
    65
 73
     0
 40
0.0
  0
LTYPE
  2
PHANTOM2
 70
     0
  3
___ _ _ ___ _ _ ___ _ _ ___ _ _
 72
    65
 73
     6
 40
1.25
 49
0.625
 49
-0.125
 49
0.125
 49
-0.125
 49
0.125
 49
-0.125
  0
ENDTAB
  0
TABLE
  2
LAYER
 70
     2
  0
LAYER
  2
0
 70
     0
 62
   255
  6
CONTINUOUS
  0
LAYER
  2
DEFPOINTS
 70
     0
 62
     7
  6
CONTINUOUS
  0
ENDTAB
  0
TABLE
  2
STYLE
 70
     1
  0
STYLE
  2
STANDARD
 70
     0
 40
0.0
 41
0.8
 50
0.0
 71
     0
 42
0.2
  3
txt
  4

  0
ENDTAB
  0
TABLE
  2
VIEW
 70
     0
  0
ENDTAB
  0
TABLE
  2
UCS
 70
     0
  0
ENDTAB
  0
TABLE
  2
APPID
 70
     9
  0
APPID
  2
ACAD
 70
     0
  0
APPID
  2
ACAD_MLEADERVER
 70
     0
  0
APPID
  2
ACAD_EXEMPT_FROM_CAD_STANDARDS
 70
     0
  0
APPID
  2
ACAD_NAV_VCDISPLAY
 70
     0
  0
APPID
  2
ACAECLAYERSTANDARD
 70
     0
  0
APPID
  2
ACCMTRANSPARENCY
 70
     0
  0
APPID
  2
ACAD_DSTYLE_DIMJAG
 70
     0
  0
APPID
  2
ACAD_DSTYLE_DIMTALN
 70
     0
  0
APPID
  2
ACDBATTR
 70
     0
  0
ENDTAB
  0
TABLE
  2
DIMSTYLE
 70
     1
  0
DIMSTYLE
  2
STANDARD
 70
     0
  3

  4

  5

  6

  7

 40
1.0
 41
0.1875
 42
0.0625
 43
0.38
 44
0.125
 45
0.0
 46
0.0
 47
0.01
 48
0.01
140
0.15625
141
0.09
142
0.0
143
25.3999999999999986
144
1.0
145
0.0
146
1.0
147
0.09
 71
     1
 72
     0
 73
     1
 74
     1
 75
     0
 76
     0
 77
     0
 78
     4
170
     0
171
     2
172
     0
173
     0
174
     0
175
     0
176
     0
177
     0
178
     0
  0
ENDTAB
  0
ENDSEC
  0
SECTION
  2
BLOCKS
  0
BLOCK
  8
0
  2
$MODEL_SPACE
 70
     0
 10
0.0
 20
0.0
 30
0.0
  3
$MODEL_SPACE
  1

  0
ENDBLK
  5
21
  8
0
  0
BLOCK
 67
     1
  8
0
  2
$PAPER_SPACE
 70
     0
 10
0.0
 20
0.0
 30
0.0
  3
$PAPER_SPACE
  1

  0
ENDBLK
  5
1D
 67
     1
  8
0
  0
ENDSEC
  0
SECTION
  2
ENTITIES
  0
ATTDEF
  5
3930
  8
DEFPOINTS
 10
4368.6097372597268986
 20
163.7285354778445878
 30
0.0
 40
0.001
  1
547808-48*
  3

  2
MODELNUMBER
 70
     0
1001
ACDBATTR
1070
     0
1070
     1
  0
ATTDEF
  5
3931
  8
DEFPOINTS
 10
4368.6097372597268986
 20
163.7268688111780079
 30
0.0
 40
0.001
  1
FINESSE
  3

  2
TRADENAME
 70
     0
1001
ACDBATTR
1070
     0
1070
     1
  0
ATTDEF
  5
3932
  8
DEFPOINTS
 10
4368.6097372597268986
 20
163.725202144511286
 30
0.0
 40
0.001
  1
SHOWER DOOR
  3

  2
PRODUCT
 70
     0
1001
ACDBATTR
1070
     0
1070
     1
  0
LINE
  5
6739
  8
0
 10
4344.8007473207953808
 20
162.549244379157301
 30
0.0
 11
4344.8007473207953808
 21
164.8999971929573007
 31
0.0
  0
LINE
  5
673A
  8
0
 10
4348.9407473207947987
 20
161.834075933157294
 30
0.0
 11
4348.9407473207947987
 21
162.549244379157301
 31
0.0
  0
LINE
  5
673B
  8
0
 10
4349.66411888179573
 20
161.834075933157294
 30
0.0
 11
4348.9257473207953808
 21
161.834075933157294
 31
0.0
  0
LINE
  5
673C
  8
0
 10
4344.8007473207953808
 20
162.549244379157301
 30
0.0
 11
4392.4252473207952789
 21
162.549244379157301
 31
0.0
  0
LINE
  5
673D
  8
0
 10
4344.8007473207953808
 20
162.6907465761574088
 30
0.0
 11
4392.4252473207952789
 21
162.6907465761572951
 31
0.0
  0
LINE
  5
673E
  8
0
 10
4344.8007473207953808
 20
162.7810556043573911
 30
0.0
 11
4392.4252473207952789
 21
162.7810556043573058
 31
0.0
  0
LINE
  5
673F
  8
0
 10
4344.8007473207953808
 20
164.6610556043573865
 30
0.0
 11
4392.4252473207952789
 21
164.6610556043573865
 31
0.0
  0
LINE
  5
6740
  8
0
 10
4392.4252473207952789
 20
164.7513646325573973
 30
0.0
 11
4344.8007473207953808
 21
164.751364632557312
 31
0.0
  0
LINE
  5
6741
  8
0
 10
4344.8007473207953808
 20
164.8999971929573007
 30
0.0
 11
4392.4252473207952789
 21
164.8999971929573007
 31
0.0
  0
LINE
  5
6742
  8
0
 10
4392.4252473207952789
 20
162.549244379157301
 30
0.0
 11
4392.4252473207952789
 21
164.8999971929573007
 31
0.0
  0
ARC
  5
6743
  8
0
 10
4345.1683395140953508
 20
162.2326692149572978
 30
0.0
 40
3.75
 50
345.372809839899503
 51
353.4625088798969159
  0
ARC
  5
6744
  8
0
 10
4349.2957473207952717
 20
160.084075933157294
 30
0.0
 40
1.25
 50
90.037321075383943
 51
111.4102011052907955
  0
ARC
  5
6745
  8
0
 10
4348.8277627762945485
 20
161.2776061866572945
 30
0.0
 40
0.032
 50
165.372809839899503
 51
291.4102010382914045
  0
ARC
  5
6746
  8
0
 10
4348.9275994994213761
 20
161.7999993751575971
 30
0.0
 40
0.0341268570303585
 50
93.1111621550996205
 51
170.3513466788548953
  0
LINE
  5
6747
  8
0
 10
4349.6491188817954026
 20
161.834075933157294
 30
0.0
 11
4349.6491188817954026
 21
162.549244379157301
 31
0.0
  0
ARC
  5
6748
  8
0
 10
4353.4215266884948505
 20
162.2326692149572978
 30
0.0
 40
3.75
 50
186.5374911201029988
 51
194.6271901601004117
  0
ARC
  5
6749
  8
0
 10
4349.2941188817958391
 20
160.084075933157294
 30
0.0
 40
1.25
 50
68.5897988947091477
 51
89.9626789246160428
  0
ARC
  5
674A
  8
0
 10
4349.7621034262956528
 20
161.2776061866572945
 30
0.0
 40
0.032
 50
248.5897989617085955
 51
14.6271901601004402
  0
ARC
  5
674B
  8
0
 10
4349.6622667031706442
 20
161.7999993751575971
 30
0.0
 40
0.0341268570303585
 50
9.6486533211450531
 51
86.8888378449003653
  0
LINE
  5
674C
  8
0
 10
4387.5752473207949151
 20
165.7769184528573021
 30
0.0
 11
4387.5752473207949151
 21
164.8999971929573007
 31
0.0
  0
LINE
  5
674D
  8
0
 10
4388.2986188817958464
 20
165.7769184528573021
 30
0.0
 11
4387.5602473207945877
 21
165.7769184528573021
 31
0.0
  0
ARC
  5
674E
  8
0
 10
4383.8028395140945577
 20
165.378325171057412
 30
0.0
 40
3.75
 50
6.5374911201030486
 51
14.6271901601004402
  0
ARC
  5
674F
  8
0
 10
4387.9302473207953881
 20
167.5269184528573021
 30
0.0
 40
1.25
 50
248.5897988947091051
 51
269.9626789246161138
  0
ARC
  5
6750
  8
0
 10
4387.4622627762946649
 20
166.3333881993573016
 30
0.0
 40
0.032
 50
68.5897989617086239
 51
194.6271901601004117
  0
ARC
  5
6751
  8
0
 10
4387.562099499420583
 20
165.8109950108571127
 30
0.0
 40
0.0341268570303585
 50
189.648653321144991
 51
266.8888378449004222
  0
LINE
  5
6752
  8
0
 10
4388.2836188817946095
 20
165.7769184528573021
 30
0.0
 11
4388.2836188817946095
 21
164.8999971929573007
 31
0.0
  0
ARC
  5
6753
  8
0
 10
4392.0560266884958764
 20
165.378325171057412
 30
0.0
 40
3.75
 50
165.372809839899503
 51
173.4625088798970012
  0
ARC
  5
6754
  8
0
 10
4387.9286188817959555
 20
167.5269184528573021
 30
0.0
 40
1.25
 50
270.0373210753839999
 51
291.4102011052909234
  0
ARC
  5
6755
  8
0
 10
4388.3966034262957692
 20
166.3333881993573016
 30
0.0
 40
0.032
 50
345.372809839899503
 51
111.4102010382914045
  0
ARC
  5
6756
  8
0
 10
4388.2967667031698511
 20
165.8109950108571127
 30
0.0
 40
0.0341268570303585
 50
273.1111621550995778
 51
350.3513466788548953
  0
ENDSEC
  0
EOF
