  0
SECTION
  2
HEADER
  9
$ACADVER
  1
AC1009
  9
$INSBASE
 10
856.4657875778210609
 20
110.0565636815977939
 30
0.0
  9
$EXTMIN
 10
854.8979573002710595
 20
110.0565636815977939
 30
0.0
  9
$EXTMAX
 10
857.7081449326210532
 20
179.8253460139978017
 30
0.0
  9
$LIMMIN
 10
0.0
 20
0.0
  9
$LIMMAX
 10
11.6929133858000007
 20
8.2677165353999982
  9
$ORTHOMODE
 70
     1
  9
$REGENMODE
 70
     1
  9
$FILLMODE
 70
     1
  9
$QTEXTMODE
 70
     0
  9
$MIRRTEXT
 70
     0
  9
$DRAGMODE
 70
     2
  9
$LTSCALE
 40
0.6431102362
  9
$OSMODE
 70
  4095
  9
$ATTMODE
 70
     1
  9
$TEXTSIZE
 40
0.2
  9
$TRACEWID
 40
0.05
  9
$TEXTSTYLE
  7
STANDARD
  9
$CLAYER
  8
0
  9
$CELTYPE
  6
BYLAYER
  9
$CECOLOR
 62
   256
  9
$DIMSCALE
 40
1.0
  9
$DIMASZ
 40
0.1875
  9
$DIMEXO
 40
0.0625
  9
$DIMDLI
 40
0.4443307087
  9
$DIMRND
 40
0.0
  9
$DIMDLE
 40
0.0
  9
$DIMEXE
 40
0.125
  9
$DIMTP
 40
0.01
  9
$DIMTM
 40
0.01
  9
$DIMTXT
 40
2.0
  9
$DIMCEN
 40
0.1052362205
  9
$DIMTSZ
 40
0.0
  9
$DIMTOL
 70
     1
  9
$DIMLIM
 70
     0
  9
$DIMTIH
 70
     1
  9
$DIMTOH
 70
     1
  9
$DIMSE1
 70
     0
  9
$DIMSE2
 70
     0
  9
$DIMTAD
 70
     0
  9
$DIMZIN
 70
     0
  9
$DIMBLK
  1

  9
$DIMASO
 70
     1
  9
$DIMSHO
 70
     1
  9
$DIMPOST
  1
\X
  9
$DIMAPOST
  1

  9
$DIMALT
 70
     1
  9
$DIMALTD
 70
     2
  9
$DIMALTF
 40
25.3999999999999986
  9
$DIMLFAC
 40
1.0
  9
$DIMTOFL
 70
     0
  9
$DIMTVP
 40
0.0
  9
$DIMTIX
 70
     0
  9
$DIMSOXD
 70
     0
  9
$DIMSAH
 70
     0
  9
$DIMBLK1
  1

  9
$DIMBLK2
  1

  9
$DIMSTYLE
  2
STANDARD
  9
$DIMCLRD
 70
     0
  9
$DIMCLRE
 70
     0
  9
$DIMCLRT
 70
     0
  9
$DIMTFAC
 40
1.0
  9
$DIMGAP
 40
0.09
  9
$LUNITS
 70
     2
  9
$LUPREC
 70
     4
  9
$SKETCHINC
 40
0.1
  9
$FILLETRAD
 40
0.0
  9
$AUNITS
 70
     0
  9
$AUPREC
 70
     0
  9
$MENU
  1
.
  9
$ELEVATION
 40
0.0
  9
$PELEVATION
 40
0.0
  9
$THICKNESS
 40
0.0
  9
$LIMCHECK
 70
     0
  9
$BLIPMODE
 70
     0
  9
$CHAMFERA
 40
0.0
  9
$CHAMFERB
 40
0.0
  9
$SKPOLY
 70
     0
  9
$TDCREATE
 40
2458072.6192476861178875
  9
$TDUPDATE
 40
2458967.7440277771092951
  9
$TDINDWG
 40
0.0392215278
  9
$TDUSRTIMER
 40
0.0392215278
  9
$USRTIMER
 70
     1
  9
$ANGBASE
 50
0.0
  9
$ANGDIR
 70
     0
  9
$PDMODE
 70
     0
  9
$PDSIZE
 40
0.3125
  9
$PLINEWID
 40
0.0
  9
$COORDS
 70
     1
  9
$SPLFRAME
 70
     0
  9
$SPLINETYPE
 70
     6
  9
$SPLINESEGS
 70
     8
  9
$ATTDIA
 70
     1
  9
$ATTREQ
 70
     1
  9
$HANDLING
 70
     1
  9
$HANDSEED
  5
1760
  9
$SURFTAB1
 70
     6
  9
$SURFTAB2
 70
     6
  9
$SURFTYPE
 70
     6
  9
$SURFU
 70
     6
  9
$SURFV
 70
     6
  9
$UCSNAME
  2

  9
$UCSORG
 10
0.0
 20
0.0
 30
0.0
  9
$UCSXDIR
 10
1.0
 20
0.0
 30
0.0
  9
$UCSYDIR
 10
0.0
 20
1.0
 30
0.0
  9
$PUCSNAME
  2

  9
$PUCSORG
 10
0.0
 20
0.0
 30
0.0
  9
$PUCSXDIR
 10
1.0
 20
0.0
 30
0.0
  9
$PUCSYDIR
 10
0.0
 20
1.0
 30
0.0
  9
$USERI1
 70
     0
  9
$USERI2
 70
     0
  9
$USERI3
 70
     0
  9
$USERI4
 70
     0
  9
$USERI5
 70
     0
  9
$USERR1
 40
0.0
  9
$USERR2
 40
0.0
  9
$USERR3
 40
0.0
  9
$USERR4
 40
0.0
  9
$USERR5
 40
0.0
  9
$WORLDVIEW
 70
     1
  9
$SHADEDGE
 70
     3
  9
$SHADEDIF
 70
    70
  9
$TILEMODE
 70
     1
  9
$MAXACTVP
 70
    64
  9
$PLIMCHECK
 70
     0
  9
$PEXTMIN
 10
1.0000000000000000E+20
 20
1.0000000000000000E+20
 30
1.0000000000000000E+20
  9
$PEXTMAX
 10
-1.0000000000000000E+20
 20
-1.0000000000000000E+20
 30
-1.0000000000000000E+20
  9
$PLIMMIN
 10
0.0
 20
0.0
  9
$PLIMMAX
 10
12.0
 20
9.0
  9
$UNITMODE
 70
     0
  9
$VISRETAIN
 70
     1
  9
$PLINEGEN
 70
     0
  9
$PSLTSCALE
 70
     1
  0
ENDSEC
  0
SECTION
  2
TABLES
  0
TABLE
  2
VPORT
 70
     1
  0
VPORT
  2
*ACTIVE
 70
     0
 10
0.0
 20
0.0
 11
1.0
 21
1.0
 12
0.0
 22
0.0
 13
0.0
 23
0.0
 14
1.0
 24
1.0
 15
0.0
 25
0.0
 16
0.0
 26
0.0
 36
248.4386439291461102
 17
856.3031005859375
 27
144.9409561157225994
 37
0.0
 40
69.8693779583261119
 41
2.784968684759916
 42
50.0
 43
0.0
 44
0.0
 50
0.0
 51
0.0
 71
     0
 72
   100
 73
     1
 74
     1
 75
     0
 76
     0
 77
     0
 78
     0
  0
ENDTAB
  0
TABLE
  2
LTYPE
 70
     2
  0
LTYPE
  2
CONTINUOUS
 70
     0
  3
Solid line
 72
    65
 73
     0
 40
0.0
  0
LTYPE
  2
PHANTOM2
 70
     0
  3
___ _ _ ___ _ _ ___ _ _ ___ _ _
 72
    65
 73
     6
 40
1.25
 49
0.625
 49
-0.125
 49
0.125
 49
-0.125
 49
0.125
 49
-0.125
  0
ENDTAB
  0
TABLE
  2
LAYER
 70
     2
  0
LAYER
  2
0
 70
     0
 62
   255
  6
CONTINUOUS
  0
LAYER
  2
DEFPOINTS
 70
     0
 62
     7
  6
CONTINUOUS
  0
ENDTAB
  0
TABLE
  2
STYLE
 70
     1
  0
STYLE
  2
STANDARD
 70
     0
 40
0.0
 41
0.8
 50
0.0
 71
     0
 42
0.2
  3
txt
  4

  0
ENDTAB
  0
TABLE
  2
VIEW
 70
     0
  0
ENDTAB
  0
TABLE
  2
UCS
 70
     0
  0
ENDTAB
  0
TABLE
  2
APPID
 70
     9
  0
APPID
  2
ACAD
 70
     0
  0
APPID
  2
ACAD_MLEADERVER
 70
     0
  0
APPID
  2
ACAD_EXEMPT_FROM_CAD_STANDARDS
 70
     0
  0
APPID
  2
ACAD_NAV_VCDISPLAY
 70
     0
  0
APPID
  2
ACAD_DSTYLE_DIMJAG
 70
     0
  0
APPID
  2
ACAD_DSTYLE_DIMTALN
 70
     0
  0
APPID
  2
ACAECLAYERSTANDARD
 70
     0
  0
APPID
  2
ACCMTRANSPARENCY
 70
     0
  0
APPID
  2
ACDBATTR
 70
     0
  0
ENDTAB
  0
TABLE
  2
DIMSTYLE
 70
     1
  0
DIMSTYLE
  2
STANDARD
 70
     0
  3

  4

  5

  6

  7

 40
1.0
 41
0.1875
 42
0.0625
 43
0.38
 44
0.125
 45
0.0
 46
0.0
 47
0.01
 48
0.01
140
0.15625
141
0.09
142
0.0
143
25.3999999999999986
144
1.0
145
0.0
146
1.0
147
0.09
 71
     1
 72
     0
 73
     1
 74
     1
 75
     0
 76
     0
 77
     0
 78
     4
170
     0
171
     2
172
     0
173
     0
174
     0
175
     0
176
     0
177
     0
178
     0
  0
ENDTAB
  0
ENDSEC
  0
SECTION
  2
BLOCKS
  0
BLOCK
  8
0
  2
$MODEL_SPACE
 70
     0
 10
0.0
 20
0.0
 30
0.0
  3
$MODEL_SPACE
  1

  0
ENDBLK
  5
21
  8
0
  0
BLOCK
 67
     1
  8
0
  2
$PAPER_SPACE
 70
     0
 10
0.0
 20
0.0
 30
0.0
  3
$PAPER_SPACE
  1

  0
ENDBLK
  5
1D
 67
     1
  8
0
  0
ENDSEC
  0
SECTION
  2
ENTITIES
  0
ATTDEF
  5
FEC
  8
DEFPOINTS
 10
856.461401156486545
 20
110.068053131164703
 30
0.0
 40
0.001
  1
5477-48*
  3

  2
MODELNUMBER
 70
     0
1001
ACDBATTR
1070
     0
1070
     1
  0
ATTDEF
  5
FED
  8
DEFPOINTS
 10
856.461401156486545
 20
110.0663864644980947
 30
0.0
 40
0.001
  1
FINESSE
  3

  2
TRADENAME
 70
     0
1001
ACDBATTR
1070
     0
1070
     1
  0
ATTDEF
  5
FEE
  8
DEFPOINTS
 10
856.461401156486545
 20
110.0647197978314011
 30
0.0
 40
0.001
  1
SHOWER DOOR
  3

  2
PRODUCT
 70
     0
1001
ACDBATTR
1070
     0
1070
     1
  0
LINE
  5
1506
  8
0
 10
857.4482486697711465
 20
110.0646798948248062
 30
0.0
 11
857.4352486697709992
 21
110.0646798948248062
 31
0.0
  0
LINE
  5
1507
  8
0
 10
855.4173264858710581
 20
110.0646798948248062
 30
0.0
 11
855.4753681749712086
 21
110.0646798948248062
 31
0.0
  0
LINE
  5
1508
  8
0
 10
857.4642486697709955
 20
110.0646798948248062
 30
0.0
 11
857.5142486697711774
 21
110.0646798948248062
 31
0.0
  0
LINE
  5
1509
  8
0
 10
855.7610986653711507
 20
110.0565637040247964
 30
0.0
 11
855.6991504050712365
 21
110.0586642009247953
 31
0.0
  0
LINE
  5
150A
  8
0
 10
855.5553810284710607
 20
110.0635390294248026
 30
0.0
 11
855.4927510630711822
 21
110.0656626411248027
 31
0.0
  0
LINE
  5
150B
  8
0
 10
857.5142486697711774
 20
110.209704982924805
 30
0.0
 11
857.5535302394710016
 21
110.209704982924805
 31
0.0
  0
LINE
  5
150C
  8
0
 10
857.4032486697711875
 20
110.5333826577248004
 30
0.0
 11
857.2302486697710719
 21
110.5333826577248004
 31
0.0
  0
LINE
  5
150D
  8
0
 10
857.2142486697709955
 20
110.5607315638248025
 30
0.0
 11
857.0784622005711526
 21
110.5607315638248025
 31
0.0
  0
LINE
  5
150E
  8
0
 10
857.2302486697710719
 20
110.5783826577248021
 30
0.0
 11
857.3782486697712102
 21
110.5783826577248021
 31
0.0
  0
LINE
  5
150F
  8
0
 10
857.3782486697712102
 20
110.680382657724806
 30
0.0
 11
857.2302486697710719
 21
110.680382657724806
 31
0.0
  0
LINE
  5
1510
  8
0
 10
857.2142486697709955
 20
110.6977315638248029
 30
0.0
 11
857.0784622005711526
 21
110.6977315638248029
 31
0.0
  0
LINE
  5
1511
  8
0
 10
855.935658461071057
 20
110.9706798948247979
 30
0.0
 11
855.872248669771011
 21
110.9706798948247979
 31
0.0
  0
LINE
  5
1512
  8
0
 10
855.872248669771011
 20
111.0156798948247996
 30
0.0
 11
855.8889984990711355
 21
111.0156798948247996
 31
0.0
  0
LINE
  5
1513
  8
0
 10
857.3831474161710275
 20
110.8134802766248015
 30
0.0
 11
856.0431870990711332
 21
110.8597483715248018
 31
0.0
  0
LINE
  5
1514
  8
0
 10
857.1982095667711974
 20
110.7439427555247988
 30
0.0
 11
855.8701198004710022
 21
110.7903206721248068
 31
0.0
  0
LINE
  5
1515
  8
0
 10
855.8722877726712568
 20
110.8352723943248037
 30
0.0
 11
857.3831802274710299
 21
110.7825108672248007
 31
0.0
  0
LINE
  5
1516
  8
0
 10
855.9621014187709989
 20
110.8537194366248002
 30
0.0
 11
856.5450009545711509
 21
110.8333645573247992
 31
0.0
  0
LINE
  5
1517
  8
0
 10
855.9054432151710898
 20
111.6963687512247958
 30
0.0
 11
855.4852306723711308
 21
111.7336821006248044
 31
0.0
  0
LINE
  5
1518
  8
0
 10
855.866458956071142
 20
111.6218899438247973
 30
0.0
 11
855.5926836627711509
 21
111.6510002282248024
 31
0.0
  0
LINE
  5
1519
  8
0
 10
855.5974416518711223
 20
111.6957479828247983
 30
0.0
 11
855.8746534954711933
 21
111.6662722931248055
 31
0.0
  0
LINE
  5
151A
  8
0
 10
855.7806127266711655
 20
178.6914429750978002
 30
0.0
 11
855.8342577675713301
 21
178.7091264952977951
 31
0.0
  0
LINE
  5
151B
  8
0
 10
855.9059640680161465
 20
179.682815682887707
 30
0.0
 11
855.9327511396711543
 21
179.7052927047976993
 31
0.0
  0
LINE
  5
151C
  8
0
 10
856.0387980228711058
 20
179.7290062409977907
 30
0.0
 11
855.9117481829709959
 21
179.622398767197808
 31
0.0
  0
LINE
  5
151D
  8
0
 10
855.6101933133711555
 20
179.4490072199978101
 30
0.0
 11
855.580261836671184
 21
179.418938852797794
 31
0.0
  0
LINE
  5
151E
  8
0
 10
855.9565150761710584
 20
178.8700653275978141
 30
0.0
 11
855.9415493378711517
 21
178.8550311439977918
 31
0.0
  0
LINE
  5
151F
  8
0
 10
855.8318376646710703
 20
178.7285305065977923
 30
0.0
 11
855.8019061880711433
 21
178.6984621392977886
 31
0.0
  0
LINE
  5
1520
  8
0
 10
857.4465580708711059
 20
110.625679894824799
 30
0.0
 11
857.4621050761711558
 21
110.5987516916247984
 31
0.0
  0
LINE
  5
1521
  8
0
 10
857.0535302394711152
 20
110.6292315638248027
 30
0.0
 11
857.0784622005711526
 21
110.5607315638248025
 31
0.0
  0
LINE
  5
1522
  8
0
 10
855.9050078110710729
 20
111.0317126451247987
 30
0.0
 11
855.884193285271067
 21
111.6061935558248024
 31
0.0
  0
LINE
  5
1523
  8
0
 10
855.9291637774713308
 20
111.6078229214247983
 30
0.0
 11
855.951647969371038
 21
110.9872592248247969
 31
0.0
  0
LINE
  5
1524
  8
0
 10
855.985294222371067
 20
110.9176175279248042
 30
0.0
 11
855.9600998092712416
 21
111.6386990049248027
 31
0.0
  0
LINE
  5
1525
  8
0
 10
855.9005583992711763
 20
179.629200583197786
 30
0.0
 11
855.9002486697711447
 21
179.6705589717977887
 31
0.0
  0
LINE
  5
1526
  8
0
 10
855.580261836671184
 20
179.418938852797794
 30
0.0
 11
855.5818383153711011
 21
178.7279601291978111
 31
0.0
  0
LINE
  5
1527
  8
0
 10
855.6101933133711555
 20
179.4490072199978101
 30
0.0
 11
855.6119066825710888
 21
178.6980286524976975
 31
0.0
  0
LINE
  5
1528
  8
0
 10
855.8019061880711433
 20
178.6984621392977886
 30
0.0
 11
855.80019281887121
 21
179.4494407067977875
 31
0.0
  0
LINE
  5
1529
  8
0
 10
855.8318376646710703
 20
178.7285305065977923
 30
0.0
 11
855.8302611860711977
 21
179.4195092301978036
 31
0.0
  0
LINE
  5
152A
  8
0
 10
855.9415493378711517
 20
178.8550311439977918
 30
0.0
 11
855.9405489403711726
 21
179.2935105247977958
 31
0.0
  0
LINE
  5
152B
  8
0
 10
855.9570751561710722
 20
178.6245793754978024
 30
0.0
 11
855.9554901301710288
 21
179.3193044193978096
 31
0.0
  0
LINE
  5
152C
  8
0
 10
856.0354899219712479
 20
179.3194869401978053
 30
0.0
 11
856.0370753643710486
 21
178.6245793754978024
 31
0.0
  0
LINE
  5
152D
  8
0
 10
856.0563931786711009
 20
178.9236076904977892
 30
0.0
 11
856.055704500871002
 21
179.2254587255978038
 31
0.0
  0
LINE
  5
152E
  8
0
 10
856.0607088818710508
 20
179.2235442277977882
 30
0.0
 11
856.0613887716712043
 21
178.9255450033977866
 31
0.0
  0
LINE
  5
152F
  8
0
 10
856.1060954805710708
 20
179.0541473368978131
 30
0.0
 11
856.1060019386711701
 21
179.0951472301977958
 31
0.0
  0
LINE
  5
1530
  8
0
 10
855.9035850552711508
 20
110.8713216936247932
 30
0.0
 11
855.9035066537844614
 21
110.9548797987248037
 31
0.0
  0
LINE
  5
1531
  8
0
 10
855.3682486697711056
 20
178.3317495298977917
 30
0.0
 11
855.3682486697711056
 21
178.7007495298977915
 31
0.0
  0
LINE
  5
1532
  8
0
 10
855.4173264858710581
 20
178.340122646756214
 30
0.0
 11
855.4173264858710581
 21
177.1467457794254869
 31
0.0
  0
LINE
  5
1533
  8
0
 10
855.4173264858710581
 20
177.1247532803699016
 30
0.0
 11
855.4173264858710581
 21
110.0646798948248062
 31
0.0
  0
LINE
  5
1534
  8
0
 10
855.4182486697711738
 20
178.7007495298977915
 30
0.0
 11
855.4182486697711738
 21
178.3477495298978113
 31
0.0
  0
LINE
  5
1535
  8
0
 10
855.4182486697711738
 20
177.1397495298978129
 30
0.0
 11
855.4182486697711738
 21
177.1317495298978031
 31
0.0
  0
LINE
  5
1536
  8
0
 10
855.4333476254711286
 20
178.6245793754978024
 30
0.0
 11
855.4333476254711286
 21
110.0646798948248062
 31
0.0
  0
LINE
  5
1537
  8
0
 10
855.4753681749712086
 20
178.6245793754978024
 30
0.0
 11
855.4753681749712086
 21
110.0646798948248062
 31
0.0
  0
LINE
  5
1538
  8
0
 10
855.4852306723711308
 20
117.731581581297803
 30
0.0
 11
855.4852306723711308
 21
178.6245793754978024
 31
0.0
  0
LINE
  5
1539
  8
0
 10
855.4852306723711308
 20
111.7336821006248044
 30
0.0
 11
855.4852486697710674
 21
110.3165468693247959
 31
0.0
  0
LINE
  5
153A
  8
0
 10
855.5652486697711083
 20
178.7607495298977938
 30
0.0
 11
855.5652486697711083
 21
178.7244788984978072
 31
0.0
  0
LINE
  5
153B
  8
0
 10
855.8112486697712029
 20
110.8512835125248017
 30
0.0
 11
855.8112486697712029
 21
110.9546798948248068
 31
0.0
  0
LINE
  5
153C
  8
0
 10
855.8452486697711947
 20
178.7243221833977884
 30
0.0
 11
855.8452486697711947
 21
178.8227495298978056
 31
0.0
  0
LINE
  5
153D
  8
0
 10
855.8562486697710483
 20
110.9546798948248068
 30
0.0
 11
855.8562486697710483
 21
110.8512835125248017
 31
0.0
  0
LINE
  5
153E
  8
0
 10
855.8872486697709974
 20
178.8047495298976912
 30
0.0
 11
855.8872486697709974
 21
178.7299957029977975
 31
0.0
  0
LINE
  5
153F
  8
0
 10
856.2309852233211132
 20
171.2433293754978081
 30
0.0
 11
856.2309852233211132
 21
171.0058293754977967
 31
0.0
  0
LINE
  5
1540
  8
0
 10
856.7184852233210677
 20
171.0058293754977967
 30
0.0
 11
856.7184852233210677
 21
171.2433293754978081
 31
0.0
  0
LINE
  5
1541
  8
0
 10
855.4773024576710441
 20
110.0821956563247994
 30
0.0
 11
855.5300269690710593
 21
111.6371570715247969
 31
0.0
  0
LINE
  5
1542
  8
0
 10
855.5750362842711638
 20
111.6366691032248042
 30
0.0
 11
855.5270972296711989
 21
110.2228412980248038
 31
0.0
  0
LINE
  5
1543
  8
0
 10
855.524472922171185
 20
110.1454447191247965
 30
0.0
 11
855.5239991164711455
 21
110.131471148724799
 31
0.0
  0
LINE
  5
1544
  8
0
 10
855.7338785015712119
 20
110.1243547097247983
 30
0.0
 11
855.7343523073710685
 21
110.1383282802247976
 31
0.0
  0
LINE
  5
1545
  8
0
 10
855.7794703898712214
 20
110.1410480991248022
 30
0.0
 11
855.7771301506711552
 21
110.072029314924805
 31
0.0
  0
LINE
  5
1546
  8
0
 10
857.0332486697710692
 20
179.671678829997802
 30
0.0
 11
857.0332486697710692
 21
179.6277610782977945
 31
0.0
  0
LINE
  5
1547
  8
0
 10
857.0784622005711526
 20
110.6406171594248065
 30
0.0
 11
857.0784622005711526
 21
110.5607315638248025
 31
0.0
  0
LINE
  5
1548
  8
0
 10
857.2142486697709955
 20
110.5493826577248058
 30
0.0
 11
857.2142486697709955
 21
110.5623826577247968
 31
0.0
  0
LINE
  5
1549
  8
0
 10
857.2142486697709955
 20
110.6963826577247971
 30
0.0
 11
857.2142486697709955
 21
110.7279316373248008
 31
0.0
  0
LINE
  5
154A
  8
0
 10
857.3942486697711729
 20
110.5943826577247933
 30
0.0
 11
857.3942486697711729
 21
110.6643826577248007
 31
0.0
  0
LINE
  5
154B
  8
0
 10
857.4192486697711502
 20
110.0806798948247973
 30
0.0
 11
857.4192486697711502
 21
110.5173826577247951
 31
0.0
  0
LINE
  5
154C
  8
0
 10
857.4502486697712129
 20
110.7759630548897007
 30
0.0
 11
857.4502486697712129
 21
178.6245793754978024
 31
0.0
  0
LINE
  5
154D
  8
0
 10
857.4642486697709955
 20
110.0646798948248062
 30
0.0
 11
857.4642486697709955
 21
178.6245793754978024
 31
0.0
  0
LINE
  5
154E
  8
0
 10
857.5142486697711774
 20
178.7007495298967967
 30
0.0
 11
857.5142486697711774
 21
110.0646798948248062
 31
0.0
  0
LINE
  5
154F
  8
0
 10
857.5142486697711774
 20
178.7927495298978045
 30
0.0
 11
857.5142486697711774
 21
179.7012219895977978
 31
0.0
  0
LINE
  5
1550
  8
0
 10
857.5535302394710016
 20
110.209704982924805
 30
0.0
 11
857.5535302394710016
 21
111.6146958432247942
 31
0.0
  0
LINE
  5
1551
  8
0
 10
857.573372694071054
 20
179.7012219895977978
 30
0.0
 11
857.573372694071054
 21
177.1207495298978074
 31
0.0
  0
LINE
  5
1552
  8
0
 10
857.7081449326210532
 20
171.3120793754978024
 30
0.0
 11
857.7081449326210532
 21
170.9370794131978073
 31
0.0
  0
LINE
  5
1553
  8
0
 10
855.9345962570711208
 20
111.4645611838247987
 30
0.0
 11
855.9458910401712046
 21
111.6752048749248019
 31
0.0
  0
LINE
  5
1554
  8
0
 10
857.0535302394711152
 20
110.6292315638248027
 30
0.0
 11
857.0784622005711526
 21
110.6977315638248029
 31
0.0
  0
LINE
  5
1555
  8
0
 10
855.6210594143711887
 20
111.5138001252248046
 30
0.0
 11
855.6962137072709993
 21
111.6339821308248048
 31
0.0
  0
LINE
  5
1556
  8
0
 10
855.7262720639711233
 20
111.6820495592247937
 30
0.0
 11
855.7441807732710686
 21
111.7106880378247951
 31
0.0
  0
LINE
  5
1557
  8
0
 10
857.4621050761711558
 20
110.6606080980247953
 30
0.0
 11
857.4465580708711059
 21
110.6336798948247946
 31
0.0
  0
LINE
  5
1558
  8
0
 10
855.8000498651711041
 20
111.7057271459247971
 30
0.0
 11
855.7815667560712427
 21
111.6761701236248001
 31
0.0
  0
LINE
  5
1559
  8
0
 10
855.7550322687711741
 20
111.6337378448247932
 30
0.0
 11
855.6634529013711017
 21
111.4872898958248015
 31
0.0
  0
LINE
  5
155A
  8
0
 10
855.6119066825710888
 20
178.6980286524976975
 30
0.0
 11
855.5818383153711011
 21
178.7279601291978111
 31
0.0
  0
LINE
  5
155B
  8
0
 10
856.3559852233211132
 20
170.8808293754977967
 30
0.0
 11
856.593485223320954
 21
170.8808293754977967
 31
0.0
  0
LINE
  5
155C
  8
0
 10
856.593485223320954
 20
171.3683293754978081
 30
0.0
 11
856.3559852233211132
 21
171.3683293754978081
 31
0.0
  0
LINE
  5
155D
  8
0
 10
855.955583123971337
 20
179.2785447864978039
 30
0.0
 11
855.9405489403711726
 21
179.2935105247977958
 31
0.0
  0
LINE
  5
155E
  8
0
 10
855.8302611860711977
 20
179.4195092301978036
 30
0.0
 11
855.80019281887121
 21
179.4494407067977875
 31
0.0
  0
LINE
  5
155F
  8
0
 10
857.020845522071113
 20
179.6235613296977931
 30
0.0
 11
856.8946993166711081
 21
179.7290062409977907
 31
0.0
  0
LINE
  5
1560
  8
0
 10
857.0007347182711328
 20
179.7053023389977966
 30
0.0
 11
857.0275332714711567
 21
179.6828156828977967
 31
0.0
  0
LINE
  5
1561
  8
0
 10
857.0535302394711152
 20
110.6292315638248027
 30
0.0
 11
857.2035302394710925
 21
110.6977315638248029
 31
0.0
  0
LINE
  5
1562
  8
0
 10
855.8019061880711433
 20
178.6984621392977886
 30
0.0
 11
855.7339224418710728
 21
178.6983070333978105
 31
0.0
  0
LINE
  5
1563
  8
0
 10
855.6514800862711354
 20
178.6981189398977961
 30
0.0
 11
855.6119066825710888
 21
178.6980286524976975
 31
0.0
  0
LINE
  5
1564
  8
0
 10
855.9415493378711517
 20
178.8550311439977918
 30
0.0
 11
855.8315496241712026
 21
178.8547801779978101
 31
0.0
  0
LINE
  5
1565
  8
0
 10
856.0563931786711009
 20
178.9236076904977892
 30
0.0
 11
856.0363932307711821
 21
178.9235620602977974
 31
0.0
  0
LINE
  5
1566
  8
0
 10
856.0686165487710468
 20
178.9255614936978134
 30
0.0
 11
856.0613887716712043
 21
178.9255450033977866
 31
0.0
  0
LINE
  5
1567
  8
0
 10
856.0562424322711195
 20
178.9896806150977966
 30
0.0
 11
856.0362424843710869
 21
178.9896349848978048
 31
0.0
  0
LINE
  5
1568
  8
0
 10
856.0561411050711058
 20
179.0340928374978091
 30
0.0
 11
856.0361411571711869
 21
179.0340472072977889
 31
0.0
  0
LINE
  5
1569
  8
0
 10
856.1060954805710708
 20
179.0541473368978131
 30
0.0
 11
856.1732682368595988
 21
179.0543005925121065
 31
0.0
  0
LINE
  5
156A
  8
0
 10
856.1731746949673152
 20
179.0953004857962867
 30
0.0
 11
856.1060019386711701
 21
179.0951472301977958
 31
0.0
  0
LINE
  5
156B
  8
0
 10
856.0359566264711475
 20
179.1149279483977921
 30
0.0
 11
856.0559565744712245
 21
179.1149735785978123
 31
0.0
  0
LINE
  5
156C
  8
0
 10
856.0358552992711338
 20
179.1593401706977886
 30
0.0
 11
856.0558552472710971
 21
179.1593858008978088
 31
0.0
  0
LINE
  5
156D
  8
0
 10
856.0679366589711208
 20
179.2235607180977865
 30
0.0
 11
856.0607088818710508
 21
179.2235442277977882
 31
0.0
  0
LINE
  5
156E
  8
0
 10
856.0357045528711524
 20
179.225413095397812
 30
0.0
 11
856.055704500871002
 21
179.2254587255978038
 31
0.0
  0
LINE
  5
156F
  8
0
 10
855.9405489403711726
 20
179.2935105247977958
 30
0.0
 11
855.8305492265710654
 21
179.2932595587978142
 31
0.0
  0
LINE
  5
1570
  8
0
 10
855.80019281887121
 20
179.4494407067977875
 30
0.0
 11
855.7322090725712087
 21
179.4492856008978094
 31
0.0
  0
LINE
  5
1571
  8
0
 10
855.6497667170710884
 20
179.449097507397795
 30
0.0
 11
855.6101933133711555
 21
179.4490072199978101
 31
0.0
  0
LINE
  5
1572
  8
0
 10
857.5573726940712049
 20
177.1047495298977879
 30
0.0
 11
857.5302486697712538
 21
177.1047495298977879
 31
0.0
  0
LINE
  5
1573
  8
0
 10
855.4182486697711738
 20
178.6245793754978024
 30
0.0
 11
857.5142486697711774
 21
178.6245793754978024
 31
0.0
  0
LINE
  5
1574
  8
0
 10
855.6937285334711305
 20
178.6685793754978135
 30
0.0
 11
855.7197285334711978
 21
178.6685793754978135
 31
0.0
  0
LINE
  5
1575
  8
0
 10
855.4875770706711364
 20
178.716749529897811
 30
0.0
 11
855.4342486697711365
 21
178.716749529897811
 31
0.0
  0
LINE
  5
1576
  8
0
 10
855.3522486697712566
 20
178.716749529897811
 30
0.0
 11
855.0078513162710578
 21
178.716749529897811
 31
0.0
  0
LINE
  5
1577
  8
0
 10
855.0293698494712089
 20
178.7767495298978133
 30
0.0
 11
855.5492486697711456
 21
178.7767495298978133
 31
0.0
  0
LINE
  5
1578
  8
0
 10
855.8522486697711429
 20
178.8297495298978106
 30
0.0
 11
855.8622486697711338
 21
178.8297495298978106
 31
0.0
  0
LINE
  5
1579
  8
0
 10
857.3242853779712505
 20
179.7327495298978022
 30
0.0
 11
857.0119840686711541
 21
179.7327495298978022
 31
0.0
  0
LINE
  5
157A
  8
0
 10
856.8844147148711272
 20
179.7327495298978022
 30
0.0
 11
856.049082624571156
 21
179.7327495298978022
 31
0.0
  0
LINE
  5
157B
  8
0
 10
855.9215132707711291
 20
179.7327495298978022
 30
0.0
 11
855.6465279397710901
 21
179.7327495298978022
 31
0.0
  0
LINE
  5
157C
  8
0
 10
855.6447661244711753
 20
179.7927495298978045
 30
0.0
 11
857.3260471932710516
 21
179.7927495298978045
 31
0.0
  0
LINE
  5
157D
  8
0
 10
855.5764345028710522
 20
178.7092203337977878
 30
0.0
 11
855.6357195720710251
 21
178.6905155458977958
 31
0.0
  0
ARC
  5
157E
  8
0
 10
855.4919252761710595
 20
109.9307542911247992
 30
0.0
 40
0.28
 50
61.1656100915013923
 51
80.0465987228983948
  0
ARC
  5
157F
  8
0
 10
855.5157245304710614
 20
109.9238059468247997
 30
0.0
 40
0.23
 50
61.5479292019013116
 51
85.648076540195234
  0
ARC
  5
1580
  8
0
 10
855.4397419966710459
 20
110.0272266283247973
 30
0.0
 40
0.131
 50
21.1341153553004197
 51
47.9924271051022515
  0
ARC
  5
1581
  8
0
 10
855.4932932679712394
 20
110.0816534514247991
 30
0.0
 40
0.016
 50
178.0579999991003035
 51
268.0579999991002751
  0
ARC
  5
1582
  8
0
 10
855.5430880399710531
 20
110.2222990931248034
 30
0.0
 40
0.016
 50
178.0579999999995948
 51
260.0465987228984091
  0
ARC
  5
1583
  8
0
 10
855.554352973368168
 20
110.0715799065401939
 30
0.0
 40
0.0081063309875117
 50
277.285943385437804
 51
20.8034152392455987
  0
ARC
  5
1584
  8
0
 10
855.5322324925507473
 20
110.1312447879912071
 30
0.0
 40
0.0082364872123494
 50
178.425160634234004
 51
234.1697729937912982
  0
ARC
  5
1585
  8
0
 10
855.5324693902688296
 20
110.145173120231803
 30
0.0
 40
0.0080010791255043
 50
84.9227372163395273
 51
178.0547045868846112
  0
ARC
  5
1586
  8
0
 10
855.6291133099712169
 20
110.1330593451248063
 30
0.0
 40
0.008
 50
241.5479292031018019
 51
294.568070797097505
  0
ARC
  5
1587
  8
0
 10
855.6308217898711064
 20
110.183047292324801
 30
0.0
 40
0.008
 50
241.1656100804001142
 51
294.7782147625986227
  0
ARC
  5
1588
  8
0
 10
855.5909919332711979
 20
111.6350899155248015
 30
0.0
 40
0.061
 50
83.9305952988963071
 51
178.0580000001999963
  0
ARC
  5
1589
  8
0
 10
855.6422561578710884
 20
111.500545010524803
 30
0.0
 40
0.025
 50
147.9807209818976048
 51
327.9807209821964875
  0
ARC
  5
158A
  8
0
 10
855.5910112202327582
 20
111.6350286050058997
 30
0.0
 40
0.0160589480784216
 50
84.0221511429772647
 51
174.1367344711894134
  0
ARC
  5
158B
  8
0
 10
855.751524575271219
 20
109.921561465624805
 30
0.0
 40
0.28
 50
97.7851044505011373
 51
114.778214794201304
  0
ARC
  5
158C
  8
0
 10
855.7280675310654487
 20
109.9166059724988003
 30
0.0
 40
0.2300000008267574
 50
90.4414990364652454
 51
114.5680707232912994
  0
ARC
  5
158D
  8
0
 10
855.810880924471121
 20
110.0146423169248067
 30
0.0
 40
0.131
 50
127.697691877597606
 51
154.9818846450988872
  0
ARC
  5
158E
  8
0
 10
855.7214436812574831
 20
110.1414854322521961
 30
0.0
 40
0.0580283566266372
 50
359.5681838826862986
 51
97.7720897228405335
  0
ARC
  5
158F
  8
0
 10
855.7611254664147964
 20
110.0725777600927984
 30
0.0
 40
0.0160140784950392
 50
269.9041101614722038
 51
358.0373683035547856
  0
ARC
  5
1590
  8
0
 10
855.7263569021712328
 20
110.138599382624804
 30
0.0
 40
0.008
 50
358.0580000008990851
 51
90.4414990244013666
  0
ARC
  5
1591
  8
0
 10
855.7258830963711489
 20
110.1246258121248047
 30
0.0
 40
0.008
 50
307.6976918454008114
 51
358.0580000004998737
  0
ARC
  5
1592
  8
0
 10
855.6994215075877719
 20
110.0666596061597033
 30
0.0
 40
0.0080000000353941
 50
154.9818849930101976
 51
268.0579998887064903
  0
ARC
  5
1593
  8
0
 10
855.872248669771011
 20
110.8512835125248017
 30
0.0
 40
0.061
 50
180.0
 51
267.999999999800707
  0
ARC
  5
1594
  8
0
 10
855.868203776971086
 20
111.6056142258247945
 30
0.0
 40
0.061
 50
2.075026361598848
 51
83.9305952986997852
  0
ARC
  5
1595
  8
0
 10
855.872248669771011
 20
110.9546798948248068
 30
0.0
 40
0.061
 50
90.0
 51
180.0
  0
ARC
  5
1596
  8
0
 10
855.9001363993711493
 20
111.6366038978247985
 30
0.0
 40
0.06
 50
2.0010866929000639
 51
84.9257336405976275
  0
ARC
  5
1597
  8
0
 10
855.903051749558017
 20
110.8927587411934041
 30
0.0
 40
0.0621227231106055
 50
35.4495655337239768
 51
89.5804381409605668
  0
ARC
  5
1598
  8
0
 10
855.8722673441654933
 20
110.8512910574698935
 30
0.0
 40
0.0160186761712721
 50
180.0269868447672934
 51
270.073068926403721
  0
ARC
  5
1599
  8
0
 10
855.872248669771011
 20
110.9546798948248068
 30
0.0
 40
0.016
 50
90.0
 51
180.0
  0
ARC
  5
159A
  8
0
 10
855.935658461071057
 20
110.9866798948248032
 30
0.0
 40
0.016
 50
270.0000000000977138
 51
2.075026361400071
  0
ARC
  5
159B
  8
0
 10
855.8889916149747705
 20
111.0316960979894958
 30
0.0
 40
0.0160162046440817
 50
270.0246269127695768
 51
0.0591951220587489
  0
ARC
  5
159C
  8
0
 10
855.8657506383801774
 20
111.6032230343442961
 30
0.0
 40
0.0186803432384595
 50
9.1499351900629016
 51
87.8269486302760924
  0
ARC
  5
159D
  8
0
 10
855.9662820809918458
 20
110.973683556825506
 30
0.0
 40
0.1200369446134911
 50
238.5123741267152866
 51
268.0040915417218912
  0
ARC
  5
159E
  8
0
 10
855.9944469058234517
 20
111.4613285798407958
 30
0.0
 40
0.0599360373133002
 50
182.0581107294393064
 51
244.0071660101141902
  0
ARC
  5
159F
  8
0
 10
856.0452576322710456
 20
110.9197126350247942
 30
0.0
 40
0.06
 50
182.0010866953994935
 51
268.0223938528969256
  0
ARC
  5
15A0
  8
0
 10
855.9962493851711542
 20
110.9710218926246057
 30
0.0
 40
0.0599853501997676
 50
246.4035984260389966
 51
259.9296490543432014
  0
ARC
  5
15A1
  8
0
 10
855.9962578100710289
 20
110.9710086145248056
 30
0.0
 40
0.0599765562
 50
224.7435144320010068
 51
246.3911455178005099
  0
ARC
  5
15A2
  8
0
 10
855.7067285334711642
 20
178.9155793754977992
 30
0.0
 40
0.291
 50
224.4086730105005074
 51
275.5687290055006997
  0
ARC
  5
15A3
  8
0
 10
855.7067285334711642
 20
178.9155793754977992
 30
0.0
 40
0.286
 50
278.7174293676005163
 51
300.7749515408991101
  0
ARC
  5
15A4
  8
0
 10
855.7067285334711642
 20
178.9155793754977992
 30
0.0
 40
0.236
 50
276.3793702085004043
 51
288.2442571515020973
  0
ARC
  5
15A5
  8
0
 10
855.7067285334711642
 20
178.9155793754977992
 30
0.0
 40
0.236
 50
252.4892081542978133
 51
263.6206297914997094
  0
ARC
  5
15A6
  8
0
 10
855.6465279397710901
 20
179.9177495298978045
 30
0.0
 40
0.185
 50
240.0097138991988004
 51
270.0000000014003945
  0
ARC
  5
15A7
  8
0
 10
855.6912564231722627
 20
179.3314941866350978
 30
0.0
 40
0.1247074046188754
 50
70.8289232481847364
 51
109.432518699668293
  0
ARC
  5
15A8
  8
0
 10
855.6924327357226048
 20
178.8159103531395999
 30
0.0
 40
0.1247074036719307
 50
250.8289230713241125
 51
289.4325188762384755
  0
ARC
  5
15A9
  8
0
 10
855.6447661244711753
 20
179.9177495298978045
 30
0.0
 40
0.125
 50
240.3606622875944083
 51
270.0000000020974085
  0
ARC
  5
15AA
  8
0
 10
855.5215646479712177
 20
179.7012219895977978
 30
0.0
 40
0.1241240244
 50
60.3606622850013821
 51
137.5315493943014076
  0
ARC
  5
15AB
  8
0
 10
855.5215646479712177
 20
179.7012219895977978
 30
0.0
 40
0.065
 50
60.0097138962054473
 51
137.5315493954039994
  0
ARC
  5
15AC
  8
0
 10
855.0078513162710578
 20
178.6847495298978004
 30
0.0
 40
0.032
 50
90.0
 51
172.0169267860999867
  0
ARC
  5
15AD
  8
0
 10
855.3862486697711347
 20
178.3477495298978113
 30
0.0
 40
0.032
 50
270.0
 51
0.0
  0
ARC
  5
15AE
  8
0
 10
855.0293698494712089
 20
178.8087495298977956
 30
0.0
 40
0.032
 50
168.2933374469984926
 51
270.0
  0
ARC
  5
15AF
  8
0
 10
855.3912486697711302
 20
177.1317495298978031
 30
0.0
 40
0.027
 50
219.9173541494022004
 51
0.0
  0
ARC
  5
15B0
  8
0
 10
855.3912480872420474
 20
177.1397494275213091
 30
0.0
 40
0.0270005825292637
 50
0.0002172450010466
 51
39.8699804920879615
  0
ARC
  5
15B1
  8
0
 10
855.3522486697712566
 20
178.7007495298977915
 30
0.0
 40
0.016
 50
0.0
 51
90.0
  0
ARC
  5
15B2
  8
0
 10
855.3844245313144938
 20
178.331822374134191
 30
0.0
 40
0.0161760255611941
 50
180.2580164947671904
 51
276.4749048321514238
  0
ARC
  5
15B3
  8
0
 10
855.4342486697711365
 20
178.7007495298977915
 30
0.0
 40
0.016
 50
90.0
 51
180.0
  0
ARC
  5
15B4
  8
0
 10
855.4874149234527749
 20
178.7007450935267912
 30
0.0
 40
0.0160052577384185
 50
44.4124673650571395
 51
89.4195338587327342
  0
ARC
  5
15B5
  8
0
 10
855.7334144532711662
 20
178.6418772349977928
 30
0.0
 40
0.016
 50
275.5687290055989251
 51
309.7780995327036067
  0
ARC
  5
15B6
  8
0
 10
855.5812486697711847
 20
178.7244788984978072
 30
0.0
 40
0.016
 50
180.0
 51
252.4892081531980068
  0
ARC
  5
15B7
  8
0
 10
855.5492486697711456
 20
178.7607495298977938
 30
0.0
 40
0.016
 50
0.0
 51
90.0
  0
ARC
  5
15B8
  8
0
 10
855.7338244834553507
 20
178.6738906174244903
 30
0.0
 40
0.0072032586774806
 50
96.966914713349766
 51
174.878246166004601
  0
ARC
  5
15B9
  8
0
 10
855.7197285334711978
 20
178.6755793754977901
 30
0.0
 40
0.007
 50
270.0000000001954277
 51
351.4086255851997862
  0
ARC
  5
15BA
  8
0
 10
855.6937285334711305
 20
178.6755793754977901
 30
0.0
 40
0.007
 50
188.5913744148002138
 51
270.0000000002996217
  0
ARC
  5
15BB
  8
0
 10
855.6796325834867503
 20
178.6738906174244903
 30
0.0
 40
0.0072032586774983
 50
5.1217538340413773
 51
83.0330852862040558
  0
ARC
  5
15BC
  8
0
 10
856.0155477374712518
 20
179.0744408040978044
 30
0.0
 40
0.1590012077
 50
291.6103600532960058
 51
352.722964831799402
  0
ARC
  5
15BD
  8
0
 10
856.0155477374712518
 20
179.0744408040978044
 30
0.0
 40
0.1590012077
 50
7.5384771334001428
 51
68.6510402707011878
  0
ARC
  5
15BE
  8
0
 10
856.3559852233211132
 20
171.2433293754978081
 30
0.0
 40
0.125
 50
90.0
 51
180.0
  0
ARC
  5
15BF
  8
0
 10
856.3559852233211132
 20
171.0058293754977967
 30
0.0
 40
0.125
 50
180.0
 51
270.0
  0
ARC
  5
15C0
  8
0
 10
855.8172486697711747
 20
178.7299957029977975
 30
0.0
 40
0.07
 50
300.7749515409976766
 51
0.0
  0
CIRCLE
  5
15C1
  8
0
 10
856.4747352233209767
 20
171.1245793754978024
 30
0.0
 40
0.0582369251
  0
ARC
  5
15C2
  8
0
 10
855.9954900260711383
 20
179.3193956797977933
 30
0.0
 40
0.04
 50
0.1307209826993975
 51
180.1307209826993869
  0
ARC
  5
15C3
  8
0
 10
855.8622486697711338
 20
178.8047495298976912
 30
0.0
 40
0.025
 50
0.0
 51
90.0000000000976854
  0
ARC
  5
15C4
  8
0
 10
855.7545607050260514
 20
178.6162600832126088
 30
0.0
 40
0.017217771290453
 50
105.1009368363212957
 51
129.3162953724001056
  0
ARC
  5
15C5
  8
0
 10
855.8292486697711183
 20
178.7243221833977884
 30
0.0
 40
0.016
 50
288.244257151995896
 51
0.0
  0
ARC
  5
15C6
  8
0
 10
855.9214855931270449
 20
179.716710002125609
 30
0.0
 40
0.016039551652322
 50
314.6166904917357101
 51
89.9011310905018348
  0
ARC
  5
15C7
  8
0
 10
855.9162486697712211
 20
179.6705589717977887
 30
0.0
 40
0.016
 50
129.9999999999018883
 51
179.9999999998989892
  0
ARC
  5
15C8
  8
0
 10
856.049082624571156
 20
179.716749529897811
 30
0.0
 40
0.016
 50
90.0
 51
129.9999999998001101
  0
ARC
  5
15C9
  8
0
 10
856.0685823261711676
 20
178.9405614545977983
 30
0.0
 40
0.015
 50
270.1307209827011206
 51
291.6103600519015799
  0
ARC
  5
15CA
  8
0
 10
856.0679708816699076
 20
179.2085607581759064
 30
0.0
 40
0.0149999989221474
 50
68.6506391390660724
 51
90.1307213696594118
  0
ARC
  5
15CB
  8
0
 10
856.0462657232711763
 20
178.9794606402977877
 30
0.0
 40
0.015
 50
0.1307209727219025
 51
48.3204060548384504
  0
ARC
  5
15CC
  8
0
 10
856.0458320082711907
 20
179.1695601455978135
 30
0.0
 40
0.015
 50
311.9410358785031008
 51
0.1286043843000784
  0
ARC
  5
15CD
  8
0
 10
855.8522486697711429
 20
178.8227495298978056
 30
0.0
 40
0.007
 50
90.0
 51
180.0
  0
ARC
  5
15CE
  8
0
 10
855.9072659167397887
 20
179.6276300745645074
 30
0.0
 40
0.0068889250221077
 50
166.8220683733063083
 51
310.5904872064147071
  0
ARC
  5
15CF
  8
0
 10
856.54924127327115
 20
110.9542186975247944
 30
0.0
 40
0.1209276292
 50
267.9905302103957752
 51
290.2503020032983727
  0
ARC
  5
15D0
  8
0
 10
857.3802486697711629
 20
110.6985620377247983
 30
0.0
 40
0.084
 50
0.0
 51
88.0000000000028564
  0
ARC
  5
15D1
  8
0
 10
857.3802486697711629
 20
110.7295303078248025
 30
0.0
 40
0.084
 50
33.5573097624979013
 51
88.0223938684023892
  0
ARC
  5
15D2
  8
0
 10
857.4935202200903177
 20
111.6146968480458952
 30
0.0
 40
0.0600100193893948
 50
359.9990406267891103
 51
69.7927786599379942
  0
ARC
  5
15D3
  8
0
 10
857.1982299953765505
 20
110.7279240923795953
 30
0.0
 40
0.0160186761714711
 50
0.0269868450979059
 51
90.0730692833849673
  0
ARC
  5
15D4
  8
0
 10
857.2302486697710719
 20
110.6963826577247971
 30
0.0
 40
0.016
 50
180.0
 51
270.0
  0
ARC
  5
15D5
  8
0
 10
857.3782486697712102
 20
110.6643826577248007
 30
0.0
 40
0.016
 50
0.0
 51
90.0
  0
ARC
  5
15D6
  8
0
 10
857.3782486697712102
 20
110.5943826577247933
 30
0.0
 40
0.016
 50
270.0
 51
0.0
  0
ARC
  5
15D7
  8
0
 10
857.2302486697710719
 20
110.5623826577247968
 30
0.0
 40
0.016
 50
90.0
 51
180.0
  0
ARC
  5
15D8
  8
0
 10
857.2302486697710719
 20
110.5493826577248058
 30
0.0
 40
0.016
 50
180.0
 51
270.0
  0
ARC
  5
15D9
  8
0
 10
857.4032486697711875
 20
110.5173826577247951
 30
0.0
 40
0.016
 50
0.0
 51
90.0
  0
ARC
  5
15DA
  8
0
 10
857.4352486697709992
 20
110.0806798948247973
 30
0.0
 40
0.016
 50
180.0
 51
270.0
  0
ARC
  5
15DB
  8
0
 10
857.4482486697711465
 20
110.0806798948247973
 30
0.0
 40
0.016
 50
270.0
 51
0.0
  0
ARC
  5
15DC
  8
0
 10
857.4482486697711465
 20
110.5907516916248028
 30
0.0
 40
0.016
 50
0.0
 51
30.0000000017002399
  0
ARC
  5
15DD
  8
0
 10
857.4482486697711465
 20
110.668608098024805
 30
0.0
 40
0.016
 50
329.9999999981002929
 51
0.0
  0
ARC
  5
15DE
  8
0
 10
857.4534862740712242
 20
110.6296798948248039
 30
0.0
 40
0.008
 50
150.0000000026005011
 51
209.9999999979002041
  0
ARC
  5
15DF
  8
0
 10
856.593485223320954
 20
171.2433293754978081
 30
0.0
 40
0.125
 50
0.0
 51
90.0
  0
ARC
  5
15E0
  8
0
 10
856.593485223320954
 20
171.0058293754977967
 30
0.0
 40
0.125
 50
270.0
 51
0.0
  0
ARC
  5
15E1
  8
0
 10
856.9259573002711932
 20
178.415755144897787
 30
0.0
 40
2.028
 50
137.5315493943014076
 51
219.9173541503994045
  0
ARC
  5
15E2
  8
0
 10
856.925957300491973
 20
178.4157551450142023
 30
0.0
 40
1.9688759758442771
 50
172.0169267889118885
 51
219.7394394888951012
  0
ARC
  5
15E3
  8
0
 10
856.9259573002711932
 20
178.415755144897787
 30
0.0
 40
1.9688759755999989
 50
137.5315493943014076
 51
168.2933374484989031
  0
ARC
  5
15E4
  8
0
 10
856.8844147148711272
 20
179.716749529897811
 30
0.0
 40
0.016
 50
49.999999999698197
 51
90.0
  0
ARC
  5
15E5
  8
0
 10
857.017027116848908
 20
179.670388968261193
 30
0.0
 40
0.016272753992794
 50
4.5463258542287104
 51
49.7871811211360011
  0
ARC
  5
15E6
  8
0
 10
857.0120124426177881
 20
179.7167090077024909
 30
0.0
 40
0.0160405472904683
 50
90.1013499230204644
 51
225.3256815347737927
  0
ARC
  5
15E7
  8
0
 10
857.0263601106088345
 20
179.6276900826543113
 30
0.0
 40
0.0068889250043304
 50
216.822068098649595
 51
0.5904873025373601
  0
ARC
  5
15E8
  8
0
 10
857.3242853779712505
 20
179.9177495298978045
 30
0.0
 40
0.185
 50
269.9999999985994918
 51
299.9902861008989134
  0
ARC
  5
15E9
  8
0
 10
857.3260471932710516
 20
179.9177495298978045
 30
0.0
 40
0.125
 50
269.9999999978961114
 51
299.6393377123005166
  0
ARC
  5
15EA
  8
0
 10
857.4492486697710092
 20
179.7012219895977978
 30
0.0
 40
0.1241240244
 50
0.0000000008989011
 51
119.6393377151035935
  0
ARC
  5
15EB
  8
0
 10
857.4492486697710092
 20
179.7012219895977978
 30
0.0
 40
0.065
 50
0.0
 51
119.9902861033958033
  0
ARC
  5
15EC
  8
0
 10
857.4965717597476669
 20
178.7934441287723075
 30
0.0
 40
0.0176905515903584
 50
275.4393068065564876
 51
357.7497696149791864
  0
ARC
  5
15ED
  8
0
 10
857.5573726940712049
 20
177.1207495298978074
 30
0.0
 40
0.016
 50
270.0
 51
0.0
  0
ARC
  5
15EE
  8
0
 10
857.5302486697712538
 20
177.1207495298978074
 30
0.0
 40
0.016
 50
180.0
 51
270.0
  0
LINE
  5
15EF
  8
0
 10
857.1526988137211447
 20
178.6905266799477943
 30
0.0
 11
857.0990537728212075
 21
178.7082102001477892
 31
0.0
  0
LINE
  5
15F0
  8
0
 10
857.3231182270211548
 20
179.4480909248478042
 30
0.0
 11
857.3530497037211262
 21
179.4180225576477881
 31
0.0
  0
LINE
  5
15F1
  8
0
 10
856.9767964642212519
 20
178.8691490324478082
 30
0.0
 11
856.9917622025211585
 21
178.8541148488477859
 31
0.0
  0
LINE
  5
15F2
  8
0
 10
857.1014738757211262
 20
178.7276142114477864
 30
0.0
 11
857.1314053523210532
 21
178.6975458441478111
 31
0.0
  0
LINE
  5
15F3
  8
0
 10
857.3530497037211262
 20
179.4180225576477881
 30
0.0
 11
857.3514732250210955
 21
178.7270438340478051
 31
0.0
  0
LINE
  5
15F4
  8
0
 10
857.3231182270211548
 20
179.4480909248478042
 30
0.0
 11
857.3214048578211077
 21
178.6971123573478053
 31
0.0
  0
LINE
  5
15F5
  8
0
 10
857.1314053523210532
 20
178.6975458441478111
 30
0.0
 11
857.133118721521214
 21
179.44852441164781
 31
0.0
  0
LINE
  5
15F6
  8
0
 10
857.1014738757211262
 20
178.7276142114477864
 30
0.0
 11
857.1030503543211125
 21
179.4185929350477977
 31
0.0
  0
LINE
  5
15F7
  8
0
 10
856.9917622025211585
 20
178.8541148488477859
 30
0.0
 11
856.9927626000211376
 21
179.2925942296477899
 31
0.0
  0
LINE
  5
15F8
  8
0
 10
856.9762384747625674
 20
178.6245793754978024
 30
0.0
 11
856.9778214102211678
 21
179.3183881242478037
 31
0.0
  0
LINE
  5
15F9
  8
0
 10
856.8978216184210623
 20
179.3185706450477994
 30
0.0
 11
856.896238266562932
 21
178.6245793754978024
 31
0.0
  0
LINE
  5
15FA
  8
0
 10
856.8769183617210956
 20
178.9226913953476981
 30
0.0
 11
856.8776070395211946
 21
179.2245424304477979
 31
0.0
  0
LINE
  5
15FB
  8
0
 10
856.8726026585211457
 20
179.2226279326478107
 30
0.0
 11
856.8719227687212197
 21
178.9246287082478091
 31
0.0
  0
LINE
  5
15FC
  8
0
 10
856.8272160598210121
 20
179.0532310417478072
 30
0.0
 11
856.8273096017211401
 21
179.0942309350477899
 31
0.0
  0
LINE
  5
15FD
  8
0
 10
857.3680628706210882
 20
178.7598332347477879
 30
0.0
 11
857.3680628706210882
 21
178.7235626033478013
 31
0.0
  0
LINE
  5
15FE
  8
0
 10
857.0880628706211155
 20
178.7234058882478109
 30
0.0
 11
857.0880628706211155
 21
178.8218332347477997
 31
0.0
  0
LINE
  5
15FF
  8
0
 10
857.0460628706213129
 20
178.803833234747799
 30
0.0
 11
857.0460628706213129
 21
178.7290794078477916
 31
0.0
  0
LINE
  5
1600
  8
0
 10
857.3214048578211077
 20
178.6971123573478053
 30
0.0
 11
857.3514732250210955
 21
178.7270438340478051
 31
0.0
  0
LINE
  5
1601
  8
0
 10
856.9777284164212006
 20
179.277628491347798
 30
0.0
 11
856.9927626000211376
 21
179.2925942296477899
 31
0.0
  0
LINE
  5
1602
  8
0
 10
857.1030503543211125
 20
179.4185929350477977
 30
0.0
 11
857.133118721521214
 21
179.44852441164781
 31
0.0
  0
LINE
  5
1603
  8
0
 10
857.1314053523210532
 20
178.6975458441478111
 30
0.0
 11
857.1993890985211237
 21
178.6973907382478046
 31
0.0
  0
LINE
  5
1604
  8
0
 10
857.2818314541211748
 20
178.6972026447477901
 30
0.0
 11
857.3214048578211077
 21
178.6971123573478053
 31
0.0
  0
LINE
  5
1605
  8
0
 10
856.9917622025211585
 20
178.8541148488477859
 30
0.0
 11
857.101761916220994
 21
178.8538638828478042
 31
0.0
  0
LINE
  5
1606
  8
0
 10
856.8769183617210956
 20
178.9226913953476981
 30
0.0
 11
856.8969183096211282
 21
178.9226457651477915
 31
0.0
  0
LINE
  5
1607
  8
0
 10
856.8646949916211497
 20
178.9246451985478075
 30
0.0
 11
856.8719227687212197
 21
178.9246287082478091
 31
0.0
  0
LINE
  5
1608
  8
0
 10
856.8770691081211908
 20
178.9887643199477907
 30
0.0
 11
856.8970690560211096
 21
178.9887186897477989
 31
0.0
  0
LINE
  5
1609
  8
0
 10
856.8771704353212044
 20
179.0331765423478032
 30
0.0
 11
856.8971703832211233
 21
179.0331309121478114
 31
0.0
  0
LINE
  5
160A
  8
0
 10
856.8272160598210121
 20
179.0532310417478072
 30
0.0
 11
856.7600433035327114
 21
179.0533842973621006
 31
0.0
  0
LINE
  5
160B
  8
0
 10
856.760136845424995
 20
179.0943841906463092
 30
0.0
 11
856.8273096017211401
 21
179.0942309350477899
 31
0.0
  0
LINE
  5
160C
  8
0
 10
856.8973549139211627
 20
179.1140116532477862
 30
0.0
 11
856.8773549659211994
 21
179.1140572834478064
 31
0.0
  0
LINE
  5
160D
  8
0
 10
856.8974562411210627
 20
179.1584238755478111
 30
0.0
 11
856.8774562931212131
 21
179.1584695057478029
 31
0.0
  0
LINE
  5
160E
  8
0
 10
856.8653748814210758
 20
179.2226444229476954
 30
0.0
 11
856.8726026585211457
 21
179.2226279326478107
 31
0.0
  0
LINE
  5
160F
  8
0
 10
856.8976069875211579
 20
179.224496800247806
 30
0.0
 11
856.8776070395211946
 21
179.2245424304477979
 31
0.0
  0
LINE
  5
1610
  8
0
 10
856.9927626000211376
 20
179.2925942296477899
 30
0.0
 11
857.1027623138212448
 21
179.2923432636478083
 31
0.0
  0
LINE
  5
1611
  8
0
 10
857.133118721521214
 20
179.44852441164781
 30
0.0
 11
857.2011024678213289
 21
179.4483693057478035
 31
0.0
  0
LINE
  5
1612
  8
0
 10
857.2835448233211082
 20
179.4481812122477891
 30
0.0
 11
857.3231182270211548
 21
179.4480909248478042
 31
0.0
  0
LINE
  5
1613
  8
0
 10
857.239583006921066
 20
178.6676630803478076
 30
0.0
 11
857.2135830069209987
 21
178.6676630803478076
 31
0.0
  0
LINE
  5
1614
  8
0
 10
857.4457344697210601
 20
178.7158332347478051
 30
0.0
 11
857.4990628706211737
 21
178.7158332347478051
 31
0.0
  0
LINE
  5
1615
  8
0
 10
857.498248669771101
 20
178.7758332347476937
 30
0.0
 11
857.3840628706210509
 21
178.7758332347476937
 31
0.0
  0
LINE
  5
1616
  8
0
 10
857.0810628706211673
 20
178.8288332347478047
 30
0.0
 11
857.0710628706211764
 21
178.8288332347478047
 31
0.0
  0
LINE
  5
1617
  8
0
 10
857.3568770375211443
 20
178.7083040386478103
 30
0.0
 11
857.2975919683211714
 21
178.6895992507477899
 31
0.0
  0
ARC
  5
1618
  8
0
 10
857.2265830069211461
 20
178.9146630803477933
 30
0.0
 40
0.291
 50
264.4312709944991866
 51
265.4519748912713908
  0
ARC
  5
1619
  8
0
 10
857.2265830069211461
 20
178.9146630803477933
 30
0.0
 40
0.291
 50
274.5480251087220722
 51
315.591326989499521
  0
ARC
  5
161A
  8
0
 10
857.2265830069211461
 20
178.9146630803477933
 30
0.0
 40
0.286
 50
239.2250484591008899
 51
261.2825706323994837
  0
ARC
  5
161B
  8
0
 10
857.2265830069211461
 20
178.9146630803477933
 30
0.0
 40
0.236
 50
251.7557428484979027
 51
263.6206297914997094
  0
ARC
  5
161C
  8
0
 10
857.2265830069211461
 20
178.9146630803477933
 30
0.0
 40
0.236
 50
276.3793702085004043
 51
287.5107918456953939
  0
ARC
  5
161D
  8
0
 10
857.2420551172198202
 20
179.3305778914850919
 30
0.0
 40
0.1247074046188754
 50
70.567481300331707
 51
109.1710767518152068
  0
ARC
  5
161E
  8
0
 10
857.2408788046699328
 20
178.814994057989594
 30
0.0
 40
0.1247074036719307
 50
250.5674811237614961
 51
289.1710769286758023
  0
ARC
  5
161F
  8
0
 10
857.4458966169395353
 20
178.6998287983768137
 30
0.0
 40
0.0160052577384185
 50
90.5804661412672516
 51
135.5875326349427894
  0
ARC
  5
1620
  8
0
 10
857.1998970871211441
 20
178.6409609398477869
 30
0.0
 40
0.016
 50
230.2219004672963081
 51
264.4312709944010749
  0
ARC
  5
1621
  8
0
 10
857.3520628706210118
 20
178.7235626033478013
 30
0.0
 40
0.016
 50
287.5107918468020216
 51
0.0
  0
ARC
  5
1622
  8
0
 10
857.3840628706210509
 20
178.7598332347477879
 30
0.0
 40
0.016
 50
90.0
 51
180.0
  0
ARC
  5
1623
  8
0
 10
857.1994870569367322
 20
178.6729743222745128
 30
0.0
 40
0.0072032586774806
 50
5.1217538339953821
 51
83.0330852866502482
  0
ARC
  5
1624
  8
0
 10
857.2135830069209987
 20
178.6746630803478126
 30
0.0
 40
0.007
 50
188.5913744148002138
 51
269.9999999997980922
  0
ARC
  5
1625
  8
0
 10
857.239583006921066
 20
178.6746630803478126
 30
0.0
 40
0.007
 50
269.9999999997003783
 51
351.4086255851997862
  0
ARC
  5
1626
  8
0
 10
857.2536789569054463
 20
178.6729743222745128
 30
0.0
 40
0.0072032586774983
 50
96.9669147137959442
 51
174.8782461659585863
  0
ARC
  5
1627
  8
0
 10
856.9177638029210584
 20
179.0735245089477985
 30
0.0
 40
0.1590012077
 50
187.277035168200598
 51
248.3896399467039942
  0
ARC
  5
1628
  8
0
 10
856.9177638029210584
 20
179.0735245089477985
 30
0.0
 40
0.1590012077
 50
111.348959729298798
 51
172.4615228665998075
  0
ARC
  5
1629
  8
0
 10
857.1160628706211355
 20
178.7290794078477916
 30
0.0
 40
0.07
 50
180.0
 51
239.2250484590022097
  0
ARC
  5
162A
  8
0
 10
856.9378215143211719
 20
179.3184793846477874
 30
0.0
 40
0.04
 50
359.8692790173005847
 51
179.869279017298993
  0
ARC
  5
162B
  8
0
 10
857.0710628706211764
 20
178.803833234747799
 30
0.0
 40
0.025
 50
89.9999999998957776
 51
180.0
  0
ARC
  5
162C
  8
0
 10
857.1787508353664862
 20
178.6153437880626029
 30
0.0
 40
0.017217771290453
 50
50.6837046275998873
 51
74.8990631636787043
  0
ARC
  5
162D
  8
0
 10
857.1040628706211919
 20
178.7234058882478109
 30
0.0
 40
0.016
 50
180.0
 51
251.755742848004104
  0
ARC
  5
162E
  8
0
 10
856.8647292142211427
 20
178.9396451594477924
 30
0.0
 40
0.015
 50
248.3896399480983064
 51
269.869279017298993
  0
ARC
  5
162F
  8
0
 10
856.8653406587222889
 20
179.2076444630259004
 30
0.0
 40
0.0149999989221474
 50
89.8692786303405882
 51
111.3493608609338992
  0
ARC
  5
1630
  8
0
 10
856.887045817121134
 20
178.9785443451478102
 30
0.0
 40
0.015
 50
131.6795939451615141
 51
179.869279027278111
  0
ARC
  5
1631
  8
0
 10
856.8874795321210058
 20
179.1686438504476939
 30
0.0
 40
0.015
 50
179.8713956156998961
 51
228.0589641214968992
  0
ARC
  5
1632
  8
0
 10
857.0810628706211673
 20
178.8218332347477997
 30
0.0
 40
0.007
 50
0.0
 51
90.0
  0
ARC
  5
1633
  8
0
 10
857.3966869093666219
 20
170.9399077094622896
 30
0.0
 40
0.3114708646234665
 50
292.172558545494212
 51
359.4797212689381922
  0
ARC
  5
1634
  8
0
 10
857.3968253102550534
 20
171.309345005941708
 30
0.0
 40
0.3113316303349145
 50
0.5032249671136232
 51
67.8445022664046178
  0
LINE
  5
1635
  8
0
 10
856.2309852233211132
 20
117.6813293754977963
 30
0.0
 11
856.2309852233211132
 21
117.4438293754977991
 31
0.0
  0
LINE
  5
1636
  8
0
 10
856.7184852233210677
 20
117.4438293754977991
 30
0.0
 11
856.7184852233210677
 21
117.6813293754977963
 31
0.0
  0
LINE
  5
1637
  8
0
 10
857.7081449326210532
 20
117.7500793754978048
 30
0.0
 11
857.7081449326210532
 21
117.3750794131977955
 31
0.0
  0
LINE
  5
1638
  8
0
 10
856.3559852233211132
 20
117.3188293754977991
 30
0.0
 11
856.593485223320954
 21
117.3188293754977991
 31
0.0
  0
LINE
  5
1639
  8
0
 10
856.593485223320954
 20
117.8063293754977963
 30
0.0
 11
856.3559852233211132
 21
117.8063293754977963
 31
0.0
  0
ARC
  5
163A
  8
0
 10
856.3559852233211132
 20
117.6813293754977963
 30
0.0
 40
0.125
 50
90.0
 51
180.0
  0
ARC
  5
163B
  8
0
 10
856.3559852233211132
 20
117.4438293754977991
 30
0.0
 40
0.125
 50
180.0
 51
270.0
  0
CIRCLE
  5
163C
  8
0
 10
856.4747352233209767
 20
117.5625793754978048
 30
0.0
 40
0.0582369251
  0
ARC
  5
163D
  8
0
 10
856.593485223320954
 20
117.6813293754977963
 30
0.0
 40
0.125
 50
0.0
 51
90.0
  0
ARC
  5
163E
  8
0
 10
856.593485223320954
 20
117.4438293754977991
 30
0.0
 40
0.125
 50
270.0
 51
0.0
  0
ARC
  5
163F
  8
0
 10
857.3966869093666219
 20
117.3779077094623062
 30
0.0
 40
0.3114708646234665
 50
292.172558545494212
 51
359.4797212689381922
  0
ARC
  5
1640
  8
0
 10
857.3968253102550534
 20
117.7473450059416962
 30
0.0
 40
0.3113316303349145
 50
0.5032249671136232
 51
67.8445022664046178
  0
CIRCLE
  5
1641
  8
0
 10
856.4747487192711333
 20
144.3435793754977965
 30
0.0
 40
0.0582369251
  0
ARC
  5
1642
  8
0
 10
857.499512102586209
 20
178.7010993626832942
 30
0.0
 40
0.0147407189570222
 50
358.6401053956358282
 51
91.7463925345337401
  0
LINE
  5
1644
  8
0
 10
855.4044255541376742
 20
145.6690696594455972
 30
0.0
 11
855.4077432254376845
 21
144.1690733284455916
 31
0.0
  0
LINE
  5
1645
  8
0
 10
857.5142486697711774
 20
144.1198159684456073
 30
0.0
 11
857.5477453180376415
 21
144.1198159684456073
 31
0.0
  0
LINE
  5
1646
  8
0
 10
857.597745318037596
 20
145.6698159684455902
 30
0.0
 11
857.597745318037596
 21
144.1698159684455902
 31
0.0
  0
LINE
  5
1647
  8
0
 10
857.5142486697711774
 20
145.7198159684456016
 30
0.0
 11
857.5477453180376415
 21
145.7198159684456016
 31
0.0
  0
ARC
  5
1648
  8
0
 10
855.4544254318376488
 20
145.6691802484455991
 30
0.0
 40
0.05
 50
137.900263082026413
 51
180.1267258094997032
  0
ARC
  5
1649
  8
0
 10
857.5477453180376415
 20
144.1698159684455902
 30
0.0
 40
0.05
 50
270.0
 51
0.0
  0
ARC
  5
164A
  8
0
 10
857.5477453180376415
 20
145.6698159684455902
 30
0.0
 40
0.05
 50
0.0
 51
90.0
  0
ARC
  5
164B
  8
0
 10
855.4577428889353996
 20
144.168969953132887
 30
0.0
 40
0.0499997703628443
 50
179.8815399891456082
 51
216.0667400414768906
  0
ENDSEC
  0
EOF
