  0
SECTION
  2
HEADER
  9
$ACADVER
  1
AC1009
  9
$INSBASE
 10
1131.3987533763979627
 20
122.3604768167899977
 30
0.0
  9
$EXTMIN
 10
1128.2442591566471037
 20
122.3604768167899977
 30
0.0
  9
$EXTMAX
 10
1134.619228629348072
 20
192.1292591491900055
 30
0.0
  9
$LIMMIN
 10
0.0
 20
0.0
  9
$LIMMAX
 10
11.6929133858000007
 20
8.2677165353999982
  9
$ORTHOMODE
 70
     1
  9
$REGENMODE
 70
     1
  9
$FILLMODE
 70
     1
  9
$QTEXTMODE
 70
     0
  9
$MIRRTEXT
 70
     0
  9
$DRAGMODE
 70
     2
  9
$LTSCALE
 40
0.6431102362
  9
$OSMODE
 70
  4095
  9
$ATTMODE
 70
     1
  9
$TEXTSIZE
 40
0.2
  9
$TRACEWID
 40
0.05
  9
$TEXTSTYLE
  7
STANDARD
  9
$CLAYER
  8
0
  9
$CELTYPE
  6
BYLAYER
  9
$CECOLOR
 62
   256
  9
$DIMSCALE
 40
1.0
  9
$DIMASZ
 40
0.1875
  9
$DIMEXO
 40
0.0625
  9
$DIMDLI
 40
0.4443307087
  9
$DIMRND
 40
0.0
  9
$DIMDLE
 40
0.0
  9
$DIMEXE
 40
0.125
  9
$DIMTP
 40
0.01
  9
$DIMTM
 40
0.01
  9
$DIMTXT
 40
2.0
  9
$DIMCEN
 40
0.1052362205
  9
$DIMTSZ
 40
0.0
  9
$DIMTOL
 70
     1
  9
$DIMLIM
 70
     0
  9
$DIMTIH
 70
     1
  9
$DIMTOH
 70
     1
  9
$DIMSE1
 70
     0
  9
$DIMSE2
 70
     0
  9
$DIMTAD
 70
     0
  9
$DIMZIN
 70
     0
  9
$DIMBLK
  1

  9
$DIMASO
 70
     1
  9
$DIMSHO
 70
     1
  9
$DIMPOST
  1
\X
  9
$DIMAPOST
  1

  9
$DIMALT
 70
     1
  9
$DIMALTD
 70
     2
  9
$DIMALTF
 40
25.3999999999999986
  9
$DIMLFAC
 40
1.0
  9
$DIMTOFL
 70
     0
  9
$DIMTVP
 40
0.0
  9
$DIMTIX
 70
     0
  9
$DIMSOXD
 70
     0
  9
$DIMSAH
 70
     0
  9
$DIMBLK1
  1

  9
$DIMBLK2
  1

  9
$DIMSTYLE
  2
STANDARD
  9
$DIMCLRD
 70
     0
  9
$DIMCLRE
 70
     0
  9
$DIMCLRT
 70
     0
  9
$DIMTFAC
 40
1.0
  9
$DIMGAP
 40
0.09
  9
$LUNITS
 70
     2
  9
$LUPREC
 70
     4
  9
$SKETCHINC
 40
0.1
  9
$FILLETRAD
 40
0.0
  9
$AUNITS
 70
     0
  9
$AUPREC
 70
     0
  9
$MENU
  1
.
  9
$ELEVATION
 40
0.0
  9
$PELEVATION
 40
0.0
  9
$THICKNESS
 40
0.0
  9
$LIMCHECK
 70
     0
  9
$BLIPMODE
 70
     0
  9
$CHAMFERA
 40
0.0
  9
$CHAMFERB
 40
0.0
  9
$SKPOLY
 70
     0
  9
$TDCREATE
 40
2458072.6192476861178875
  9
$TDUPDATE
 40
2458967.742337963078171
  9
$TDINDWG
 40
0.0401706019
  9
$TDUSRTIMER
 40
0.0401706019
  9
$USRTIMER
 70
     1
  9
$ANGBASE
 50
0.0
  9
$ANGDIR
 70
     0
  9
$PDMODE
 70
     0
  9
$PDSIZE
 40
0.3125
  9
$PLINEWID
 40
0.0
  9
$COORDS
 70
     1
  9
$SPLFRAME
 70
     0
  9
$SPLINETYPE
 70
     6
  9
$SPLINESEGS
 70
     8
  9
$ATTDIA
 70
     1
  9
$ATTREQ
 70
     1
  9
$HANDLING
 70
     1
  9
$HANDSEED
  5
17D3
  9
$SURFTAB1
 70
     6
  9
$SURFTAB2
 70
     6
  9
$SURFTYPE
 70
     6
  9
$SURFU
 70
     6
  9
$SURFV
 70
     6
  9
$UCSNAME
  2

  9
$UCSORG
 10
0.0
 20
0.0
 30
0.0
  9
$UCSXDIR
 10
1.0
 20
0.0
 30
0.0
  9
$UCSYDIR
 10
0.0
 20
1.0
 30
0.0
  9
$PUCSNAME
  2

  9
$PUCSORG
 10
0.0
 20
0.0
 30
0.0
  9
$PUCSXDIR
 10
1.0
 20
0.0
 30
0.0
  9
$PUCSYDIR
 10
0.0
 20
1.0
 30
0.0
  9
$USERI1
 70
     0
  9
$USERI2
 70
     0
  9
$USERI3
 70
     0
  9
$USERI4
 70
     0
  9
$USERI5
 70
     0
  9
$USERR1
 40
0.0
  9
$USERR2
 40
0.0
  9
$USERR3
 40
0.0
  9
$USERR4
 40
0.0
  9
$USERR5
 40
0.0
  9
$WORLDVIEW
 70
     1
  9
$SHADEDGE
 70
     3
  9
$SHADEDIF
 70
    70
  9
$TILEMODE
 70
     1
  9
$MAXACTVP
 70
    64
  9
$PLIMCHECK
 70
     0
  9
$PEXTMIN
 10
1.0000000000000000E+20
 20
1.0000000000000000E+20
 30
1.0000000000000000E+20
  9
$PEXTMAX
 10
-1.0000000000000000E+20
 20
-1.0000000000000000E+20
 30
-1.0000000000000000E+20
  9
$PLIMMIN
 10
0.0
 20
0.0
  9
$PLIMMAX
 10
12.0
 20
9.0
  9
$UNITMODE
 70
     0
  9
$VISRETAIN
 70
     1
  9
$PLINEGEN
 70
     0
  9
$PSLTSCALE
 70
     1
  0
ENDSEC
  0
SECTION
  2
TABLES
  0
TABLE
  2
VPORT
 70
     1
  0
VPORT
  2
*ACTIVE
 70
     0
 10
0.0
 20
0.0
 11
1.0
 21
1.0
 12
0.0
 22
0.0
 13
0.0
 23
0.0
 14
1.0
 24
1.0
 15
0.0
 25
0.0
 16
0.0
 26
0.0
 36
249.2714208231791133
 17
1131.4317626953120453
 27
157.2448654174804119
 37
0.0
 40
70.1534886935881019
 41
2.784968684759916
 42
50.0
 43
0.0
 44
0.0
 50
0.0
 51
0.0
 71
     0
 72
   100
 73
     1
 74
     1
 75
     0
 76
     0
 77
     0
 78
     0
  0
ENDTAB
  0
TABLE
  2
LTYPE
 70
     2
  0
LTYPE
  2
CONTINUOUS
 70
     0
  3
Solid line
 72
    65
 73
     0
 40
0.0
  0
LTYPE
  2
PHANTOM2
 70
     0
  3
___ _ _ ___ _ _ ___ _ _ ___ _ _
 72
    65
 73
     6
 40
1.25
 49
0.625
 49
-0.125
 49
0.125
 49
-0.125
 49
0.125
 49
-0.125
  0
ENDTAB
  0
TABLE
  2
LAYER
 70
     2
  0
LAYER
  2
0
 70
     0
 62
   255
  6
CONTINUOUS
  0
LAYER
  2
DEFPOINTS
 70
     0
 62
     7
  6
CONTINUOUS
  0
ENDTAB
  0
TABLE
  2
STYLE
 70
     1
  0
STYLE
  2
STANDARD
 70
     0
 40
0.0
 41
0.8
 50
0.0
 71
     0
 42
0.2
  3
txt
  4

  0
ENDTAB
  0
TABLE
  2
VIEW
 70
     0
  0
ENDTAB
  0
TABLE
  2
UCS
 70
     0
  0
ENDTAB
  0
TABLE
  2
APPID
 70
     9
  0
APPID
  2
ACAD
 70
     0
  0
APPID
  2
ACAD_MLEADERVER
 70
     0
  0
APPID
  2
ACAD_EXEMPT_FROM_CAD_STANDARDS
 70
     0
  0
APPID
  2
ACAD_NAV_VCDISPLAY
 70
     0
  0
APPID
  2
ACAD_DSTYLE_DIMJAG
 70
     0
  0
APPID
  2
ACAD_DSTYLE_DIMTALN
 70
     0
  0
APPID
  2
ACAECLAYERSTANDARD
 70
     0
  0
APPID
  2
ACCMTRANSPARENCY
 70
     0
  0
APPID
  2
ACDBATTR
 70
     0
  0
ENDTAB
  0
TABLE
  2
DIMSTYLE
 70
     1
  0
DIMSTYLE
  2
STANDARD
 70
     0
  3

  4

  5

  6

  7

 40
1.0
 41
0.1875
 42
0.0625
 43
0.38
 44
0.125
 45
0.0
 46
0.0
 47
0.01
 48
0.01
140
0.15625
141
0.09
142
0.0
143
25.3999999999999986
144
1.0
145
0.0
146
1.0
147
0.09
 71
     1
 72
     0
 73
     1
 74
     1
 75
     0
 76
     0
 77
     0
 78
     4
170
     0
171
     2
172
     0
173
     0
174
     0
175
     0
176
     0
177
     0
178
     0
  0
ENDTAB
  0
ENDSEC
  0
SECTION
  2
BLOCKS
  0
BLOCK
  8
0
  2
$MODEL_SPACE
 70
     0
 10
0.0
 20
0.0
 30
0.0
  3
$MODEL_SPACE
  1

  0
ENDBLK
  5
21
  8
0
  0
BLOCK
 67
     1
  8
0
  2
$PAPER_SPACE
 70
     0
 10
0.0
 20
0.0
 30
0.0
  3
$PAPER_SPACE
  1

  0
ENDBLK
  5
1D
 67
     1
  8
0
  0
ENDSEC
  0
SECTION
  2
ENTITIES
  0
ATTDEF
  5
FEC
  8
DEFPOINTS
 10
1131.3943085728960796
 20
122.3722936368476013
 30
0.0
 40
0.001
  1
5475-59*
  3

  2
MODELNUMBER
 70
     0
1001
ACDBATTR
1070
     0
1070
     1
  0
ATTDEF
  5
FED
  8
DEFPOINTS
 10
1131.3943085728960796
 20
122.3706269701808935
 30
0.0
 40
0.001
  1
FINESSE
  3

  2
TRADENAME
 70
     0
1001
ACDBATTR
1070
     0
1070
     1
  0
ATTDEF
  5
FEE
  8
DEFPOINTS
 10
1131.3943085728960796
 20
122.3689603035141999
 30
0.0
 40
0.001
  1
SHOWER DOOR
  3

  2
PRODUCT
 70
     0
1001
ACDBATTR
1070
     0
1070
     1
  0
LINE
  5
15C1
  8
0
 10
1132.3812144683479346
 20
122.3685930300169957
 30
0.0
 11
1132.3682144683480146
 21
122.3685930300169957
 31
0.0
  0
LINE
  5
15C2
  8
0
 10
1130.3502922844479599
 20
122.3685930300169957
 30
0.0
 11
1130.4083339735479967
 21
122.3685930300169957
 31
0.0
  0
LINE
  5
15C3
  8
0
 10
1132.397214468348011
 20
122.3685930300169957
 30
0.0
 11
1132.4472144683479655
 21
122.3685930300169957
 31
0.0
  0
LINE
  5
15C4
  8
0
 10
1130.6940644639480524
 20
122.3604768392170001
 30
0.0
 11
1130.6321162036479109
 21
122.362577336116999
 31
0.0
  0
LINE
  5
15C5
  8
0
 10
1130.4883468270479625
 20
122.3674521646170064
 30
0.0
 11
1130.4257168616479703
 21
122.3695757763170064
 31
0.0
  0
LINE
  5
15C6
  8
0
 10
1132.4472144683479655
 20
122.5136181181169945
 30
0.0
 11
1132.486496038048017
 21
122.5136181181169945
 31
0.0
  0
LINE
  5
15C7
  8
0
 10
1132.3362144683480892
 20
122.8372957929170042
 30
0.0
 11
1132.1632144683480874
 21
122.8372957929170042
 31
0.0
  0
LINE
  5
15C8
  8
0
 10
1132.147214468348011
 20
122.8646446990170062
 30
0.0
 11
1132.0114279991480544
 21
122.8646446990170062
 31
0.0
  0
LINE
  5
15C9
  8
0
 10
1132.1632144683480874
 20
122.8822957929170059
 30
0.0
 11
1132.3112144683479983
 21
122.8822957929170059
 31
0.0
  0
LINE
  5
15CA
  8
0
 10
1132.3112144683479983
 20
122.9842957929169955
 30
0.0
 11
1132.1632144683480874
 21
122.9842957929169955
 31
0.0
  0
LINE
  5
15CB
  8
0
 10
1132.147214468348011
 20
123.0016446990170067
 30
0.0
 11
1132.0114279991480544
 21
123.0016446990170067
 31
0.0
  0
LINE
  5
15CC
  8
0
 10
1130.8686242596479588
 20
123.2745930300170016
 30
0.0
 11
1130.8052144683479128
 21
123.2745930300170016
 31
0.0
  0
LINE
  5
15CD
  8
0
 10
1130.8052144683479128
 20
123.3195930300170033
 30
0.0
 11
1130.8219642976480372
 21
123.3195930300170033
 31
0.0
  0
LINE
  5
15CE
  8
0
 10
1132.3161132147479293
 20
123.1173934118170052
 30
0.0
 11
1130.9761528976480349
 21
123.1636615067170055
 31
0.0
  0
LINE
  5
15CF
  8
0
 10
1132.1311753653480991
 20
123.0478558907170026
 30
0.0
 11
1130.8030855990480177
 21
123.0942338073169964
 31
0.0
  0
LINE
  5
15D0
  8
0
 10
1130.8052535712479312
 20
123.1391855295169933
 30
0.0
 11
1132.3161460260480453
 21
123.0864240024170044
 31
0.0
  0
LINE
  5
15D1
  8
0
 10
1130.8950672173480143
 20
123.157632571817004
 30
0.0
 11
1131.477966753147939
 21
123.1372776925170029
 31
0.0
  0
LINE
  5
15D2
  8
0
 10
1130.8384090137469684
 20
124.0002818864169996
 30
0.0
 11
1130.4181964709480326
 21
124.037595235816994
 31
0.0
  0
LINE
  5
15D3
  8
0
 10
1130.7994247546480437
 20
123.9258030790170011
 30
0.0
 11
1130.525649461347939
 21
123.9549133634170062
 31
0.0
  0
LINE
  5
15D4
  8
0
 10
1130.5304074504479104
 20
123.9996611180170021
 30
0.0
 11
1130.8076192940479814
 21
123.9701854283169951
 31
0.0
  0
LINE
  5
15D5
  8
0
 10
1130.7135785252480673
 20
190.9953561102898902
 30
0.0
 11
1130.7672235661480045
 21
191.0130396304899136
 31
0.0
  0
LINE
  5
15D6
  8
0
 10
1130.8389298665929346
 20
191.9867288180799108
 30
0.0
 11
1130.8657169382479424
 21
192.0092058399899884
 31
0.0
  0
LINE
  5
15D7
  8
0
 10
1130.9717638214478939
 20
192.0329193761899944
 30
0.0
 11
1130.8447139815480114
 21
191.9263119023900117
 31
0.0
  0
LINE
  5
15D8
  8
0
 10
1130.5431591119479435
 20
191.7529203551899002
 30
0.0
 11
1130.5132276352480858
 21
191.7228519879899977
 31
0.0
  0
LINE
  5
15D9
  8
0
 10
1130.8894808747479601
 20
191.1739784627899894
 30
0.0
 11
1130.8745151364480535
 21
191.1589442791899955
 31
0.0
  0
LINE
  5
15DA
  8
0
 10
1130.7648034632479721
 20
191.0324436417899108
 30
0.0
 11
1130.7348719866479314
 21
191.0023752744899923
 31
0.0
  0
LINE
  5
15DB
  8
0
 10
1132.379523869447894
 20
122.9295930300170028
 30
0.0
 11
1132.3950708747479439
 21
122.9026648268170021
 31
0.0
  0
LINE
  5
15DC
  8
0
 10
1131.986496038048017
 20
122.9331446990170065
 30
0.0
 11
1132.0114279991480544
 21
122.8646446990170062
 31
0.0
  0
LINE
  5
15DD
  8
0
 10
1130.8379736096480883
 20
123.3356257803170024
 30
0.0
 11
1130.8171590838480824
 21
123.9101066910170061
 31
0.0
  0
LINE
  5
15DE
  8
0
 10
1130.8621295760478915
 20
123.9117360566170021
 30
0.0
 11
1130.8846137679479398
 21
123.2911723600170006
 31
0.0
  0
LINE
  5
15DF
  8
0
 10
1130.9182600209480825
 20
123.2215306631169938
 30
0.0
 11
1130.8930656078480297
 21
123.9426121401170064
 31
0.0
  0
LINE
  5
15E0
  8
0
 10
1130.8335241978479644
 20
191.9331137183899898
 30
0.0
 11
1130.8332144683479328
 21
191.9744721069899924
 31
0.0
  0
LINE
  5
15E1
  8
0
 10
1130.5132276352480858
 20
191.7228519879899977
 30
0.0
 11
1130.5148041139480029
 21
191.0318732643899864
 31
0.0
  0
LINE
  5
15E2
  8
0
 10
1130.5431591119479435
 20
191.7529203551899002
 30
0.0
 11
1130.5448724811481043
 21
191.0019417876899865
 31
0.0
  0
LINE
  5
15E3
  8
0
 10
1130.7348719866479314
 20
191.0023752744899923
 30
0.0
 11
1130.733158617447998
 21
191.7533538419899912
 31
0.0
  0
LINE
  5
15E4
  8
0
 10
1130.7648034632479721
 20
191.0324436417899108
 30
0.0
 11
1130.7632269846480995
 21
191.7234223653898937
 31
0.0
  0
LINE
  5
15E5
  8
0
 10
1130.8745151364480535
 20
191.1589442791899955
 30
0.0
 11
1130.8735147389479607
 21
191.5974236599898859
 31
0.0
  0
LINE
  5
15E6
  8
0
 10
1130.890040954747974
 20
190.9284925106898925
 30
0.0
 11
1130.8884559287480442
 21
191.6232175545900134
 31
0.0
  0
LINE
  5
15E7
  8
0
 10
1130.968455720548036
 20
191.6234000753900091
 30
0.0
 11
1130.9700411629480641
 21
190.9284925106898925
 31
0.0
  0
LINE
  5
15E8
  8
0
 10
1130.9893589772480027
 20
191.227520825689993
 30
0.0
 11
1130.9886702994479037
 21
191.5293718607900075
 31
0.0
  0
LINE
  5
15E9
  8
0
 10
1130.9936746804480663
 20
191.5274573629899919
 30
0.0
 11
1130.994354570248106
 21
191.2294581385899903
 31
0.0
  0
LINE
  5
15EA
  8
0
 10
1131.0390612791479725
 20
191.3580604720899885
 30
0.0
 11
1131.0389677372479582
 21
191.3990603653899996
 31
0.0
  0
LINE
  5
15EB
  8
0
 10
1130.8365508538479389
 20
123.1752348288169969
 30
0.0
 11
1130.8364724523610221
 21
123.2587929339169932
 31
0.0
  0
LINE
  5
15EC
  8
0
 10
1130.3012144683480074
 20
190.6356626650899955
 30
0.0
 11
1130.3012144683480074
 21
191.0046626650899952
 31
0.0
  0
LINE
  5
15ED
  8
0
 10
1130.3502922844479599
 20
190.6440357819483893
 30
0.0
 11
1130.3502922844479599
 21
189.4506589146176907
 31
0.0
  0
LINE
  5
15EE
  8
0
 10
1130.3502922844479599
 20
189.4286664155621054
 30
0.0
 11
1130.3502922844479599
 21
122.3685930300169957
 31
0.0
  0
LINE
  5
15EF
  8
0
 10
1130.3512144683479619
 20
191.0046626650899952
 30
0.0
 11
1130.3512144683479619
 21
190.6516626650899866
 31
0.0
  0
LINE
  5
15F0
  8
0
 10
1130.3512144683479619
 20
189.4436626650899882
 30
0.0
 11
1130.3512144683479619
 21
189.4356626650900068
 31
0.0
  0
LINE
  5
15F1
  8
0
 10
1130.3663134240480304
 20
190.9284925106898925
 30
0.0
 11
1130.3663134240480304
 21
122.3685930300169957
 31
0.0
  0
LINE
  5
15F2
  8
0
 10
1130.4083339735479967
 20
190.9284925106898925
 30
0.0
 11
1130.4083339735479967
 21
122.3685930300169957
 31
0.0
  0
LINE
  5
15F3
  8
0
 10
1130.4181964709480326
 20
130.0354947164900068
 30
0.0
 11
1130.4181964709480326
 21
190.9284925106898925
 31
0.0
  0
LINE
  5
15F4
  8
0
 10
1130.4181964709480326
 20
124.037595235816994
 30
0.0
 11
1130.4182144683479692
 21
122.6204600045169997
 31
0.0
  0
LINE
  5
15F5
  8
0
 10
1130.4982144683478964
 20
191.0646626650899123
 30
0.0
 11
1130.4982144683478964
 21
191.0283920336898973
 31
0.0
  0
LINE
  5
15F6
  8
0
 10
1130.744214468347991
 20
123.1551966477170055
 30
0.0
 11
1130.744214468347991
 21
123.2585930300169963
 31
0.0
  0
LINE
  5
15F7
  8
0
 10
1130.7782144683480965
 20
191.0282353185899922
 30
0.0
 11
1130.7782144683480965
 21
191.1266626650898957
 31
0.0
  0
LINE
  5
15F8
  8
0
 10
1130.7892144683480637
 20
123.2585930300169963
 30
0.0
 11
1130.7892144683480637
 21
123.1551966477170055
 31
0.0
  0
LINE
  5
15F9
  8
0
 10
1130.8202144683471033
 20
191.1086626650900087
 30
0.0
 11
1130.8202144683471033
 21
191.0339088381898875
 31
0.0
  0
LINE
  5
15FA
  8
0
 10
1131.1639510218979012
 20
183.5472425106900118
 30
0.0
 11
1131.1639510218979012
 21
183.3097425106900005
 31
0.0
  0
LINE
  5
15FB
  8
0
 10
1131.6514510218980831
 20
183.3097425106900005
 30
0.0
 11
1131.6514510218980831
 21
183.5472425106900118
 31
0.0
  0
LINE
  5
15FC
  8
0
 10
1130.4102682562479458
 20
122.3861087915170032
 30
0.0
 11
1130.4629927676480747
 21
123.9410702067170007
 31
0.0
  0
LINE
  5
15FD
  8
0
 10
1130.5080020828479519
 20
123.9405822384169937
 30
0.0
 11
1130.4600630282479869
 21
122.5267544332169933
 31
0.0
  0
LINE
  5
15FE
  8
0
 10
1130.4574387207480868
 20
122.4493578543170003
 30
0.0
 11
1130.4569649150480473
 21
122.4353842839170028
 31
0.0
  0
LINE
  5
15FF
  8
0
 10
1130.6668443001478863
 20
122.4282678449170021
 30
0.0
 11
1130.6673181059479703
 21
122.4422414154170013
 31
0.0
  0
LINE
  5
1600
  8
0
 10
1130.7124361884480095
 20
122.444961234317006
 30
0.0
 11
1130.7100959492479433
 21
122.3759424501169946
 31
0.0
  0
LINE
  5
1601
  8
0
 10
1130.3502922844479599
 20
156.8439401424400046
 30
0.0
 11
1128.6201147227479851
 21
156.8399927154399904
 31
0.0
  0
LINE
  5
1602
  8
0
 10
1134.244228629348072
 20
156.8446694340399858
 30
0.0
 11
1132.4472144683479655
 21
156.8446694340399858
 31
0.0
  0
LINE
  5
1603
  8
0
 10
1131.966214468347971
 20
191.9755919651900058
 30
0.0
 11
1131.966214468347971
 21
191.931674213489913
 31
0.0
  0
LINE
  5
1604
  8
0
 10
1132.0114279991480544
 20
122.944530294616996
 30
0.0
 11
1132.0114279991480544
 21
122.8646446990170062
 31
0.0
  0
LINE
  5
1605
  8
0
 10
1132.147214468348011
 20
122.8532957929169953
 30
0.0
 11
1132.147214468348011
 21
122.8662957929170005
 31
0.0
  0
LINE
  5
1606
  8
0
 10
1132.147214468348011
 20
123.0002957929170009
 30
0.0
 11
1132.147214468348011
 21
123.0318447725170046
 31
0.0
  0
LINE
  5
1607
  8
0
 10
1132.3272144683480747
 20
122.898295792916997
 30
0.0
 11
1132.3272144683480747
 21
122.9682957929170044
 31
0.0
  0
LINE
  5
1608
  8
0
 10
1132.3522144683479382
 20
122.3845930300170011
 30
0.0
 11
1132.3522144683479382
 21
122.8212957929169988
 31
0.0
  0
LINE
  5
1609
  8
0
 10
1132.3832144683478873
 20
123.0798761900819045
 30
0.0
 11
1132.3832144683478873
 21
190.9284925106898925
 31
0.0
  0
LINE
  5
160A
  8
0
 10
1132.397214468348011
 20
122.3685930300169957
 30
0.0
 11
1132.397214468348011
 21
190.9284925106898925
 31
0.0
  0
LINE
  5
160B
  8
0
 10
1132.4472144683479655
 20
191.0046626650890005
 30
0.0
 11
1132.4472144683479655
 21
122.3685930300169957
 31
0.0
  0
LINE
  5
160C
  8
0
 10
1132.4472144683479655
 20
191.0966626650900082
 30
0.0
 11
1132.4472144683479655
 21
192.0051351247900016
 31
0.0
  0
LINE
  5
160D
  8
0
 10
1132.486496038048017
 20
122.5136181181169945
 30
0.0
 11
1132.486496038048017
 21
123.918608978416998
 31
0.0
  0
LINE
  5
160E
  8
0
 10
1132.5063384926479557
 20
192.0051351247900016
 30
0.0
 11
1132.5063384926479557
 21
189.4246626650900112
 31
0.0
  0
LINE
  5
160F
  8
0
 10
1132.6411107311969317
 20
183.6159925106900062
 30
0.0
 11
1132.6411107311969317
 21
183.2409925483900111
 31
0.0
  0
LINE
  5
1610
  8
0
 10
1130.8675620556480226
 20
123.7684743190170025
 30
0.0
 11
1130.8788568387481064
 21
123.9791180101170056
 31
0.0
  0
LINE
  5
1611
  8
0
 10
1130.3502922844479599
 20
157.5939420944399956
 30
0.0
 11
1128.6184035905480414
 21
157.589990763539987
 31
0.0
  0
LINE
  5
1612
  8
0
 10
1134.244228629348072
 20
157.5946694340399858
 30
0.0
 11
1132.4472144683479655
 21
157.5946694340399858
 31
0.0
  0
LINE
  5
1613
  8
0
 10
1131.986496038048017
 20
122.9331446990170065
 30
0.0
 11
1132.0114279991480544
 21
123.0016446990170067
 31
0.0
  0
LINE
  5
1614
  8
0
 10
1130.5540252129480905
 20
123.8177132604169941
 30
0.0
 11
1130.6291795058480147
 21
123.9378952660169944
 31
0.0
  0
LINE
  5
1615
  8
0
 10
1130.6592378625468882
 20
123.9859626944169975
 30
0.0
 11
1130.6771465718479703
 21
124.0146011730169988
 31
0.0
  0
LINE
  5
1616
  8
0
 10
1132.3950708747479439
 20
122.964521233216999
 30
0.0
 11
1132.379523869447894
 21
122.9375930300169983
 31
0.0
  0
LINE
  5
1617
  8
0
 10
1130.7330156637478922
 20
124.0096402811170009
 30
0.0
 11
1130.7145325546480308
 21
123.9800832588170039
 31
0.0
  0
LINE
  5
1618
  8
0
 10
1130.6879980673479622
 20
123.937650980016997
 30
0.0
 11
1130.5964186999478898
 21
123.7912030310170053
 31
0.0
  0
LINE
  5
1619
  8
0
 10
1130.5448724811481043
 20
191.0019417876899865
 30
0.0
 11
1130.5148041139480029
 21
191.0318732643899864
 31
0.0
  0
LINE
  5
161A
  8
0
 10
1131.2889510218979012
 20
183.1847425106900005
 30
0.0
 11
1131.5264510218980831
 21
183.1847425106900005
 31
0.0
  0
LINE
  5
161B
  8
0
 10
1131.5264510218980831
 20
183.6722425106900118
 30
0.0
 11
1131.2889510218979012
 21
183.6722425106900118
 31
0.0
  0
LINE
  5
161C
  8
0
 10
1130.8885489225478977
 20
191.582457921689894
 30
0.0
 11
1130.8735147389479607
 21
191.5974236599898859
 31
0.0
  0
LINE
  5
161D
  8
0
 10
1130.7632269846480995
 20
191.7234223653898937
 30
0.0
 11
1130.733158617447998
 21
191.7533538419899912
 31
0.0
  0
LINE
  5
161E
  8
0
 10
1131.9538113206479011
 20
191.9274744648899969
 30
0.0
 11
1131.8276651152480099
 21
192.0329193761899944
 31
0.0
  0
LINE
  5
161F
  8
0
 10
1131.9337005168479209
 20
192.0092154741900004
 30
0.0
 11
1131.9604990700479448
 21
191.9867288180898868
 31
0.0
  0
LINE
  5
1620
  8
0
 10
1131.986496038048017
 20
122.9331446990170065
 30
0.0
 11
1132.1364960380481079
 21
123.0016446990170067
 31
0.0
  0
LINE
  5
1621
  8
0
 10
1130.7348719866479314
 20
191.0023752744899923
 30
0.0
 11
1130.6668882404480883
 21
191.0022201685899859
 31
0.0
  0
LINE
  5
1622
  8
0
 10
1130.5844458848469003
 20
191.0020320750898861
 30
0.0
 11
1130.5448724811481043
 21
191.0019417876899865
 31
0.0
  0
LINE
  5
1623
  8
0
 10
1130.8745151364480535
 20
191.1589442791899955
 30
0.0
 11
1130.7645154227479907
 21
191.1586933131900139
 31
0.0
  0
LINE
  5
1624
  8
0
 10
1130.9893589772480027
 20
191.227520825689993
 30
0.0
 11
1130.9693590293479701
 21
191.2274751954898875
 31
0.0
  0
LINE
  5
1625
  8
0
 10
1131.0015823473479486
 20
191.2294746288899887
 30
0.0
 11
1130.994354570248106
 21
191.2294581385899903
 31
0.0
  0
LINE
  5
1626
  8
0
 10
1130.9892082308479075
 20
191.2935937502900003
 30
0.0
 11
1130.9692082829481024
 21
191.2935481200900085
 31
0.0
  0
LINE
  5
1627
  8
0
 10
1130.9891069036480076
 20
191.3380059726900129
 30
0.0
 11
1130.969106955747975
 21
191.3379603424899926
 31
0.0
  0
LINE
  5
1628
  8
0
 10
1131.0390612791479725
 20
191.3580604720899885
 30
0.0
 11
1131.1062340354360458
 21
191.3582137277043103
 31
0.0
  0
LINE
  5
1629
  8
0
 10
1131.1061404935439896
 20
191.3992136209884052
 30
0.0
 11
1131.0389677372479582
 21
191.3990603653899996
 31
0.0
  0
LINE
  5
162A
  8
0
 10
1130.9689224250480493
 20
191.4188410835899958
 30
0.0
 11
1130.9889223730478989
 21
191.4188867137899877
 31
0.0
  0
LINE
  5
162B
  8
0
 10
1130.9688210978479219
 20
191.4632533058899924
 30
0.0
 11
1130.9888210458479989
 21
191.4632989360900126
 31
0.0
  0
LINE
  5
162C
  8
0
 10
1131.0009024575479089
 20
191.5274738532899903
 30
0.0
 11
1130.9936746804480663
 21
191.5274573629899919
 31
0.0
  0
LINE
  5
162D
  8
0
 10
1130.9686703514480541
 20
191.529326230589902
 30
0.0
 11
1130.9886702994479037
 21
191.5293718607900075
 31
0.0
  0
LINE
  5
162E
  8
0
 10
1130.8735147389479607
 20
191.5974236599898859
 30
0.0
 11
1130.7635150251480809
 21
191.5971726939899895
 31
0.0
  0
LINE
  5
162F
  8
0
 10
1130.733158617447998
 20
191.7533538419899912
 30
0.0
 11
1130.6651748711481105
 21
191.7531987360900132
 31
0.0
  0
LINE
  5
1630
  8
0
 10
1130.5827325156481038
 20
191.7530106425899987
 30
0.0
 11
1130.5431591119479435
 21
191.7529203551899002
 31
0.0
  0
LINE
  5
1631
  8
0
 10
1132.4903384926481067
 20
189.4086626650899916
 30
0.0
 11
1132.4632144683480419
 21
189.4086626650899916
 31
0.0
  0
LINE
  5
1632
  8
0
 10
1130.3512144683479619
 20
190.9284925106898925
 30
0.0
 11
1132.4472144683479655
 21
190.9284925106898925
 31
0.0
  0
LINE
  5
1633
  8
0
 10
1130.6266943320479186
 20
190.9724925106899889
 30
0.0
 11
1130.6526943320479859
 21
190.9724925106899889
 31
0.0
  0
LINE
  5
1634
  8
0
 10
1130.4205428692480382
 20
191.0206626650899864
 30
0.0
 11
1130.3672144683480383
 21
191.0206626650899864
 31
0.0
  0
LINE
  5
1635
  8
0
 10
1130.285214468347931
 20
191.0206626650899864
 30
0.0
 11
1129.9408171148479596
 21
191.0206626650899864
 31
0.0
  0
LINE
  5
1636
  8
0
 10
1129.9623356480481107
 20
191.0806626650899886
 30
0.0
 11
1130.4822144683480474
 21
191.0806626650899886
 31
0.0
  0
LINE
  5
1637
  8
0
 10
1130.785214468347931
 20
191.1336626650899859
 30
0.0
 11
1130.7952144683479219
 21
191.1336626650899859
 31
0.0
  0
LINE
  5
1638
  8
0
 10
1132.2572511765479248
 20
192.0366626650898922
 30
0.0
 11
1131.9449498672479422
 21
192.0366626650898922
 31
0.0
  0
LINE
  5
1639
  8
0
 10
1131.8173805134479153
 20
192.0366626650898922
 30
0.0
 11
1130.982048423147944
 21
192.0366626650898922
 31
0.0
  0
LINE
  5
163A
  8
0
 10
1130.8544790693479172
 20
192.0366626650898922
 30
0.0
 11
1130.5794937383479919
 21
192.0366626650898922
 31
0.0
  0
LINE
  5
163B
  8
0
 10
1130.5777319230480771
 20
192.0966626650900082
 30
0.0
 11
1132.259012991848067
 21
192.0966626650900082
 31
0.0
  0
LINE
  5
163C
  8
0
 10
1130.5094003014469308
 20
191.0131334689899916
 30
0.0
 11
1130.5686853706479269
 21
190.9944286810898859
 31
0.0
  0
ARC
  5
163D
  8
0
 10
1128.6192591566471037
 20
157.2149917394399949
 30
0.0
 40
0.375
 50
90.1307209826945268
 51
270.1307209827076008
  0
ARC
  5
163E
  8
0
 10
1130.424891074748075
 20
122.234667426317003
 30
0.0
 40
0.28
 50
61.1656100915013923
 51
80.0465987229048039
  0
ARC
  5
163F
  8
0
 10
1130.4486903290480768
 20
122.2277190820170034
 30
0.0
 40
0.23
 50
61.5479292019013116
 51
85.6480765401887254
  0
ARC
  5
1640
  8
0
 10
1130.3727077952480613
 20
122.331139763517001
 30
0.0
 40
0.131
 50
21.13411535530118
 51
47.9924271050974198
  0
ARC
  5
1641
  8
0
 10
1130.4262590665480275
 20
122.3855665866170028
 30
0.0
 40
0.016
 50
178.0579999991001046
 51
268.0579999991066984
  0
ARC
  5
1642
  8
0
 10
1130.4760538385480686
 20
122.526212228316993
 30
0.0
 40
0.016
 50
178.0579999999997938
 51
260.0465987228919857
  0
ARC
  5
1643
  8
0
 10
1130.4873187719449561
 20
122.3754930417323976
 30
0.0
 40
0.0081063309875117
 50
277.2859433854313238
 51
20.8034152392479115
  0
ARC
  5
1644
  8
0
 10
1130.4651982911270807
 20
122.4351579231833966
 30
0.0
 40
0.0082364872123494
 50
178.4251606342342029
 51
234.1697729937912982
  0
ARC
  5
1645
  8
0
 10
1130.4654351888450492
 20
122.4490862554240067
 30
0.0
 40
0.0080010791255043
 50
84.9227372163460075
 51
178.0547045868846112
  0
ARC
  5
1646
  8
0
 10
1130.562079108548005
 20
122.4369724803169959
 30
0.0
 40
0.008
 50
241.5479292031018019
 51
294.568070797097505
  0
ARC
  5
1647
  8
0
 10
1130.5637875884478944
 20
122.4869604275170047
 30
0.0
 40
0.008
 50
241.1656100803944014
 51
294.7782147625986227
  0
ARC
  5
1648
  8
0
 10
1130.523957731847986
 20
123.9390030507170053
 30
0.0
 40
0.061
 50
83.9305952988963071
 51
178.0580000001999963
  0
ARC
  5
1649
  8
0
 10
1130.5752219564481038
 20
123.8044581457170068
 30
0.0
 40
0.025
 50
147.9807209818976048
 51
327.9807209821972265
  0
ARC
  5
164A
  8
0
 10
1130.5239770188090915
 20
123.9389417401981035
 30
0.0
 40
0.0160589480784216
 50
84.0221511429837449
 51
174.1367344711908913
  0
ARC
  5
164B
  8
0
 10
1130.6844903738478934
 20
122.2254746008169946
 30
0.0
 40
0.28
 50
97.7851044505075606
 51
114.7782147941954065
  0
ARC
  5
164C
  8
0
 10
1130.6610333296418958
 20
122.2205191076909045
 30
0.0
 40
0.2300000008267574
 50
90.441499036458751
 51
114.5680707232971969
  0
ARC
  5
164D
  8
0
 10
1130.7438467230479091
 20
122.3185554521169962
 30
0.0
 40
0.131
 50
127.6976918775924048
 51
154.9818846451024115
  0
ARC
  5
164E
  8
0
 10
1130.6544094798339302
 20
122.4453985674443999
 30
0.0
 40
0.0580283566266372
 50
359.5681838826862986
 51
97.7720897228405335
  0
ARC
  5
164F
  8
0
 10
1130.6940912649909023
 20
122.3764908952850021
 30
0.0
 40
0.0160140784950392
 50
269.9041101614657236
 51
358.037368303555013
  0
ARC
  5
1650
  8
0
 10
1130.6593227007479072
 20
122.4425125178169935
 30
0.0
 40
0.008
 50
358.0580000008998809
 51
90.4414990243948722
  0
ARC
  5
1651
  8
0
 10
1130.6588488949480507
 20
122.4285389473169943
 30
0.0
 40
0.008
 50
307.6976918454008114
 51
358.0580000004998737
  0
ARC
  5
1652
  8
0
 10
1130.6323873061639915
 20
122.3705727413517934
 30
0.0
 40
0.0080000000353941
 50
154.9818849930067017
 51
268.0579998887000102
  0
ARC
  5
1653
  8
0
 10
1130.8052144683479128
 20
123.1551966477170055
 30
0.0
 40
0.061
 50
180.0
 51
267.999999999800707
  0
ARC
  5
1654
  8
0
 10
1130.8011695755481014
 20
123.9095273610169983
 30
0.0
 40
0.061
 50
2.075026361599662
 51
83.9305952986997852
  0
ARC
  5
1655
  8
0
 10
1130.8052144683479128
 20
123.2585930300169963
 30
0.0
 40
0.061
 50
90.0
 51
180.0
  0
ARC
  5
1656
  8
0
 10
1130.8331021979479374
 20
123.9405170330170023
 30
0.0
 40
0.06
 50
2.0010866928998361
 51
84.9257336406041219
  0
ARC
  5
1657
  8
0
 10
1130.8360175481350325
 20
123.1966718763855937
 30
0.0
 40
0.0621227231106055
 50
35.4495655337239768
 51
89.5804381409605668
  0
ARC
  5
1658
  8
0
 10
1130.805233142742054
 20
123.1552041926620973
 30
0.0
 40
0.0160186761712721
 50
180.0269868447672934
 51
270.073068926397184
  0
ARC
  5
1659
  8
0
 10
1130.8052144683479128
 20
123.2585930300169963
 30
0.0
 40
0.016
 50
90.0
 51
180.0
  0
ARC
  5
165A
  8
0
 10
1130.8686242596479588
 20
123.290593030017007
 30
0.0
 40
0.016
 50
270.0000000000911768
 51
2.0750263613998361
  0
ARC
  5
165B
  8
0
 10
1130.8219574135518997
 20
123.3356092331816001
 30
0.0
 40
0.0160162046440817
 50
270.0246269127630967
 51
0.0591951220587489
  0
ARC
  5
165C
  8
0
 10
1130.7987164369569655
 20
123.9071361695364999
 30
0.0
 40
0.0186803432384595
 50
9.1499351900639372
 51
87.8269486302826152
  0
ARC
  5
165D
  8
0
 10
1130.8992478795680654
 20
123.2775966920176955
 30
0.0
 40
0.1200369446134911
 50
238.5123741267208004
 51
268.0040915417218912
  0
ARC
  5
165E
  8
0
 10
1130.9274127044000124
 20
123.7652417150329995
 30
0.0
 40
0.0599360373133002
 50
182.0581107294401022
 51
244.0071660101083069
  0
ARC
  5
165F
  8
0
 10
1130.9782234308479474
 20
123.2236257702169979
 30
0.0
 40
0.06
 50
182.0010866954002893
 51
268.022393852890275
  0
ARC
  5
1660
  8
0
 10
1130.929215183748056
 20
123.2749350278167952
 30
0.0
 40
0.0599853501997676
 50
246.4035984260389966
 51
259.9296490543367781
  0
ARC
  5
1661
  8
0
 10
1130.9292236086480443
 20
123.2749217497169951
 30
0.0
 40
0.0599765562
 50
224.7435144320010068
 51
246.3911455178005099
  0
ARC
  5
1662
  8
0
 10
1130.6396943320480659
 20
191.2194925106898893
 30
0.0
 40
0.291
 50
224.4086730105051117
 51
275.5687290054942196
  0
ARC
  5
1663
  8
0
 10
1130.6396943320480659
 20
191.2194925106898893
 30
0.0
 40
0.286
 50
278.7174293676005163
 51
300.7749515408991101
  0
ARC
  5
1664
  8
0
 10
1130.6396943320480659
 20
191.2194925106898893
 30
0.0
 40
0.236
 50
276.3793702084939241
 51
288.2442571515020973
  0
ARC
  5
1665
  8
0
 10
1130.6396943320480659
 20
191.2194925106898893
 30
0.0
 40
0.236
 50
252.4892081542915889
 51
263.6206297914931724
  0
ARC
  5
1666
  8
0
 10
1130.5794937383479919
 20
192.2216626650898945
 30
0.0
 40
0.185
 50
240.0097138991932013
 51
270.000000001394028
  0
ARC
  5
1667
  8
0
 10
1130.6242222217490507
 20
191.6354073218273015
 30
0.0
 40
0.1247074046188754
 50
70.8289232481847364
 51
109.432518699668293
  0
ARC
  5
1668
  8
0
 10
1130.6253985342989381
 20
191.1198234883318037
 30
0.0
 40
0.1247074036719307
 50
250.8289230713241125
 51
289.4325188762446146
  0
ARC
  5
1669
  8
0
 10
1130.5777319230480771
 20
192.2216626650898945
 30
0.0
 40
0.125
 50
240.3606622875888092
 51
270.0000000020974085
  0
ARC
  5
166A
  8
0
 10
1130.4545304465480058
 20
192.0051351247900016
 30
0.0
 40
0.1241240244
 50
60.360662285007038
 51
137.5315493943020044
  0
ARC
  5
166B
  8
0
 10
1130.4545304465480058
 20
192.0051351247900016
 30
0.0
 40
0.065
 50
60.0097138961997985
 51
137.5315493954034025
  0
ARC
  5
166C
  8
0
 10
1129.9408171148479596
 20
190.9886626650900041
 30
0.0
 40
0.032
 50
90.0
 51
172.0169267860991908
  0
ARC
  5
166D
  8
0
 10
1130.3192144683480365
 20
190.6516626650899866
 30
0.0
 40
0.032
 50
270.0
 51
0.0
  0
ARC
  5
166E
  8
0
 10
1129.9623356480481107
 20
191.1126626650899141
 30
0.0
 40
0.032
 50
168.2933374469992884
 51
270.0
  0
ARC
  5
166F
  8
0
 10
1130.3242144683479182
 20
189.4356626650900068
 30
0.0
 40
0.027
 50
219.917354149397994
 51
0.0
  0
ARC
  5
1670
  8
0
 10
1130.3242138858190629
 20
189.4436625627133992
 30
0.0
 40
0.0270005825292637
 50
0.0002172450010467
 51
39.8699804920837906
  0
ARC
  5
1671
  8
0
 10
1130.285214468347931
 20
191.0046626650899952
 30
0.0
 40
0.016
 50
0.0
 51
90.0
  0
ARC
  5
1672
  8
0
 10
1130.3173903298909408
 20
190.6357355093263948
 30
0.0
 40
0.0161760255611941
 50
180.2580164947679862
 51
276.4749048321577902
  0
ARC
  5
1673
  8
0
 10
1130.3672144683480383
 20
191.0046626650899952
 30
0.0
 40
0.016
 50
90.0
 51
180.0
  0
ARC
  5
1674
  8
0
 10
1130.4203807220289946
 20
191.0046582287189949
 30
0.0
 40
0.0160052577384185
 50
44.4124673650571395
 51
89.419533858739257
  0
ARC
  5
1675
  8
0
 10
1130.6663802518480679
 20
190.9457903701899113
 30
0.0
 40
0.016
 50
275.5687290055989251
 51
309.7780995327036067
  0
ARC
  5
1676
  8
0
 10
1130.5142144683479728
 20
191.0283920336898973
 30
0.0
 40
0.016
 50
180.0
 51
252.4892081531980068
  0
ARC
  5
1677
  8
0
 10
1130.4822144683480474
 20
191.0646626650899123
 30
0.0
 40
0.016
 50
0.0
 51
90.0
  0
ARC
  5
1678
  8
0
 10
1130.6667902820320251
 20
190.9778037526166941
 30
0.0
 40
0.0072032586774806
 50
96.966914713349766
 51
174.8782461660044021
  0
ARC
  5
1679
  8
0
 10
1130.6526943320479859
 20
190.9794925106899939
 30
0.0
 40
0.007
 50
270.0000000001954277
 51
351.4086255851988199
  0
ARC
  5
167A
  8
0
 10
1130.6266943320479186
 20
190.9794925106899939
 30
0.0
 40
0.007
 50
188.5913744148012086
 51
270.0000000002996217
  0
ARC
  5
167B
  8
0
 10
1130.6125983820641068
 20
190.9778037526166088
 30
0.0
 40
0.0072032586774983
 50
5.1217538340413773
 51
83.0330852862040558
  0
ARC
  5
167C
  8
0
 10
1130.9485135360480399
 20
191.3783539392900082
 30
0.0
 40
0.1590012077
 50
291.6103600532960058
 51
352.722964831799402
  0
ARC
  5
167D
  8
0
 10
1130.9485135360480399
 20
191.3783539392900082
 30
0.0
 40
0.1590012077
 50
7.5384771334001428
 51
68.6510402707011878
  0
ARC
  5
167E
  8
0
 10
1131.2889510218979012
 20
183.5472425106900118
 30
0.0
 40
0.125
 50
90.0
 51
180.0
  0
ARC
  5
167F
  8
0
 10
1131.2889510218979012
 20
183.3097425106900005
 30
0.0
 40
0.125
 50
180.0
 51
270.0
  0
ARC
  5
1680
  8
0
 10
1130.7502144683480765
 20
191.0339088381898875
 30
0.0
 40
0.07
 50
300.7749515410033041
 51
0.0
  0
CIRCLE
  5
1681
  8
0
 10
1131.4077010218979922
 20
183.4284925106898925
 30
0.0
 40
0.0582369251
  0
ARC
  5
1682
  8
0
 10
1130.9284558246479264
 20
191.6233088149899118
 30
0.0
 40
0.04
 50
0.1307209827002266
 51
180.1307209827002112
  0
ARC
  5
1683
  8
0
 10
1130.7952144683479219
 20
191.1086626650900087
 30
0.0
 40
0.025
 50
0.0
 51
90.0000000000911911
  0
ARC
  5
1684
  8
0
 10
1130.6875265036030669
 20
190.9201732184048126
 30
0.0
 40
0.017217771290453
 50
105.1009368363150003
 51
129.3162953724001056
  0
ARC
  5
1685
  8
0
 10
1130.7622144683480201
 20
191.0282353185899922
 30
0.0
 40
0.016
 50
288.244257151995896
 51
0.0
  0
ARC
  5
1686
  8
0
 10
1130.8544513917040604
 20
192.020623137317699
 30
0.0
 40
0.016039551652322
 50
314.6166904917357101
 51
89.901131090495312
  0
ARC
  5
1687
  8
0
 10
1130.8492144683480092
 20
191.9744721069899924
 30
0.0
 40
0.016
 50
129.9999999999018883
 51
179.9999999998998135
  0
ARC
  5
1688
  8
0
 10
1130.982048423147944
 20
192.0206626650899864
 30
0.0
 40
0.016
 50
90.0
 51
129.9999999998001101
  0
ARC
  5
1689
  8
0
 10
1131.0015481247480693
 20
191.2444745897898883
 30
0.0
 40
0.015
 50
270.1307209827076008
 51
291.6103600518956114
  0
ARC
  5
168A
  8
0
 10
1131.0009366802469231
 20
191.5124738933679964
 30
0.0
 40
0.0149999989221474
 50
68.6506391390721404
 51
90.1307213696528891
  0
ARC
  5
168B
  8
0
 10
1130.979231521848078
 20
191.2833737754899914
 30
0.0
 40
0.015
 50
0.1307209727219025
 51
48.3204060548433176
  0
ARC
  5
168C
  8
0
 10
1130.9787978068479788
 20
191.4734732807899888
 30
0.0
 40
0.015
 50
311.9410358785031008
 51
0.128604384300093
  0
ARC
  5
168D
  8
0
 10
1130.785214468347931
 20
191.1266626650898957
 30
0.0
 40
0.007
 50
90.0
 51
180.0
  0
ARC
  5
168E
  8
0
 10
1130.8402317153170316
 20
191.9315432097565974
 30
0.0
 40
0.0068889250221077
 50
166.8220683733077863
 51
310.5904872064147071
  0
ARC
  5
168F
  8
0
 10
1131.4822070718469149
 20
123.2581318327169981
 30
0.0
 40
0.1209276292
 50
267.9905302103957752
 51
290.2503020032983727
  0
ARC
  5
1690
  8
0
 10
1132.313214468347951
 20
123.0024751729170021
 30
0.0
 40
0.084
 50
0.0
 51
88.0000000000093792
  0
ARC
  5
1691
  8
0
 10
1132.313214468347951
 20
123.0334434430170063
 30
0.0
 40
0.084
 50
33.5573097624985834
 51
88.0223938684023892
  0
ARC
  5
1692
  8
0
 10
1132.4264860186669921
 20
123.9186099832379995
 30
0.0
 40
0.0600100193893948
 50
359.9990406267891103
 51
69.7927786599379942
  0
ARC
  5
1693
  8
0
 10
1132.1311957939531112
 20
123.0318372275717991
 30
0.0
 40
0.0160186761714711
 50
0.0269868450979059
 51
90.0730692833784445
  0
ARC
  5
1694
  8
0
 10
1132.1632144683480874
 20
123.0002957929170009
 30
0.0
 40
0.016
 50
180.0
 51
270.0
  0
ARC
  5
1695
  8
0
 10
1132.3112144683479983
 20
122.9682957929170044
 30
0.0
 40
0.016
 50
0.0
 51
90.0
  0
ARC
  5
1696
  8
0
 10
1132.3112144683479983
 20
122.898295792916997
 30
0.0
 40
0.016
 50
270.0
 51
0.0
  0
ARC
  5
1697
  8
0
 10
1132.1632144683480874
 20
122.8662957929170005
 30
0.0
 40
0.016
 50
90.0
 51
180.0
  0
ARC
  5
1698
  8
0
 10
1132.1632144683480874
 20
122.8532957929169953
 30
0.0
 40
0.016
 50
180.0
 51
270.0
  0
ARC
  5
1699
  8
0
 10
1132.3362144683480892
 20
122.8212957929169988
 30
0.0
 40
0.016
 50
0.0
 51
90.0
  0
ARC
  5
169A
  8
0
 10
1132.3682144683480146
 20
122.3845930300170011
 30
0.0
 40
0.016
 50
180.0
 51
270.0
  0
ARC
  5
169B
  8
0
 10
1132.3812144683479346
 20
122.3845930300170011
 30
0.0
 40
0.016
 50
270.0
 51
0.0
  0
ARC
  5
169C
  8
0
 10
1132.3812144683479346
 20
122.8946648268170065
 30
0.0
 40
0.016
 50
0.0
 51
30.0000000017027908
  0
ARC
  5
169D
  8
0
 10
1132.3812144683479346
 20
122.9725212332169946
 30
0.0
 40
0.016
 50
329.9999999981029077
 51
0.0
  0
ARC
  5
169E
  8
0
 10
1132.3864520726478986
 20
122.9335930300169935
 30
0.0
 40
0.008
 50
150.0000000025966074
 51
209.9999999979008862
  0
ARC
  5
169F
  8
0
 10
1131.5264510218980831
 20
183.5472425106900118
 30
0.0
 40
0.125
 50
0.0
 51
90.0
  0
ARC
  5
16A0
  8
0
 10
1131.5264510218980831
 20
183.3097425106900005
 30
0.0
 40
0.125
 50
270.0
 51
0.0
  0
ARC
  5
16A1
  8
0
 10
1131.8589230988479812
 20
190.7196682800899907
 30
0.0
 40
2.028
 50
137.5315493943020044
 51
219.9173541503951981
  0
ARC
  5
16A2
  8
0
 10
1131.858923099068079
 20
190.7196682802064061
 30
0.0
 40
1.9688759758442771
 50
172.0169267889118885
 51
219.7394394888985971
  0
ARC
  5
16A3
  8
0
 10
1131.8589230988479812
 20
190.7196682800899907
 30
0.0
 40
1.9688759755999989
 50
137.5315493943020044
 51
168.2933374485002957
  0
ARC
  5
16A4
  8
0
 10
1131.8173805134479153
 20
192.0206626650899864
 30
0.0
 40
0.016
 50
49.9999999997031992
 51
90.0
  0
ARC
  5
16A5
  8
0
 10
1131.9499929154249003
 20
191.9743021034533967
 30
0.0
 40
0.016272753992794
 50
4.5463258542287104
 51
49.7871811211360011
  0
ARC
  5
16A6
  8
0
 10
1131.9449782411938941
 20
192.0206221428946947
 30
0.0
 40
0.0160405472904683
 50
90.1013499230204644
 51
225.3256815347789939
  0
ARC
  5
16A7
  8
0
 10
1131.9593259091859636
 20
191.9316032178464866
 30
0.0
 40
0.0068889250043304
 50
216.8220680986541993
 51
0.5904873025373601
  0
ARC
  5
16A8
  8
0
 10
1132.2572511765479248
 20
192.2216626650898945
 30
0.0
 40
0.185
 50
269.9999999985930117
 51
299.9902861008989134
  0
ARC
  5
16A9
  8
0
 10
1132.259012991848067
 20
192.2216626650898945
 30
0.0
 40
0.125
 50
269.9999999978895175
 51
299.639337712306201
  0
ARC
  5
16AA
  8
0
 10
1132.382214468347911
 20
192.0051351247900016
 30
0.0
 40
0.1241240244
 50
0.0000000008997153
 51
119.6393377150979944
  0
ARC
  5
16AB
  8
0
 10
1132.382214468347911
 20
192.0051351247900016
 30
0.0
 40
0.065
 50
0.0
 51
119.9902861033958033
  0
ARC
  5
16AC
  8
0
 10
1132.4295375583249097
 20
191.0973572639645113
 30
0.0
 40
0.0176905515903584
 50
275.4393068065564876
 51
357.7497696149791864
  0
ARC
  5
16AD
  8
0
 10
1132.4903384926481067
 20
189.4246626650900112
 30
0.0
 40
0.016
 50
270.0
 51
0.0
  0
ARC
  5
16AE
  8
0
 10
1132.4632144683480419
 20
189.4246626650900112
 30
0.0
 40
0.016
 50
180.0
 51
270.0
  0
ARC
  5
16AF
  8
0
 10
1134.244228629348072
 20
157.2196694340399858
 30
0.0
 40
0.375
 50
270.0
 51
90.0
  0
LINE
  5
16B0
  8
0
 10
1132.0856646122979328
 20
190.994439815139998
 30
0.0
 11
1132.0320195713979956
 21
191.012123335339993
 31
0.0
  0
LINE
  5
16B1
  8
0
 10
1132.2560840255969197
 20
191.752004060040008
 30
0.0
 11
1132.2860155022979143
 21
191.7219356928399918
 31
0.0
  0
LINE
  5
16B2
  8
0
 10
1131.90976226279804
 20
191.1730621676398982
 30
0.0
 11
1131.9247280010979466
 21
191.1580279840399896
 31
0.0
  0
LINE
  5
16B3
  8
0
 10
1132.034439674298028
 20
191.0315273466399901
 30
0.0
 11
1132.0643711508980687
 21
191.0014589793399864
 31
0.0
  0
LINE
  5
16B4
  8
0
 10
1132.2860155022979143
 20
191.7219356928399918
 30
0.0
 11
1132.2844390235979972
 21
191.0309569692398952
 31
0.0
  0
LINE
  5
16B5
  8
0
 10
1132.2560840255969197
 20
191.752004060040008
 30
0.0
 11
1132.2543706563978958
 21
191.0010254925400091
 31
0.0
  0
LINE
  5
16B6
  8
0
 10
1132.0643711508980687
 20
191.0014589793399864
 30
0.0
 11
1132.066084520098002
 21
191.7524375468400137
 31
0.0
  0
LINE
  5
16B7
  8
0
 10
1132.034439674298028
 20
191.0315273466399901
 30
0.0
 11
1132.0360161528979006
 21
191.7225060702398878
 31
0.0
  0
LINE
  5
16B8
  8
0
 10
1131.9247280010979466
 20
191.1580279840399896
 30
0.0
 11
1131.9257283985980393
 21
191.5965073648399937
 31
0.0
  0
LINE
  5
16B9
  8
0
 10
1131.9092042733389007
 20
190.9284925106898925
 30
0.0
 11
1131.9107872087979558
 21
191.6223012594398938
 31
0.0
  0
LINE
  5
16BA
  8
0
 10
1131.8307874169979641
 20
191.6224837802398895
 30
0.0
 11
1131.829204065139038
 21
190.9284925106898925
 31
0.0
  0
LINE
  5
16BB
  8
0
 10
1131.8098841602979974
 20
191.2266045305399871
 30
0.0
 11
1131.8105728380980963
 21
191.5284555656398879
 31
0.0
  0
LINE
  5
16BC
  8
0
 10
1131.8055684570979338
 20
191.526541067839986
 30
0.0
 11
1131.804888567297894
 21
191.2285418434398991
 31
0.0
  0
LINE
  5
16BD
  8
0
 10
1131.7601818583980275
 20
191.357144176940011
 30
0.0
 11
1131.760275400296905
 21
191.3981440702399937
 31
0.0
  0
LINE
  5
16BE
  8
0
 10
1132.3010286691981037
 20
191.0637463699399916
 30
0.0
 11
1132.3010286691981037
 21
191.0274757385398914
 31
0.0
  0
LINE
  5
16BF
  8
0
 10
1132.0210286691979036
 20
191.0273190234399863
 30
0.0
 11
1132.0210286691979036
 21
191.1257463699398897
 31
0.0
  0
LINE
  5
16C0
  8
0
 10
1131.9790286691979873
 20
191.1077463699398891
 30
0.0
 11
1131.9790286691979873
 21
191.0329925430399953
 31
0.0
  0
LINE
  5
16C1
  8
0
 10
1132.2543706563978958
 20
191.0010254925400091
 30
0.0
 11
1132.2844390235979972
 21
191.0309569692398952
 31
0.0
  0
LINE
  5
16C2
  8
0
 10
1131.9106942149981023
 20
191.5815416265400017
 30
0.0
 11
1131.9257283985980393
 21
191.5965073648399937
 31
0.0
  0
LINE
  5
16C3
  8
0
 10
1132.0360161528979006
 20
191.7225060702398878
 30
0.0
 11
1132.066084520098002
 21
191.7524375468400137
 31
0.0
  0
LINE
  5
16C4
  8
0
 10
1132.0643711508980687
 20
191.0014589793399864
 30
0.0
 11
1132.1323548970979118
 21
191.0013038734400084
 31
0.0
  0
LINE
  5
16C5
  8
0
 10
1132.2147972526979629
 20
191.0011157799399939
 30
0.0
 11
1132.2543706563978958
 21
191.0010254925400091
 31
0.0
  0
LINE
  5
16C6
  8
0
 10
1131.9247280010979466
 20
191.1580279840399896
 30
0.0
 11
1132.0347277147980094
 21
191.1577770180398943
 31
0.0
  0
LINE
  5
16C7
  8
0
 10
1131.8098841602979974
 20
191.2266045305399871
 30
0.0
 11
1131.8298841081968931
 21
191.2265589003399953
 31
0.0
  0
LINE
  5
16C8
  8
0
 10
1131.7976607901980515
 20
191.2285583337400112
 30
0.0
 11
1131.804888567297894
 21
191.2285418434398991
 31
0.0
  0
LINE
  5
16C9
  8
0
 10
1131.8100349066980925
 20
191.2926774551399944
 30
0.0
 11
1131.8300348545978977
 21
191.2926318249400026
 31
0.0
  0
LINE
  5
16CA
  8
0
 10
1131.8101362338979925
 20
191.3370896775398933
 30
0.0
 11
1131.8301361817980251
 21
191.3370440473399867
 31
0.0
  0
LINE
  5
16CB
  8
0
 10
1131.7601818583980275
 20
191.357144176940011
 30
0.0
 11
1131.6930091021090448
 21
191.3572974325543044
 31
0.0
  0
LINE
  5
16CC
  8
0
 10
1131.6931026440020105
 20
191.398297325838513
 30
0.0
 11
1131.760275400296905
 21
191.3981440702399937
 31
0.0
  0
LINE
  5
16CD
  8
0
 10
1131.8303207124979508
 20
191.4179247884399899
 30
0.0
 11
1131.8103207644981012
 21
191.4179704186400102
 31
0.0
  0
LINE
  5
16CE
  8
0
 10
1131.8304220396980782
 20
191.4623370107399012
 30
0.0
 11
1131.8104220916980012
 21
191.4623826409400067
 31
0.0
  0
LINE
  5
16CF
  8
0
 10
1131.7983406799980912
 20
191.5265575581400128
 30
0.0
 11
1131.8055684570979338
 21
191.526541067839986
 31
0.0
  0
LINE
  5
16D0
  8
0
 10
1131.8305727860979459
 20
191.5284099354400098
 30
0.0
 11
1131.8105728380980963
 21
191.5284555656398879
 31
0.0
  0
LINE
  5
16D1
  8
0
 10
1131.9257283985980393
 20
191.5965073648399937
 30
0.0
 11
1132.0357281123979192
 21
191.596256398840012
 31
0.0
  0
LINE
  5
16D2
  8
0
 10
1132.066084520098002
 20
191.7524375468400137
 30
0.0
 11
1132.1340682663978896
 21
191.7522824409400073
 31
0.0
  0
LINE
  5
16D3
  8
0
 10
1132.2165106218978963
 20
191.7520943474399928
 30
0.0
 11
1132.2560840255969197
 21
191.752004060040008
 31
0.0
  0
LINE
  5
16D4
  8
0
 10
1132.1725488054980815
 20
190.9715762155400114
 30
0.0
 11
1132.1465488054980142
 21
190.9715762155400114
 31
0.0
  0
LINE
  5
16D5
  8
0
 10
1132.3787002682979619
 20
191.0197463699400089
 30
0.0
 11
1132.4320286691979618
 21
191.0197463699400089
 31
0.0
  0
LINE
  5
16D6
  8
0
 10
1132.4312144683478891
 20
191.0797463699400112
 30
0.0
 11
1132.3170286691979527
 21
191.0797463699400112
 31
0.0
  0
LINE
  5
16D7
  8
0
 10
1132.0140286691980691
 20
191.1327463699398947
 30
0.0
 11
1132.0040286691980782
 21
191.1327463699398947
 31
0.0
  0
LINE
  5
16D8
  8
0
 10
1132.2898428360979324
 20
191.0122171738399004
 30
0.0
 11
1132.2305577668980732
 21
190.9935123859399937
 31
0.0
  0
ARC
  5
16D9
  8
0
 10
1132.1595488054979342
 20
191.2185762155399971
 30
0.0
 40
0.291
 50
264.4312709944928201
 51
265.4519748912713908
  0
ARC
  5
16DA
  8
0
 10
1132.1595488054979342
 20
191.2185762155399971
 30
0.0
 40
0.291
 50
274.5480251087154784
 51
315.5913269894949167
  0
ARC
  5
16DB
  8
0
 10
1132.1595488054979342
 20
191.2185762155399971
 30
0.0
 40
0.286
 50
239.2250484591008899
 51
261.2825706323994837
  0
ARC
  5
16DC
  8
0
 10
1132.1595488054979342
 20
191.2185762155399971
 30
0.0
 40
0.236
 50
251.7557428484979027
 51
263.6206297914931724
  0
ARC
  5
16DD
  8
0
 10
1132.1595488054979342
 20
191.2185762155399971
 30
0.0
 40
0.236
 50
276.3793702084939241
 51
287.5107918456953939
  0
ARC
  5
16DE
  8
0
 10
1132.1750209157969493
 20
191.6344910266772956
 30
0.0
 40
0.1247074046188754
 50
70.567481300331707
 51
109.1710767518152068
  0
ARC
  5
16DF
  8
0
 10
1132.1738446032459251
 20
191.1189071931817978
 30
0.0
 40
0.1247074036719307
 50
250.5674811237553001
 51
289.1710769286758023
  0
ARC
  5
16E0
  8
0
 10
1132.378862415516096
 20
191.003741933568989
 30
0.0
 40
0.0160052577384185
 50
90.580466141273746
 51
135.5875326349427894
  0
ARC
  5
16E1
  8
0
 10
1132.1328628856979321
 20
190.9448740750399907
 30
0.0
 40
0.016
 50
230.2219004672963081
 51
264.4312709944010749
  0
ARC
  5
16E2
  8
0
 10
1132.2850286691980273
 20
191.0274757385398914
 30
0.0
 40
0.016
 50
287.5107918468020216
 51
0.0
  0
ARC
  5
16E3
  8
0
 10
1132.3170286691979527
 20
191.0637463699399916
 30
0.0
 40
0.016
 50
90.0
 51
180.0
  0
ARC
  5
16E4
  8
0
 10
1132.132452855513975
 20
190.9768874574666029
 30
0.0
 40
0.0072032586774806
 50
5.1217538339956112
 51
83.0330852866502482
  0
ARC
  5
16E5
  8
0
 10
1132.1465488054980142
 20
190.978576215539988
 30
0.0
 40
0.007
 50
188.5913744148012086
 51
269.999999999791612
  0
ARC
  5
16E6
  8
0
 10
1132.1725488054980815
 20
190.978576215539988
 30
0.0
 40
0.007
 50
269.9999999997003783
 51
351.4086255851988199
  0
ARC
  5
16E7
  8
0
 10
1132.1866447554818933
 20
190.9768874574666029
 30
0.0
 40
0.0072032586774983
 50
96.9669147137959442
 51
174.8782461659585863
  0
ARC
  5
16E8
  8
0
 10
1131.8507296014979602
 20
191.3774376441398886
 30
0.0
 40
0.1590012077
 50
187.2770351681998022
 51
248.3896399467039942
  0
ARC
  5
16E9
  8
0
 10
1131.8507296014979602
 20
191.3774376441398886
 30
0.0
 40
0.1590012077
 50
111.348959729298798
 51
172.4615228665998075
  0
ARC
  5
16EA
  8
0
 10
1132.0490286691979236
 20
191.0329925430399953
 30
0.0
 40
0.07
 50
180.0
 51
239.2250484589966959
  0
ARC
  5
16EB
  8
0
 10
1131.8707873128980737
 20
191.6223925198399911
 30
0.0
 40
0.04
 50
359.8692790172996752
 51
179.8692790172997888
  0
ARC
  5
16EC
  8
0
 10
1132.0040286691980782
 20
191.1077463699398891
 30
0.0
 40
0.025
 50
89.9999999998957776
 51
180.0
  0
ARC
  5
16ED
  8
0
 10
1132.1117166339429332
 20
190.9192569232548067
 30
0.0
 40
0.017217771290453
 50
50.6837046275998873
 51
74.8990631636849997
  0
ARC
  5
16EE
  8
0
 10
1132.03702866919798
 20
191.0273190234399863
 30
0.0
 40
0.016
 50
180.0
 51
251.755742848004104
  0
ARC
  5
16EF
  8
0
 10
1131.7976950127979308
 20
191.2435582946399961
 30
0.0
 40
0.015
 50
248.3896399480923094
 51
269.8692790172923992
  0
ARC
  5
16F0
  8
0
 10
1131.798306457299077
 20
191.5115575982181042
 30
0.0
 40
0.0149999989221474
 50
89.8692786303340654
 51
111.3493608609278027
  0
ARC
  5
16F1
  8
0
 10
1131.820011615697922
 20
191.2824574803400139
 30
0.0
 40
0.015
 50
131.6795939451567108
 51
179.869279027278111
  0
ARC
  5
16F2
  8
0
 10
1131.8204453306980213
 20
191.4725569856400114
 30
0.0
 40
0.015
 50
179.8713956156998961
 51
228.0589641214968992
  0
ARC
  5
16F3
  8
0
 10
1132.0140286691980691
 20
191.1257463699398897
 30
0.0
 40
0.007
 50
0.0
 51
90.0
  0
ARC
  5
16F4
  8
0
 10
1132.3296527079430689
 20
183.2438208446544934
 30
0.0
 40
0.3114708646234665
 50
292.172558545494212
 51
359.479721268938988
  0
ARC
  5
16F5
  8
0
 10
1132.3297911088320689
 20
183.6132581411339117
 30
0.0
 40
0.3113316303349145
 50
0.5032249671136232
 51
67.8445022664046178
  0
LINE
  5
16F6
  8
0
 10
1131.1639510218979012
 20
129.9852425106898863
 30
0.0
 11
1131.1639510218979012
 21
129.7477425106899886
 31
0.0
  0
LINE
  5
16F7
  8
0
 10
1131.6514510218980831
 20
129.7477425106899886
 30
0.0
 11
1131.6514510218980831
 21
129.9852425106898863
 31
0.0
  0
LINE
  5
16F8
  8
0
 10
1132.6411107311969317
 20
130.0539925106899943
 30
0.0
 11
1132.6411107311969317
 21
129.678992548389914
 31
0.0
  0
LINE
  5
16F9
  8
0
 10
1131.2889510218979012
 20
129.6227425106899886
 30
0.0
 11
1131.5264510218980831
 21
129.6227425106899886
 31
0.0
  0
LINE
  5
16FA
  8
0
 10
1131.5264510218980831
 20
130.1102425106898863
 30
0.0
 11
1131.2889510218979012
 21
130.1102425106898863
 31
0.0
  0
ARC
  5
16FB
  8
0
 10
1131.2889510218979012
 20
129.9852425106898863
 30
0.0
 40
0.125
 50
90.0
 51
180.0
  0
ARC
  5
16FC
  8
0
 10
1131.2889510218979012
 20
129.7477425106899886
 30
0.0
 40
0.125
 50
180.0
 51
270.0
  0
CIRCLE
  5
16FD
  8
0
 10
1131.4077010218979922
 20
129.8664925106899943
 30
0.0
 40
0.0582369251
  0
ARC
  5
16FE
  8
0
 10
1131.5264510218980831
 20
129.9852425106898863
 30
0.0
 40
0.125
 50
0.0
 51
90.0
  0
ARC
  5
16FF
  8
0
 10
1131.5264510218980831
 20
129.7477425106899886
 30
0.0
 40
0.125
 50
270.0
 51
0.0
  0
ARC
  5
1700
  8
0
 10
1132.3296527079430689
 20
129.68182084465451
 30
0.0
 40
0.3114708646234665
 50
292.172558545494212
 51
359.4797212689381922
  0
ARC
  5
1701
  8
0
 10
1132.3297911088320689
 20
130.0512581411337862
 30
0.0
 40
0.3113316303349145
 50
0.5032249671136232
 51
67.8445022664046178
  0
CIRCLE
  5
1702
  8
0
 10
1131.407714517848035
 20
156.6474925106898866
 30
0.0
 40
0.0582369251
  0
ARC
  5
1703
  8
0
 10
1132.4324779011631108
 20
191.005012497875498
 30
0.0
 40
0.0147407189570222
 50
358.6401053956365104
 51
91.7463925345337401
  0
ENDSEC
  0
EOF
