  0
SECTION
  2
HEADER
  9
$ACADVER
  1
AC1009
  9
$INSBASE
 10
1032.1727798732360952
 20
99.0575513649395418
 30
0.0
  9
$EXTMIN
 10
1002.3602798732359815
 20
99.0521827910657038
 30
0.0
  9
$EXTMAX
 10
1061.9852798732360952
 20
168.8263336973394928
 30
0.0
  9
$LIMMIN
 10
0.0
 20
0.0
  9
$LIMMAX
 10
11.6929133858000007
 20
8.2677165353999982
  9
$ORTHOMODE
 70
     1
  9
$REGENMODE
 70
     1
  9
$FILLMODE
 70
     1
  9
$QTEXTMODE
 70
     0
  9
$MIRRTEXT
 70
     0
  9
$DRAGMODE
 70
     2
  9
$LTSCALE
 40
0.6431102362
  9
$OSMODE
 70
  4095
  9
$ATTMODE
 70
     1
  9
$TEXTSIZE
 40
0.2
  9
$TRACEWID
 40
0.05
  9
$TEXTSTYLE
  7
STANDARD
  9
$CLAYER
  8
0
  9
$CELTYPE
  6
BYLAYER
  9
$CECOLOR
 62
   256
  9
$DIMSCALE
 40
1.0
  9
$DIMASZ
 40
0.1875
  9
$DIMEXO
 40
0.0625
  9
$DIMDLI
 40
0.4443307087
  9
$DIMRND
 40
0.0
  9
$DIMDLE
 40
0.0
  9
$DIMEXE
 40
0.125
  9
$DIMTP
 40
0.01
  9
$DIMTM
 40
0.01
  9
$DIMTXT
 40
2.0
  9
$DIMCEN
 40
0.1052362205
  9
$DIMTSZ
 40
0.0
  9
$DIMTOL
 70
     1
  9
$DIMLIM
 70
     0
  9
$DIMTIH
 70
     1
  9
$DIMTOH
 70
     1
  9
$DIMSE1
 70
     0
  9
$DIMSE2
 70
     0
  9
$DIMTAD
 70
     0
  9
$DIMZIN
 70
     0
  9
$DIMBLK
  1

  9
$DIMASO
 70
     1
  9
$DIMSHO
 70
     1
  9
$DIMPOST
  1
\X
  9
$DIMAPOST
  1

  9
$DIMALT
 70
     1
  9
$DIMALTD
 70
     2
  9
$DIMALTF
 40
25.3999999999999986
  9
$DIMLFAC
 40
1.0
  9
$DIMTOFL
 70
     0
  9
$DIMTVP
 40
0.0
  9
$DIMTIX
 70
     0
  9
$DIMSOXD
 70
     0
  9
$DIMSAH
 70
     0
  9
$DIMBLK1
  1

  9
$DIMBLK2
  1

  9
$DIMSTYLE
  2
STANDARD
  9
$DIMCLRD
 70
     0
  9
$DIMCLRE
 70
     0
  9
$DIMCLRT
 70
     0
  9
$DIMTFAC
 40
1.0
  9
$DIMGAP
 40
0.09
  9
$LUNITS
 70
     2
  9
$LUPREC
 70
     4
  9
$SKETCHINC
 40
0.1
  9
$FILLETRAD
 40
0.0
  9
$AUNITS
 70
     0
  9
$AUPREC
 70
     0
  9
$MENU
  1
.
  9
$ELEVATION
 40
0.0
  9
$PELEVATION
 40
0.0
  9
$THICKNESS
 40
0.0
  9
$LIMCHECK
 70
     0
  9
$BLIPMODE
 70
     0
  9
$CHAMFERA
 40
0.0
  9
$CHAMFERB
 40
0.0
  9
$SKPOLY
 70
     0
  9
$TDCREATE
 40
2458072.6192476861178875
  9
$TDUPDATE
 40
2458967.7420949079096317
  9
$TDINDWG
 40
0.0383418981
  9
$TDUSRTIMER
 40
0.0383418981
  9
$USRTIMER
 70
     1
  9
$ANGBASE
 50
0.0
  9
$ANGDIR
 70
     0
  9
$PDMODE
 70
     0
  9
$PDSIZE
 40
0.3125
  9
$PLINEWID
 40
0.0
  9
$COORDS
 70
     1
  9
$SPLFRAME
 70
     0
  9
$SPLINETYPE
 70
     6
  9
$SPLINESEGS
 70
     8
  9
$ATTDIA
 70
     1
  9
$ATTREQ
 70
     1
  9
$HANDLING
 70
     1
  9
$HANDSEED
  5
1547
  9
$SURFTAB1
 70
     6
  9
$SURFTAB2
 70
     6
  9
$SURFTYPE
 70
     6
  9
$SURFU
 70
     6
  9
$SURFV
 70
     6
  9
$UCSNAME
  2

  9
$UCSORG
 10
0.0
 20
0.0
 30
0.0
  9
$UCSXDIR
 10
1.0
 20
0.0
 30
0.0
  9
$UCSYDIR
 10
0.0
 20
1.0
 30
0.0
  9
$PUCSNAME
  2

  9
$PUCSORG
 10
0.0
 20
0.0
 30
0.0
  9
$PUCSXDIR
 10
1.0
 20
0.0
 30
0.0
  9
$PUCSYDIR
 10
0.0
 20
1.0
 30
0.0
  9
$USERI1
 70
     0
  9
$USERI2
 70
     0
  9
$USERI3
 70
     0
  9
$USERI4
 70
     0
  9
$USERI5
 70
     0
  9
$USERR1
 40
0.0
  9
$USERR2
 40
0.0
  9
$USERR3
 40
0.0
  9
$USERR4
 40
0.0
  9
$USERR5
 40
0.0
  9
$WORLDVIEW
 70
     1
  9
$SHADEDGE
 70
     3
  9
$SHADEDIF
 70
    70
  9
$TILEMODE
 70
     1
  9
$MAXACTVP
 70
    64
  9
$PLIMCHECK
 70
     0
  9
$PEXTMIN
 10
1.0000000000000000E+20
 20
1.0000000000000000E+20
 30
1.0000000000000000E+20
  9
$PEXTMAX
 10
-1.0000000000000000E+20
 20
-1.0000000000000000E+20
 30
-1.0000000000000000E+20
  9
$PLIMMIN
 10
0.0
 20
0.0
  9
$PLIMMAX
 10
12.0
 20
9.0
  9
$UNITMODE
 70
     0
  9
$VISRETAIN
 70
     1
  9
$PLINEGEN
 70
     0
  9
$PSLTSCALE
 70
     1
  0
ENDSEC
  0
SECTION
  2
TABLES
  0
TABLE
  2
VPORT
 70
     1
  0
VPORT
  2
*ACTIVE
 70
     0
 10
0.0
 20
0.0
 11
1.0
 21
1.0
 12
0.0
 22
0.0
 13
0.0
 23
0.0
 14
1.0
 24
1.0
 15
0.0
 25
0.0
 16
0.0
 26
0.0
 36
326.5532607118676083
 17
1032.1727600097649429
 27
133.9392612563727027
 37
0.0
 40
91.7846990259863986
 41
2.784968684759916
 42
50.0
 43
0.0
 44
0.0
 50
0.0
 51
0.0
 71
     0
 72
   100
 73
     1
 74
     1
 75
     0
 76
     0
 77
     0
 78
     0
  0
ENDTAB
  0
TABLE
  2
LTYPE
 70
     2
  0
LTYPE
  2
CONTINUOUS
 70
     0
  3
Solid line
 72
    65
 73
     0
 40
0.0
  0
LTYPE
  2
PHANTOM2
 70
     0
  3
___ _ _ ___ _ _ ___ _ _ ___ _ _
 72
    65
 73
     6
 40
1.25
 49
0.625
 49
-0.125
 49
0.125
 49
-0.125
 49
0.125
 49
-0.125
  0
ENDTAB
  0
TABLE
  2
LAYER
 70
     2
  0
LAYER
  2
0
 70
     0
 62
   255
  6
CONTINUOUS
  0
LAYER
  2
DEFPOINTS
 70
     0
 62
     7
  6
CONTINUOUS
  0
ENDTAB
  0
TABLE
  2
STYLE
 70
     1
  0
STYLE
  2
STANDARD
 70
     0
 40
0.0
 41
0.8
 50
0.0
 71
     0
 42
0.2
  3
txt
  4

  0
ENDTAB
  0
TABLE
  2
VIEW
 70
     0
  0
ENDTAB
  0
TABLE
  2
UCS
 70
     0
  0
ENDTAB
  0
TABLE
  2
APPID
 70
     9
  0
APPID
  2
ACAD
 70
     0
  0
APPID
  2
ACAD_MLEADERVER
 70
     0
  0
APPID
  2
ACAD_EXEMPT_FROM_CAD_STANDARDS
 70
     0
  0
APPID
  2
ACAD_NAV_VCDISPLAY
 70
     0
  0
APPID
  2
ACAD_DSTYLE_DIMJAG
 70
     0
  0
APPID
  2
ACAD_DSTYLE_DIMTALN
 70
     0
  0
APPID
  2
ACAECLAYERSTANDARD
 70
     0
  0
APPID
  2
ACCMTRANSPARENCY
 70
     0
  0
APPID
  2
ACDBATTR
 70
     0
  0
ENDTAB
  0
TABLE
  2
DIMSTYLE
 70
     1
  0
DIMSTYLE
  2
STANDARD
 70
     0
  3

  4

  5

  6

  7

 40
1.0
 41
0.1875
 42
0.0625
 43
0.38
 44
0.125
 45
0.0
 46
0.0
 47
0.01
 48
0.01
140
0.15625
141
0.09
142
0.0
143
25.3999999999999986
144
1.0
145
0.0
146
1.0
147
0.09
 71
     1
 72
     0
 73
     1
 74
     1
 75
     0
 76
     0
 77
     0
 78
     4
170
     0
171
     2
172
     0
173
     0
174
     0
175
     0
176
     0
177
     0
178
     0
  0
ENDTAB
  0
ENDSEC
  0
SECTION
  2
BLOCKS
  0
BLOCK
  8
0
  2
$MODEL_SPACE
 70
     0
 10
0.0
 20
0.0
 30
0.0
  3
$MODEL_SPACE
  1

  0
ENDBLK
  5
21
  8
0
  0
BLOCK
 67
     1
  8
0
  2
$PAPER_SPACE
 70
     0
 10
0.0
 20
0.0
 30
0.0
  3
$PAPER_SPACE
  1

  0
ENDBLK
  5
1D
 67
     1
  8
0
  0
ENDSEC
  0
SECTION
  2
ENTITIES
  0
ATTDEF
  5
FEC
  8
DEFPOINTS
 10
1032.1674037450750347
 20
99.0555161243990483
 30
0.0
 40
0.001
  1
5475-59*
  3

  2
MODELNUMBER
 70
     0
1001
ACDBATTR
1070
     0
1070
     1
  0
ATTDEF
  5
FED
  8
DEFPOINTS
 10
1032.1674037450750347
 20
99.0538494577323831
 30
0.0
 40
0.001
  1
FINESSE
  3

  2
TRADENAME
 70
     0
1001
ACDBATTR
1070
     0
1070
     1
  0
ATTDEF
  5
FEE
  8
DEFPOINTS
 10
1032.1674037450750347
 20
99.052182791065718
 30
0.0
 40
0.001
  1
SHOWER DOOR
  3

  2
PRODUCT
 70
     0
1001
ACDBATTR
1070
     0
1070
     1
  0
LINE
  5
141E
  8
0
 10
1002.3602798732359815
 20
99.0575513649395418
 30
0.0
 11
1002.3602798732359815
 21
168.8263336973394928
 31
0.0
  0
LINE
  5
141F
  8
0
 10
1003.5642798732360461
 20
166.1057372132395074
 30
0.0
 11
1003.5642798732360461
 21
99.0656675781665825
 31
0.0
  0
LINE
  5
1420
  8
0
 10
1061.9852798732360952
 20
99.0575513649395418
 30
0.0
 11
1002.3602798732359815
 21
99.0575513649395418
 31
0.0
  0
LINE
  5
1421
  8
0
 10
1060.7812798732370538
 20
100.6970775988664997
 30
0.0
 11
1003.5642798732360461
 21
100.6970775988664997
 31
0.0
  0
LINE
  5
1422
  8
0
 10
1003.5642798732360461
 20
100.9921540817665999
 30
0.0
 11
1060.7812798732370538
 21
100.9921540817665999
 31
0.0
  0
LINE
  5
1423
  8
0
 10
1032.8297798732360206
 20
100.9921540817665999
 30
0.0
 11
1032.8297798732360206
 21
166.1057372132395074
 31
0.0
  0
LINE
  5
1424
  8
0
 10
1032.8922798732360206
 20
100.6970775988664997
 30
0.0
 11
1032.8922798732360206
 21
100.9921225129666027
 31
0.0
  0
LINE
  5
1425
  8
0
 10
1002.3602798732359815
 20
166.1057372132395074
 30
0.0
 11
1061.9852798732360952
 21
166.1057372132395074
 31
0.0
  0
LINE
  5
1426
  8
0
 10
1060.7812798732370538
 20
99.0656675781665825
 30
0.0
 11
1060.7812798732370538
 21
166.1057372132395074
 31
0.0
  0
LINE
  5
1427
  8
0
 10
1061.9852798732360952
 20
168.8263336973394928
 30
0.0
 11
1061.9852798732360952
 21
99.0575513649395418
 31
0.0
  0
LINE
  5
1428
  8
0
 10
1002.3602798732359815
 20
168.8263336973394928
 30
0.0
 11
1061.9852798732360952
 21
168.8263336973394928
 31
0.0
  0
CIRCLE
  5
1429
  8
0
 10
1034.2657798732359424
 20
133.9187186717394979
 30
0.0
 40
0.38
  0
CIRCLE
  5
142A
  8
0
 10
1034.2657798732359424
 20
133.9187186717394979
 30
0.0
 40
0.36
  0
CIRCLE
  5
142B
  8
0
 10
1058.2657798732359424
 20
133.9187186717394979
 30
0.0
 40
0.38
  0
CIRCLE
  5
142C
  8
0
 10
1058.2657798732359424
 20
133.9187186717394979
 30
0.0
 40
0.36
  0
LINE
  5
142D
  8
0
 10
1006.0797798732360206
 20
134.289040977139507
 30
0.0
 11
1030.0797798732360206
 21
134.289040977139507
 31
0.0
  0
LINE
  5
142E
  8
0
 10
1006.0797798732360206
 20
133.539040977139507
 30
0.0
 11
1030.0797798732360206
 21
133.539040977139507
 31
0.0
  0
ARC
  5
142F
  8
0
 10
1030.0797798732360206
 20
133.914040977139507
 30
0.0
 40
0.375
 50
270.0
 51
90.0
  0
ARC
  5
1430
  8
0
 10
1006.0797798732360206
 20
133.914040977139507
 30
0.0
 40
0.3750000000000018
 50
90.0
 51
270.0
  0
LINE
  5
1431
  8
0
 10
1002.3602798732359815
 20
99.0656675781665825
 30
0.0
 11
1061.9852798732360952
 21
99.0656675781665825
 31
0.0
  0
ENDSEC
  0
EOF
