  0
SECTION
  2
HEADER
  9
$ACADVER
  1
AC1009
  9
$INSBASE
 10
863.7304681235649468
 20
43.2314139491683207
 30
0.0
  9
$EXTMIN
 10
860.57597390381477
 20
43.2314139491683065
 30
0.0
  9
$EXTMAX
 10
866.9509433765149424
 20
113.000196281568293
 30
0.0
  9
$LIMMIN
 10
0.0
 20
0.0
  9
$LIMMAX
 10
11.6929133858000007
 20
8.2677165353999982
  9
$ORTHOMODE
 70
     1
  9
$REGENMODE
 70
     1
  9
$FILLMODE
 70
     1
  9
$QTEXTMODE
 70
     0
  9
$MIRRTEXT
 70
     0
  9
$DRAGMODE
 70
     2
  9
$LTSCALE
 40
0.6431102362
  9
$OSMODE
 70
  4095
  9
$ATTMODE
 70
     1
  9
$TEXTSIZE
 40
0.2
  9
$TRACEWID
 40
0.05
  9
$TEXTSTYLE
  7
STANDARD
  9
$CLAYER
  8
0
  9
$CELTYPE
  6
BYLAYER
  9
$CECOLOR
 62
   256
  9
$DIMSCALE
 40
1.0
  9
$DIMASZ
 40
0.1875
  9
$DIMEXO
 40
0.0625
  9
$DIMDLI
 40
0.4443307087
  9
$DIMRND
 40
0.0
  9
$DIMDLE
 40
0.0
  9
$DIMEXE
 40
0.125
  9
$DIMTP
 40
0.01
  9
$DIMTM
 40
0.01
  9
$DIMTXT
 40
2.0
  9
$DIMCEN
 40
0.1052362205
  9
$DIMTSZ
 40
0.0
  9
$DIMTOL
 70
     1
  9
$DIMLIM
 70
     0
  9
$DIMTIH
 70
     1
  9
$DIMTOH
 70
     1
  9
$DIMSE1
 70
     0
  9
$DIMSE2
 70
     0
  9
$DIMTAD
 70
     0
  9
$DIMZIN
 70
     0
  9
$DIMBLK
  1

  9
$DIMASO
 70
     1
  9
$DIMSHO
 70
     1
  9
$DIMPOST
  1
\X
  9
$DIMAPOST
  1

  9
$DIMALT
 70
     1
  9
$DIMALTD
 70
     2
  9
$DIMALTF
 40
25.3999999999999986
  9
$DIMLFAC
 40
1.0
  9
$DIMTOFL
 70
     0
  9
$DIMTVP
 40
0.0
  9
$DIMTIX
 70
     0
  9
$DIMSOXD
 70
     0
  9
$DIMSAH
 70
     0
  9
$DIMBLK1
  1

  9
$DIMBLK2
  1

  9
$DIMSTYLE
  2
STANDARD
  9
$DIMCLRD
 70
     0
  9
$DIMCLRE
 70
     0
  9
$DIMCLRT
 70
     0
  9
$DIMTFAC
 40
1.0
  9
$DIMGAP
 40
0.09
  9
$LUNITS
 70
     2
  9
$LUPREC
 70
     4
  9
$SKETCHINC
 40
0.1
  9
$FILLETRAD
 40
0.0
  9
$AUNITS
 70
     0
  9
$AUPREC
 70
     0
  9
$MENU
  1
.
  9
$ELEVATION
 40
0.0
  9
$PELEVATION
 40
0.0
  9
$THICKNESS
 40
0.0
  9
$LIMCHECK
 70
     0
  9
$BLIPMODE
 70
     0
  9
$CHAMFERA
 40
0.0
  9
$CHAMFERB
 40
0.0
  9
$SKPOLY
 70
     0
  9
$TDCREATE
 40
2458072.6192476861178875
  9
$TDUPDATE
 40
2458967.7405092590488493
  9
$TDINDWG
 40
0.0352863426
  9
$TDUSRTIMER
 40
0.0352863426
  9
$USRTIMER
 70
     1
  9
$ANGBASE
 50
0.0
  9
$ANGDIR
 70
     0
  9
$PDMODE
 70
     0
  9
$PDSIZE
 40
0.3125
  9
$PLINEWID
 40
0.0
  9
$COORDS
 70
     1
  9
$SPLFRAME
 70
     0
  9
$SPLINETYPE
 70
     6
  9
$SPLINESEGS
 70
     8
  9
$ATTDIA
 70
     1
  9
$ATTREQ
 70
     1
  9
$HANDLING
 70
     1
  9
$HANDSEED
  5
165E
  9
$SURFTAB1
 70
     6
  9
$SURFTAB2
 70
     6
  9
$SURFTYPE
 70
     6
  9
$SURFU
 70
     6
  9
$SURFV
 70
     6
  9
$UCSNAME
  2

  9
$UCSORG
 10
0.0
 20
0.0
 30
0.0
  9
$UCSXDIR
 10
1.0
 20
0.0
 30
0.0
  9
$UCSYDIR
 10
0.0
 20
1.0
 30
0.0
  9
$PUCSNAME
  2

  9
$PUCSORG
 10
0.0
 20
0.0
 30
0.0
  9
$PUCSXDIR
 10
1.0
 20
0.0
 30
0.0
  9
$PUCSYDIR
 10
0.0
 20
1.0
 30
0.0
  9
$USERI1
 70
     0
  9
$USERI2
 70
     0
  9
$USERI3
 70
     0
  9
$USERI4
 70
     0
  9
$USERI5
 70
     0
  9
$USERR1
 40
0.0
  9
$USERR2
 40
0.0
  9
$USERR3
 40
0.0
  9
$USERR4
 40
0.0
  9
$USERR5
 40
0.0
  9
$WORLDVIEW
 70
     1
  9
$SHADEDGE
 70
     3
  9
$SHADEDIF
 70
    70
  9
$TILEMODE
 70
     1
  9
$MAXACTVP
 70
    64
  9
$PLIMCHECK
 70
     0
  9
$PEXTMIN
 10
1.0000000000000000E+20
 20
1.0000000000000000E+20
 30
1.0000000000000000E+20
  9
$PEXTMAX
 10
-1.0000000000000000E+20
 20
-1.0000000000000000E+20
 30
-1.0000000000000000E+20
  9
$PLIMMIN
 10
0.0
 20
0.0
  9
$PLIMMAX
 10
12.0
 20
9.0
  9
$UNITMODE
 70
     0
  9
$VISRETAIN
 70
     1
  9
$PLINEGEN
 70
     0
  9
$PSLTSCALE
 70
     1
  0
ENDSEC
  0
SECTION
  2
TABLES
  0
TABLE
  2
VPORT
 70
     1
  0
VPORT
  2
*ACTIVE
 70
     0
 10
0.0
 20
0.0
 11
1.0
 21
1.0
 12
0.0
 22
0.0
 13
0.0
 23
0.0
 14
1.0
 24
1.0
 15
0.0
 25
0.0
 16
0.0
 26
0.0
 36
249.2714801035099015
 17
863.763458251953125
 27
78.1158065795898438
 37
0.0
 40
70.091683058290883
 41
2.784968684759916
 42
50.0
 43
0.0
 44
0.0
 50
0.0
 51
0.0
 71
     0
 72
   100
 73
     1
 74
     1
 75
     0
 76
     0
 77
     0
 78
     0
  0
ENDTAB
  0
TABLE
  2
LTYPE
 70
     2
  0
LTYPE
  2
CONTINUOUS
 70
     0
  3
Solid line
 72
    65
 73
     0
 40
0.0
  0
LTYPE
  2
PHANTOM2
 70
     0
  3
___ _ _ ___ _ _ ___ _ _ ___ _ _
 72
    65
 73
     6
 40
1.25
 49
0.625
 49
-0.125
 49
0.125
 49
-0.125
 49
0.125
 49
-0.125
  0
ENDTAB
  0
TABLE
  2
LAYER
 70
     2
  0
LAYER
  2
0
 70
     0
 62
   255
  6
CONTINUOUS
  0
LAYER
  2
DEFPOINTS
 70
     0
 62
     7
  6
CONTINUOUS
  0
ENDTAB
  0
TABLE
  2
STYLE
 70
     1
  0
STYLE
  2
STANDARD
 70
     0
 40
0.0
 41
0.8
 50
0.0
 71
     0
 42
0.2
  3
txt
  4

  0
ENDTAB
  0
TABLE
  2
VIEW
 70
     0
  0
ENDTAB
  0
TABLE
  2
UCS
 70
     0
  0
ENDTAB
  0
TABLE
  2
APPID
 70
     9
  0
APPID
  2
ACAD
 70
     0
  0
APPID
  2
ACAD_MLEADERVER
 70
     0
  0
APPID
  2
ACAD_EXEMPT_FROM_CAD_STANDARDS
 70
     0
  0
APPID
  2
ACAD_NAV_VCDISPLAY
 70
     0
  0
APPID
  2
ACAD_DSTYLE_DIMJAG
 70
     0
  0
APPID
  2
ACAD_DSTYLE_DIMTALN
 70
     0
  0
APPID
  2
ACAECLAYERSTANDARD
 70
     0
  0
APPID
  2
ACCMTRANSPARENCY
 70
     0
  0
APPID
  2
ACDBATTR
 70
     0
  0
ENDTAB
  0
TABLE
  2
DIMSTYLE
 70
     1
  0
DIMSTYLE
  2
STANDARD
 70
     0
  3

  4

  5

  6

  7

 40
1.0
 41
0.1875
 42
0.0625
 43
0.38
 44
0.125
 45
0.0
 46
0.0
 47
0.01
 48
0.01
140
0.15625
141
0.09
142
0.0
143
25.3999999999999986
144
1.0
145
0.0
146
1.0
147
0.09
 71
     1
 72
     0
 73
     1
 74
     1
 75
     0
 76
     0
 77
     0
 78
     4
170
     0
171
     2
172
     0
173
     0
174
     0
175
     0
176
     0
177
     0
178
     0
  0
ENDTAB
  0
ENDSEC
  0
SECTION
  2
BLOCKS
  0
BLOCK
  8
0
  2
$MODEL_SPACE
 70
     0
 10
0.0
 20
0.0
 30
0.0
  3
$MODEL_SPACE
  1

  0
ENDBLK
  5
21
  8
0
  0
BLOCK
 67
     1
  8
0
  2
$PAPER_SPACE
 70
     0
 10
0.0
 20
0.0
 30
0.0
  3
$PAPER_SPACE
  1

  0
ENDBLK
  5
1D
 67
     1
  8
0
  0
ENDSEC
  0
SECTION
  2
ENTITIES
  0
ATTDEF
  5
FEC
  8
DEFPOINTS
 10
863.7262322501203471
 20
43.2437487800838269
 30
0.0
 40
0.001
  1
5475-48*
  3

  2
MODELNUMBER
 70
     0
1001
ACDBATTR
1070
     0
1070
     1
  0
ATTDEF
  5
FED
  8
DEFPOINTS
 10
863.7262322501203471
 20
43.2420821134171618
 30
0.0
 40
0.001
  1
FINESSE
  3

  2
TRADENAME
 70
     0
1001
ACDBATTR
1070
     0
1070
     1
  0
ATTDEF
  5
FEE
  8
DEFPOINTS
 10
863.7262322501203471
 20
43.2404154467504966
 30
0.0
 40
0.001
  1
SHOWER DOOR
  3

  2
PRODUCT
 70
     0
1001
ACDBATTR
1070
     0
1070
     1
  0
LINE
  5
144C
  8
0
 10
864.7129292155151461
 20
43.2395301623953401
 30
0.0
 11
864.6999292155148851
 21
43.2395301623953401
 31
0.0
  0
LINE
  5
144D
  8
0
 10
862.682007031614944
 20
43.2395301623953401
 30
0.0
 11
862.7400487207149808
 21
43.2395301623953401
 31
0.0
  0
LINE
  5
144E
  8
0
 10
864.7289292155147677
 20
43.2395301623953401
 30
0.0
 11
864.7789292155149496
 21
43.2395301623953401
 31
0.0
  0
LINE
  5
144F
  8
0
 10
863.0257792111150366
 20
43.2314139715953232
 30
0.0
 11
862.9638309508150087
 21
43.2335144684953434
 31
0.0
  0
LINE
  5
1450
  8
0
 10
862.8200615742149466
 20
43.2383892969953365
 30
0.0
 11
862.7574316088149544
 21
43.2405129086953366
 31
0.0
  0
LINE
  5
1451
  8
0
 10
864.7789292155149496
 20
43.3845552504953531
 30
0.0
 11
864.8182107852147738
 21
43.3845552504953531
 31
0.0
  0
LINE
  5
1452
  8
0
 10
864.6679292155149597
 20
43.7082329252953414
 30
0.0
 11
864.4949292155149578
 21
43.7082329252953414
 31
0.0
  0
LINE
  5
1453
  8
0
 10
864.4789292155148814
 20
43.7355818313953435
 30
0.0
 11
864.3431427463148111
 21
43.7355818313953435
 31
0.0
  0
LINE
  5
1454
  8
0
 10
864.4949292155149578
 20
43.7532329252953218
 30
0.0
 11
864.6429292155148687
 21
43.7532329252953218
 31
0.0
  0
LINE
  5
1455
  8
0
 10
864.6429292155148687
 20
43.8552329252953328
 30
0.0
 11
864.4949292155149578
 21
43.8552329252953328
 31
0.0
  0
LINE
  5
1456
  8
0
 10
864.4789292155148814
 20
43.8725818313953368
 30
0.0
 11
864.3431427463148111
 21
43.8725818313953368
 31
0.0
  0
LINE
  5
1457
  8
0
 10
863.2003390068150566
 20
44.1455301623953531
 30
0.0
 11
863.1369292155151243
 21
44.1455301623953531
 31
0.0
  0
LINE
  5
1458
  8
0
 10
863.1369292155151243
 20
44.1905301623953406
 30
0.0
 11
863.1536790448150214
 21
44.1905301623953406
 31
0.0
  0
LINE
  5
1459
  8
0
 10
864.6478279619151408
 20
43.9883305441953212
 30
0.0
 11
863.3078676448147917
 21
44.0345986390953499
 31
0.0
  0
LINE
  5
145A
  8
0
 10
864.4628901125149696
 20
43.9187930230953398
 30
0.0
 11
863.1348003462147744
 21
43.9651709396953265
 31
0.0
  0
LINE
  5
145B
  8
0
 10
863.136968318415029
 20
44.0101226618953092
 30
0.0
 11
864.6478607732149158
 21
43.9573611347953488
 31
0.0
  0
LINE
  5
145C
  8
0
 10
863.2267819645147711
 20
44.028569704195327
 30
0.0
 11
863.8096815003150368
 21
44.0082148248953402
 31
0.0
  0
LINE
  5
145D
  8
0
 10
863.170123760914862
 20
44.8712190187953297
 30
0.0
 11
862.749911218114903
 21
44.9085323681953312
 31
0.0
  0
LINE
  5
145E
  8
0
 10
863.1311395018149142
 20
44.7967402113953312
 30
0.0
 11
862.8573642085150368
 21
44.8258504957953221
 31
0.0
  0
LINE
  5
145F
  8
0
 10
862.8621221976150082
 20
44.8705982503953535
 30
0.0
 11
863.1393340412148518
 21
44.8411225606953465
 31
0.0
  0
LINE
  5
1460
  8
0
 10
863.0452932724150514
 20
111.8662932426683057
 30
0.0
 11
863.0989383133151023
 21
111.8839767628683006
 31
0.0
  0
LINE
  5
1461
  8
0
 10
863.1706446137600324
 20
112.8576659504581983
 30
0.0
 11
863.1974316854151539
 21
112.8801429723683043
 31
0.0
  0
LINE
  5
1462
  8
0
 10
863.303478568614878
 20
112.9038565085682961
 30
0.0
 11
863.1764287287148818
 21
112.7972490347682992
 31
0.0
  0
LINE
  5
1463
  8
0
 10
862.8748738591150413
 20
112.6238574875683014
 30
0.0
 11
862.8449423824148425
 21
112.5937891203682995
 31
0.0
  0
LINE
  5
1464
  8
0
 10
863.2211956219149442
 20
112.0449155951683053
 30
0.0
 11
863.2062298836149239
 21
112.0298814115682973
 31
0.0
  0
LINE
  5
1465
  8
0
 10
863.0965182104149562
 20
111.9033807741682978
 30
0.0
 11
863.0665867338150292
 21
111.873312406868294
 31
0.0
  0
LINE
  5
1466
  8
0
 10
864.7112386166148781
 20
43.8005301623953187
 30
0.0
 11
864.7267856219150417
 21
43.7736019591953394
 31
0.0
  0
LINE
  5
1467
  8
0
 10
864.3182107852148874
 20
43.8040818313953366
 30
0.0
 11
864.3431427463148111
 21
43.7355818313953435
 31
0.0
  0
LINE
  5
1468
  8
0
 10
863.1696883568149588
 20
44.2065629126953468
 30
0.0
 11
863.1488738310149529
 21
44.7810438233953576
 31
0.0
  0
LINE
  5
1469
  8
0
 10
863.1938443232148757
 20
44.782673188995318
 30
0.0
 11
863.2163285151150376
 21
44.1621094923953308
 31
0.0
  0
LINE
  5
146A
  8
0
 10
863.2499747681149529
 20
44.0924677954953381
 30
0.0
 11
863.2247803550147864
 21
44.8135492724953224
 31
0.0
  0
LINE
  5
146B
  8
0
 10
863.1652389450150622
 20
112.8040508507683057
 30
0.0
 11
863.1649292155151443
 21
112.8454092393682942
 31
0.0
  0
LINE
  5
146C
  8
0
 10
862.8449423824148425
 20
112.5937891203682995
 30
0.0
 11
862.8465188611151007
 21
111.9028103967683023
 31
0.0
  0
LINE
  5
146D
  8
0
 10
862.8748738591150413
 20
112.6238574875683014
 30
0.0
 11
862.8765872283149747
 21
111.8728789200683025
 31
0.0
  0
LINE
  5
146E
  8
0
 10
863.0665867338150292
 20
111.873312406868294
 30
0.0
 11
863.0648733646149822
 21
112.624290974368293
 31
0.0
  0
LINE
  5
146F
  8
0
 10
863.0965182104149562
 20
111.9033807741682978
 30
0.0
 11
863.0949417318148562
 21
112.5943594977682949
 31
0.0
  0
LINE
  5
1470
  8
0
 10
863.2062298836149239
 20
112.0298814115682973
 30
0.0
 11
863.2052294861149448
 21
112.4683607923683013
 31
0.0
  0
LINE
  5
1471
  8
0
 10
863.2217557019150718
 20
111.7994296430682937
 30
0.0
 11
863.2201706759149147
 21
112.4941546869683009
 31
0.0
  0
LINE
  5
1472
  8
0
 10
863.3001704677147927
 20
112.4943372077682966
 30
0.0
 11
863.3017559101149345
 21
111.7994296430682937
 31
0.0
  0
LINE
  5
1473
  8
0
 10
863.3210737244151005
 20
112.0984579580682947
 30
0.0
 11
863.3203850466150016
 21
112.400308993168295
 31
0.0
  0
LINE
  5
1474
  8
0
 10
863.3253894276149367
 20
112.3983944953682936
 30
0.0
 11
863.3260693174148628
 21
112.1003952709683062
 31
0.0
  0
LINE
  5
1475
  8
0
 10
863.3707760263150703
 20
112.2289976044683044
 30
0.0
 11
863.370682484415056
 21
112.2699974977683013
 31
0.0
  0
LINE
  5
1476
  8
0
 10
863.1682656010150367
 20
44.0461719611953413
 30
0.0
 11
863.1681871995283473
 21
44.1297300662953376
 31
0.0
  0
LINE
  5
1477
  8
0
 10
862.6329292155151052
 20
111.5065997974682972
 30
0.0
 11
862.6329292155151052
 21
111.875599797468297
 31
0.0
  0
LINE
  5
1478
  8
0
 10
862.6820070316150577
 20
111.5149729143267052
 30
0.0
 11
862.6820070316150577
 21
110.3215960469960066
 31
0.0
  0
LINE
  5
1479
  8
0
 10
862.682007031614944
 20
110.2996035479403929
 30
0.0
 11
862.682007031614944
 21
43.2395301623953401
 31
0.0
  0
LINE
  5
147A
  8
0
 10
862.682929215514946
 20
111.875599797468297
 30
0.0
 11
862.682929215514946
 21
111.5225997974683025
 31
0.0
  0
LINE
  5
147B
  8
0
 10
862.682929215514946
 20
110.3145997974683041
 30
0.0
 11
862.682929215514946
 21
110.3065997974682944
 31
0.0
  0
LINE
  5
147C
  8
0
 10
862.6980281712147871
 20
111.7994296430682937
 30
0.0
 11
862.6980281712147871
 21
43.2395301623953401
 31
0.0
  0
LINE
  5
147D
  8
0
 10
862.7400487207149808
 20
111.7994296430682937
 30
0.0
 11
862.7400487207149808
 21
43.2395301623953401
 31
0.0
  0
LINE
  5
147E
  8
0
 10
862.749911218114903
 20
50.9064318488683014
 30
0.0
 11
862.749911218114903
 21
111.7994296430682937
 31
0.0
  0
LINE
  5
147F
  8
0
 10
862.749911218114903
 20
44.9085323681953312
 30
0.0
 11
862.7499292155149533
 21
43.4913971368953369
 31
0.0
  0
LINE
  5
1480
  8
0
 10
862.8299292155149942
 20
111.9355997974682992
 30
0.0
 11
862.8299292155149942
 21
111.8993291660682985
 31
0.0
  0
LINE
  5
1481
  8
0
 10
863.0759292155148614
 20
44.0261337800953427
 30
0.0
 11
863.0759292155148614
 21
44.1295301623953335
 31
0.0
  0
LINE
  5
1482
  8
0
 10
863.1099292155149669
 20
111.8991724509682939
 30
0.0
 11
863.1099292155149669
 21
111.9975997974682969
 31
0.0
  0
LINE
  5
1483
  8
0
 10
863.1209292155149342
 20
44.1295301623953335
 30
0.0
 11
863.1209292155149342
 21
44.0261337800953427
 31
0.0
  0
LINE
  5
1484
  8
0
 10
863.1519292155147696
 20
111.9795997974682962
 30
0.0
 11
863.1519292155147696
 21
111.904845970568303
 31
0.0
  0
LINE
  5
1485
  8
0
 10
863.4956657690648854
 20
104.4181796430682994
 30
0.0
 11
863.4956657690648854
 21
104.1806796430683022
 31
0.0
  0
LINE
  5
1486
  8
0
 10
863.9831657690649536
 20
104.1806796430683022
 30
0.0
 11
863.9831657690649536
 21
104.4181796430682994
 31
0.0
  0
LINE
  5
1487
  8
0
 10
862.74198300341493
 20
43.2570459238953333
 30
0.0
 11
862.7947075148149452
 21
44.8120073390953166
 31
0.0
  0
LINE
  5
1488
  8
0
 10
862.8397168300150497
 20
44.8115193707953381
 30
0.0
 11
862.7917777754148574
 21
43.3976915655953235
 31
0.0
  0
LINE
  5
1489
  8
0
 10
862.7891534679148435
 20
43.3202949866953304
 30
0.0
 11
862.7886796622149177
 21
43.30632141629534
 31
0.0
  0
LINE
  5
148A
  8
0
 10
862.9985590473149841
 20
43.2992049772953465
 30
0.0
 11
862.9990328531149544
 21
43.3131785477953315
 31
0.0
  0
LINE
  5
148B
  8
0
 10
863.0441509356148799
 20
43.3158983666953432
 30
0.0
 11
863.0418106964150411
 21
43.2468795824953318
 31
0.0
  0
LINE
  5
148C
  8
0
 10
862.682007031614944
 20
77.7148772748183205
 30
0.0
 11
860.9518294699148555
 21
77.7109298478183064
 31
0.0
  0
LINE
  5
148D
  8
0
 10
866.5759433765149424
 20
77.7156065664183018
 30
0.0
 11
864.7789292155149496
 21
77.7156065664183018
 31
0.0
  0
LINE
  5
148E
  8
0
 10
864.2979292155149551
 20
112.8465290975682933
 30
0.0
 11
864.2979292155149551
 21
112.8026113458683
 31
0.0
  0
LINE
  5
148F
  8
0
 10
864.3431427463148111
 20
43.8154674269953333
 30
0.0
 11
864.3431427463148111
 21
43.7355818313953435
 31
0.0
  0
LINE
  5
1490
  8
0
 10
864.4789292155148814
 20
43.7242329252953326
 30
0.0
 11
864.4789292155148814
 21
43.7372329252953307
 31
0.0
  0
LINE
  5
1491
  8
0
 10
864.4789292155148814
 20
43.8712329252953168
 30
0.0
 11
864.4789292155148814
 21
43.9027819048953418
 31
0.0
  0
LINE
  5
1492
  8
0
 10
864.6589292155149451
 20
43.7692329252953485
 30
0.0
 11
864.6589292155149451
 21
43.8392329252953417
 31
0.0
  0
LINE
  5
1493
  8
0
 10
864.6839292155149224
 20
43.2555301623953383
 30
0.0
 11
864.6839292155149224
 21
43.6922329252953503
 31
0.0
  0
LINE
  5
1494
  8
0
 10
864.7149292155149851
 20
43.9508133224602489
 30
0.0
 11
864.7149292155149851
 21
111.7994296430682937
 31
0.0
  0
LINE
  5
1495
  8
0
 10
864.7289292155147677
 20
43.2395301623953401
 30
0.0
 11
864.7289292155147677
 21
111.7994296430682937
 31
0.0
  0
LINE
  5
1496
  8
0
 10
864.7789292155149496
 20
111.8755997974673022
 30
0.0
 11
864.7789292155149496
 21
43.2395301623953401
 31
0.0
  0
LINE
  5
1497
  8
0
 10
864.7789292155150633
 20
111.9675997974682957
 30
0.0
 11
864.7789292155150633
 21
112.8760722571683033
 31
0.0
  0
LINE
  5
1498
  8
0
 10
864.8182107852147738
 20
43.3845552504953531
 30
0.0
 11
864.8182107852147738
 21
44.7895461107953281
 31
0.0
  0
LINE
  5
1499
  8
0
 10
864.8380532398149398
 20
112.8760722571683033
 30
0.0
 11
864.8380532398149398
 21
110.2955997974682987
 31
0.0
  0
LINE
  5
149A
  8
0
 10
864.972825478364939
 20
104.4869296430682937
 30
0.0
 11
864.972825478364939
 21
104.1119296807682986
 31
0.0
  0
LINE
  5
149B
  8
0
 10
863.199276802814893
 20
44.6394114513953468
 30
0.0
 11
863.2105715859149768
 21
44.8500551424953429
 31
0.0
  0
LINE
  5
149C
  8
0
 10
862.682007031614944
 20
78.4648792268183115
 30
0.0
 11
860.9501183377149118
 21
78.460927895918303
 31
0.0
  0
LINE
  5
149D
  8
0
 10
866.5759433765149424
 20
78.4656065664183018
 30
0.0
 11
864.7789292155149496
 21
78.4656065664183018
 31
0.0
  0
LINE
  5
149E
  8
0
 10
864.3182107852148874
 20
43.8040818313953366
 30
0.0
 11
864.3431427463148111
 21
43.8725818313953368
 31
0.0
  0
LINE
  5
149F
  8
0
 10
862.8857399601149609
 20
44.6886503927953598
 30
0.0
 11
862.9608942530148852
 21
44.8088323983953387
 31
0.0
  0
LINE
  5
14A0
  8
0
 10
862.9909526097148955
 20
44.8568998267953205
 30
0.0
 11
863.0088613190149545
 21
44.885538305395329
 31
0.0
  0
LINE
  5
14A1
  8
0
 10
864.7267856219150417
 20
43.8354583655953505
 30
0.0
 11
864.7112386166148781
 21
43.8085301623953285
 31
0.0
  0
LINE
  5
14A2
  8
0
 10
863.06473041091499
 20
44.8805774134953381
 30
0.0
 11
863.0462473018147875
 21
44.8510203911953411
 31
0.0
  0
LINE
  5
14A3
  8
0
 10
863.0197128145149463
 20
44.8085881123953413
 30
0.0
 11
862.9281334471149876
 21
44.6621401633953496
 31
0.0
  0
LINE
  5
14A4
  8
0
 10
862.8765872283149747
 20
111.8728789200683025
 30
0.0
 11
862.8465188611151007
 21
111.9028103967683023
 31
0.0
  0
LINE
  5
14A5
  8
0
 10
863.6206657690647717
 20
104.0556796430683022
 30
0.0
 11
863.8581657690648399
 21
104.0556796430683022
 31
0.0
  0
LINE
  5
14A6
  8
0
 10
863.8581657690648399
 20
104.5431796430682994
 30
0.0
 11
863.6206657690647717
 21
104.5431796430682994
 31
0.0
  0
LINE
  5
14A7
  8
0
 10
863.2202636697148819
 20
112.4533950540682952
 30
0.0
 11
863.2052294861149448
 21
112.4683607923683013
 31
0.0
  0
LINE
  5
14A8
  8
0
 10
863.0949417318148562
 20
112.5943594977682949
 30
0.0
 11
863.0648733646149822
 21
112.624290974368293
 31
0.0
  0
LINE
  5
14A9
  8
0
 10
864.2855260678149989
 20
112.7984115972682986
 30
0.0
 11
864.1593798624147666
 21
112.9038565085682961
 31
0.0
  0
LINE
  5
14AA
  8
0
 10
864.265415264014905
 20
112.8801526065683021
 30
0.0
 11
864.2922138172151563
 21
112.8576659504683022
 31
0.0
  0
LINE
  5
14AB
  8
0
 10
864.3182107852148874
 20
43.8040818313953366
 30
0.0
 11
864.4682107852148647
 21
43.8725818313953368
 31
0.0
  0
LINE
  5
14AC
  8
0
 10
863.0665867338150292
 20
111.873312406868294
 30
0.0
 11
862.9986029876149587
 21
111.8731573009683018
 31
0.0
  0
LINE
  5
14AD
  8
0
 10
862.9161606320149076
 20
111.8729692074683015
 30
0.0
 11
862.8765872283149747
 21
111.8728789200683025
 31
0.0
  0
LINE
  5
14AE
  8
0
 10
863.2062298836149239
 20
112.0298814115682973
 30
0.0
 11
863.0962301699150885
 21
112.0296304455683014
 31
0.0
  0
LINE
  5
14AF
  8
0
 10
863.3210737244151005
 20
112.0984579580682947
 30
0.0
 11
863.3010737765149543
 21
112.0984123278683029
 31
0.0
  0
LINE
  5
14B0
  8
0
 10
863.3332970945150464
 20
112.1004117612683046
 30
0.0
 11
863.3260693174148628
 21
112.1003952709683062
 31
0.0
  0
LINE
  5
14B1
  8
0
 10
863.3209229780148917
 20
112.1645308826683021
 30
0.0
 11
863.3009230301149728
 21
112.164485252468296
 31
0.0
  0
LINE
  5
14B2
  8
0
 10
863.3208216508151054
 20
112.2089431050683004
 30
0.0
 11
863.3008217029149591
 21
112.2088974748682944
 31
0.0
  0
LINE
  5
14B3
  8
0
 10
863.3707760263150703
 20
112.2289976044683044
 30
0.0
 11
863.437948782603371
 21
112.2291508600825978
 31
0.0
  0
LINE
  5
14B4
  8
0
 10
863.4378552407110874
 20
112.2701507533668064
 30
0.0
 11
863.370682484415056
 21
112.2699974977683013
 31
0.0
  0
LINE
  5
14B5
  8
0
 10
863.3006371722149197
 20
112.2897782159682976
 30
0.0
 11
863.320637120214883
 21
112.2898238461683036
 31
0.0
  0
LINE
  5
14B6
  8
0
 10
863.3005358450150197
 20
112.3341904382682941
 30
0.0
 11
863.3205357930150967
 21
112.3342360684683001
 31
0.0
  0
LINE
  5
14B7
  8
0
 10
863.3326172047150067
 20
112.3984109856683062
 30
0.0
 11
863.3253894276149367
 21
112.3983944953682936
 31
0.0
  0
LINE
  5
14B8
  8
0
 10
863.3003850986149246
 20
112.4002633629683032
 30
0.0
 11
863.3203850466150016
 21
112.400308993168295
 31
0.0
  0
LINE
  5
14B9
  8
0
 10
863.2052294861149448
 20
112.4683607923683013
 30
0.0
 11
863.0952297723149513
 21
112.4681098263683054
 31
0.0
  0
LINE
  5
14BA
  8
0
 10
863.0648733646149822
 20
112.624290974368293
 30
0.0
 11
862.9968896183149809
 21
112.6241358684683007
 31
0.0
  0
LINE
  5
14BB
  8
0
 10
862.9144472628149742
 20
112.6239477749683005
 30
0.0
 11
862.8748738591150413
 21
112.6238574875683014
 31
0.0
  0
LINE
  5
14BC
  8
0
 10
864.8220532398149771
 20
110.2795997974682933
 30
0.0
 11
864.7949292155147987
 21
110.2795997974682933
 31
0.0
  0
LINE
  5
14BD
  8
0
 10
862.682929215514946
 20
111.7994296430682937
 30
0.0
 11
864.7789292155150633
 21
111.7994296430682937
 31
0.0
  0
LINE
  5
14BE
  8
0
 10
862.9584090792150164
 20
111.8434296430683048
 30
0.0
 11
862.98440907921497
 21
111.8434296430683048
 31
0.0
  0
LINE
  5
14BF
  8
0
 10
862.7522576164150223
 20
111.8915997974683023
 30
0.0
 11
862.6989292155149087
 21
111.8915997974683023
 31
0.0
  0
LINE
  5
14C0
  8
0
 10
862.6169292155150288
 20
111.8915997974683023
 30
0.0
 11
862.2725318620150574
 21
111.8915997974683023
 31
0.0
  0
LINE
  5
14C1
  8
0
 10
862.2940503952148674
 20
111.9515997974683046
 30
0.0
 11
862.8139292155148041
 21
111.9515997974683046
 31
0.0
  0
LINE
  5
14C2
  8
0
 10
863.1169292155149151
 20
112.0045997974683019
 30
0.0
 11
863.1269292155151334
 21
112.0045997974683019
 31
0.0
  0
LINE
  5
14C3
  8
0
 10
864.5889659237150227
 20
112.9075997974682934
 30
0.0
 11
864.2766646144151537
 21
112.9075997974682934
 31
0.0
  0
LINE
  5
14C4
  8
0
 10
864.1490952606148994
 20
112.9075997974682934
 30
0.0
 11
863.3137631703149282
 21
112.9075997974682934
 31
0.0
  0
LINE
  5
14C5
  8
0
 10
863.1861938165149013
 20
112.9075997974682934
 30
0.0
 11
862.9112084855150897
 21
112.9075997974682934
 31
0.0
  0
LINE
  5
14C6
  8
0
 10
862.9094466702149475
 20
112.9675997974682957
 30
0.0
 11
864.5907277390149375
 21
112.9675997974682957
 31
0.0
  0
LINE
  5
14C7
  8
0
 10
862.8411150486149381
 20
111.8840706013682933
 30
0.0
 11
862.9004001178151384
 21
111.8653658134683013
 31
0.0
  0
ARC
  5
14C8
  8
0
 10
860.95097390381477
 20
78.0859288718183109
 30
0.0
 40
0.375
 50
90.1307209827010354
 51
270.1307209827011206
  0
ARC
  5
14C9
  8
0
 10
862.7566058219149454
 20
43.1056045586953474
 30
0.0
 40
0.28
 50
61.1656100915014704
 51
80.0465987228984233
  0
ARC
  5
14CA
  8
0
 10
862.7804050762149473
 20
43.0986562143953265
 30
0.0
 40
0.23
 50
61.5479292019015034
 51
85.648076540195234
  0
ARC
  5
14CB
  8
0
 10
862.7044225424150454
 20
43.2020768958953525
 30
0.0
 40
0.131
 50
21.1341153553009917
 51
47.9924271051025073
  0
ARC
  5
14CC
  8
0
 10
862.7579738137147842
 20
43.256503718995333
 30
0.0
 40
0.016
 50
178.0579999991003035
 51
268.0579999991002751
  0
ARC
  5
14CD
  8
0
 10
862.807768585714939
 20
43.3971493606953231
 30
0.0
 40
0.016
 50
178.0579999999995948
 51
260.0465987228985227
  0
ARC
  5
14CE
  8
0
 10
862.8190335191120539
 20
43.2464301741106922
 30
0.0
 40
0.0081063309875117
 50
277.285943385437804
 51
20.8034152392457905
  0
ARC
  5
14CF
  8
0
 10
862.7969130382947469
 20
43.3060950555616913
 30
0.0
 40
0.0082364872123494
 50
178.425160634234004
 51
234.1697729937914971
  0
ARC
  5
14D0
  8
0
 10
862.7971499360127154
 20
43.3200233878023369
 30
0.0
 40
0.0080010791255043
 50
84.9227372163395131
 51
178.0547045868846112
  0
ARC
  5
14D1
  8
0
 10
862.8937938557149891
 20
43.3079096126953118
 30
0.0
 40
0.008
 50
241.547929203101603
 51
294.5680707970976187
  0
ARC
  5
14D2
  8
0
 10
862.8955023356149923
 20
43.3578975598953278
 30
0.0
 40
0.008
 50
241.1656100804000005
 51
294.7782147625986227
  0
ARC
  5
14D3
  8
0
 10
862.8556724790148564
 20
44.8099401830953425
 30
0.0
 40
0.061
 50
83.9305952988963071
 51
178.0580000001999963
  0
ARC
  5
14D4
  8
0
 10
862.9069367036149742
 20
44.6753952780953298
 30
0.0
 40
0.025
 50
147.9807209818970932
 51
327.9807209821964875
  0
ARC
  5
14D5
  8
0
 10
862.8556917659766441
 20
44.8098788725764123
 30
0.0
 40
0.0160589480784216
 50
84.0221511429772789
 51
174.1367344711894134
  0
ARC
  5
14D6
  8
0
 10
863.0162051210148775
 20
43.0964117331953389
 30
0.0
 40
0.28
 50
97.7851044505011373
 51
114.7782147942011051
  0
ARC
  5
14D7
  8
0
 10
862.9927480768089936
 20
43.0914562400692773
 30
0.0
 40
0.2300000008267574
 50
90.4414990364652454
 51
114.5680707232912994
  0
ARC
  5
14D8
  8
0
 10
863.0755614702151206
 20
43.1894925844953335
 30
0.0
 40
0.131
 50
127.697691877597407
 51
154.9818846450988872
  0
ARC
  5
14D9
  8
0
 10
862.9861242270012553
 20
43.3163356998227087
 30
0.0
 40
0.0580283566266372
 50
359.5681838826862986
 51
97.7720897228405761
  0
ARC
  5
14DA
  8
0
 10
863.0258060121584549
 20
43.2474280276633465
 30
0.0
 40
0.0160140784950392
 50
269.9041101614722038
 51
358.0373683035547856
  0
ARC
  5
14DB
  8
0
 10
862.991037447915005
 20
43.3134496501953095
 30
0.0
 40
0.008
 50
358.0580000008990851
 51
90.4414990244013666
  0
ARC
  5
14DC
  8
0
 10
862.9905636421149211
 20
43.2994760796953528
 30
0.0
 40
0.008
 50
307.6976918454009251
 51
358.0580000004998737
  0
ARC
  5
14DD
  8
0
 10
862.9641020533317715
 20
43.2415098737302017
 30
0.0
 40
0.0080000000353941
 50
154.9818849930101976
 51
268.0579998887064903
  0
ARC
  5
14DE
  8
0
 10
863.1369292155151243
 20
44.0261337800953427
 30
0.0
 40
0.061
 50
180.0
 51
267.9999999998008207
  0
ARC
  5
14DF
  8
0
 10
863.1328843227149719
 20
44.7804644933953284
 30
0.0
 40
0.061
 50
2.075026361598848
 51
83.9305952986997852
  0
ARC
  5
14E0
  8
0
 10
863.1369292155151243
 20
44.1295301623953335
 30
0.0
 40
0.061
 50
90.0
 51
180.0
  0
ARC
  5
14E1
  8
0
 10
863.1648169451150352
 20
44.8114541653953395
 30
0.0
 40
0.06
 50
2.0010866929000639
 51
84.9257336405976275
  0
ARC
  5
14E2
  8
0
 10
863.1677322953017892
 20
44.0676090087639025
 30
0.0
 40
0.0621227231106055
 50
35.4495655337243107
 51
89.5804381409605668
  0
ARC
  5
14E3
  8
0
 10
863.1369478899093792
 20
44.0261413250404416
 30
0.0
 40
0.0160186761712721
 50
180.0269868447672934
 51
270.073068926403721
  0
ARC
  5
14E4
  8
0
 10
863.1369292155151243
 20
44.1295301623953335
 30
0.0
 40
0.016
 50
90.0
 51
180.0
  0
ARC
  5
14E5
  8
0
 10
863.2003390068149429
 20
44.1615301623953371
 30
0.0
 40
0.016
 50
270.0000000000977138
 51
2.075026361400071
  0
ARC
  5
14E6
  8
0
 10
863.1536721607187701
 20
44.2065463655599729
 30
0.0
 40
0.0160162046440817
 50
270.0246269127695768
 51
0.0591951220587489
  0
ARC
  5
14E7
  8
0
 10
863.1304311841239496
 20
44.7780733019147874
 30
0.0
 40
0.0186803432384595
 50
9.1499351900631041
 51
87.8269486302761067
  0
ARC
  5
14E8
  8
0
 10
863.2309626267355043
 20
44.1485338243960612
 30
0.0
 40
0.1200369446134911
 50
238.5123741267152866
 51
268.0040915417218912
  0
ARC
  5
14E9
  8
0
 10
863.2591274515673376
 20
44.6361788474113226
 30
0.0
 40
0.0599360373133002
 50
182.0581107294393064
 51
244.0071660101141902
  0
ARC
  5
14EA
  8
0
 10
863.3099381780150452
 20
44.0945629025953281
 30
0.0
 40
0.06
 50
182.0010866953994935
 51
268.0223938528969256
  0
ARC
  5
14EB
  8
0
 10
863.2609299309150401
 20
44.145872160195097
 30
0.0
 40
0.0599853501997676
 50
246.4035984260391103
 51
259.9296490543433151
  0
ARC
  5
14EC
  8
0
 10
863.2609383558149148
 20
44.1458588820953324
 30
0.0
 40
0.0599765562
 50
224.743514432001291
 51
246.3911455178005099
  0
ARC
  5
14ED
  8
0
 10
862.9714090792148227
 20
112.0904296430683047
 30
0.0
 40
0.291
 50
224.4086730105007916
 51
275.5687290055006997
  0
ARC
  5
14EE
  8
0
 10
862.9714090792148227
 20
112.0904296430683047
 30
0.0
 40
0.286
 50
278.7174293676005163
 51
300.7749515408991101
  0
ARC
  5
14EF
  8
0
 10
862.9714090792148227
 20
112.0904296430683047
 30
0.0
 40
0.236
 50
276.3793702085004043
 51
288.2442571515019836
  0
ARC
  5
14F0
  8
0
 10
862.9714090792148227
 20
112.0904296430683047
 30
0.0
 40
0.236
 50
252.4892081542975859
 51
263.6206297914997094
  0
ARC
  5
14F1
  8
0
 10
862.9112084855150897
 20
113.0925997974682957
 30
0.0
 40
0.185
 50
240.0097138991986867
 51
270.0000000014003945
  0
ARC
  5
14F2
  8
0
 10
862.9559369689161485
 20
112.5063444542056033
 30
0.0
 40
0.1247074046188754
 50
70.8289232481847364
 51
109.432518699668293
  0
ARC
  5
14F3
  8
0
 10
862.957113281466377
 20
111.9907606207101054
 30
0.0
 40
0.1247074036719307
 50
250.8289230713241125
 51
289.4325188762384187
  0
ARC
  5
14F4
  8
0
 10
862.9094466702149475
 20
113.0925997974682957
 30
0.0
 40
0.125
 50
240.3606622875944083
 51
270.0000000020974085
  0
ARC
  5
14F5
  8
0
 10
862.7862451937151036
 20
112.8760722571683033
 30
0.0
 40
0.1241240244
 50
60.3606622850013821
 51
137.5315493943014076
  0
ARC
  5
14F6
  8
0
 10
862.7862451937151036
 20
112.8760722571683033
 30
0.0
 40
0.065
 50
60.0097138962055467
 51
137.5315493954036867
  0
ARC
  5
14F7
  8
0
 10
862.2725318620150574
 20
111.8595997974683058
 30
0.0
 40
0.032
 50
90.0
 51
172.0169267860997877
  0
ARC
  5
14F8
  8
0
 10
862.6509292155147932
 20
111.5225997974683025
 30
0.0
 40
0.032
 50
270.0
 51
0.0
  0
ARC
  5
14F9
  8
0
 10
862.2940503952148674
 20
111.9835997974683011
 30
0.0
 40
0.032
 50
168.2933374469986916
 51
270.0
  0
ARC
  5
14FA
  8
0
 10
862.655929215515016
 20
110.3065997974682944
 30
0.0
 40
0.027
 50
219.9173541494020014
 51
0.0
  0
ARC
  5
14FB
  8
0
 10
862.6559286329859333
 20
110.3145996950918004
 30
0.0
 40
0.0270005825292637
 50
0.0002172450010466
 51
39.8699804920879615
  0
ARC
  5
14FC
  8
0
 10
862.6169292155150288
 20
111.875599797468297
 30
0.0
 40
0.016
 50
0.0
 51
90.0
  0
ARC
  5
14FD
  8
0
 10
862.6491050770584934
 20
111.5066726417046965
 30
0.0
 40
0.0161760255611941
 50
180.2580164947671904
 51
276.4749048321514238
  0
ARC
  5
14FE
  8
0
 10
862.6989292155149087
 20
111.875599797468297
 30
0.0
 40
0.016
 50
90.0
 51
180.0
  0
ARC
  5
14FF
  8
0
 10
862.7520954691965471
 20
111.8755953610972966
 30
0.0
 40
0.0160052577384185
 50
44.4124673650568482
 51
89.4195338587327626
  0
ARC
  5
1500
  8
0
 10
862.9980949990150521
 20
111.8167275025682983
 30
0.0
 40
0.016
 50
275.5687290055989251
 51
309.7780995327036067
  0
ARC
  5
1501
  8
0
 10
862.8459292155150706
 20
111.8993291660682985
 30
0.0
 40
0.016
 50
180.0
 51
252.4892081531980068
  0
ARC
  5
1502
  8
0
 10
862.8139292155148041
 20
111.9355997974682992
 30
0.0
 40
0.016
 50
0.0
 51
90.0
  0
ARC
  5
1503
  8
0
 10
862.9985050291993502
 20
111.8487408849949958
 30
0.0
 40
0.0072032586774806
 50
96.9669147133497233
 51
174.878246166004601
  0
ARC
  5
1504
  8
0
 10
862.98440907921497
 20
111.8504296430682956
 30
0.0
 40
0.007
 50
270.0000000001954277
 51
351.4086255851996157
  0
ARC
  5
1505
  8
0
 10
862.9584090792150164
 20
111.8504296430682956
 30
0.0
 40
0.007
 50
188.5913744148004128
 51
270.0000000002996217
  0
ARC
  5
1506
  8
0
 10
862.9443131292307498
 20
111.8487408849949958
 30
0.0
 40
0.0072032586774983
 50
5.1217538340413773
 51
83.0330852862040558
  0
ARC
  5
1507
  8
0
 10
863.2802282832147966
 20
112.2492910716682957
 30
0.0
 40
0.1590012077
 50
291.6103600532958922
 51
352.722964831799402
  0
ARC
  5
1508
  8
0
 10
863.2802282832147966
 20
112.2492910716682957
 30
0.0
 40
0.1590012077
 50
7.5384771334001428
 51
68.6510402707012588
  0
ARC
  5
1509
  8
0
 10
863.6206657690647717
 20
104.4181796430682994
 30
0.0
 40
0.125
 50
90.0
 51
180.0
  0
ARC
  5
150A
  8
0
 10
863.6206657690647717
 20
104.1806796430683022
 30
0.0
 40
0.125
 50
180.0
 51
270.0
  0
ARC
  5
150B
  8
0
 10
863.0819292155149469
 20
111.904845970568303
 30
0.0
 40
0.07
 50
300.7749515409976198
 51
0.0
  0
CIRCLE
  5
150C
  8
0
 10
863.7394157690647489
 20
104.2994296430682937
 30
0.0
 40
0.0582369251
  0
ARC
  5
150D
  8
0
 10
863.2601705718149105
 20
112.4942459473682987
 30
0.0
 40
0.04
 50
0.1307209826993975
 51
180.1307209826993869
  0
ARC
  5
150E
  8
0
 10
863.1269292155151334
 20
111.9795997974682962
 30
0.0
 40
0.025
 50
0.0
 51
90.0000000000976854
  0
ARC
  5
150F
  8
0
 10
863.0192412507695963
 20
111.7911103507831001
 30
0.0
 40
0.017217771290453
 50
105.1009368363212957
 51
129.3162953724001909
  0
ARC
  5
1510
  8
0
 10
863.0939292155148905
 20
111.8991724509682939
 30
0.0
 40
0.016
 50
288.244257151995896
 51
0.0
  0
ARC
  5
1511
  8
0
 10
863.1861661388709308
 20
112.8915602696961002
 30
0.0
 40
0.016039551652322
 50
314.6166904917357101
 51
89.9011310905018348
  0
ARC
  5
1512
  8
0
 10
863.1809292155152207
 20
112.8454092393682942
 30
0.0
 40
0.016
 50
129.9999999999018883
 51
179.9999999998989892
  0
ARC
  5
1513
  8
0
 10
863.3137631703149282
 20
112.8915997974683023
 30
0.0
 40
0.016
 50
90.0
 51
129.9999999997997975
  0
ARC
  5
1514
  8
0
 10
863.3332628719148261
 20
112.1154117221683038
 30
0.0
 40
0.015
 50
270.1307209827011206
 51
291.6103600519015799
  0
ARC
  5
1515
  8
0
 10
863.3326514274137935
 20
112.3834110257463976
 30
0.0
 40
0.0149999989221474
 50
68.6506391390660724
 51
90.1307213696594118
  0
ARC
  5
1516
  8
0
 10
863.3109462690149485
 20
112.1543109078682932
 30
0.0
 40
0.015
 50
0.1307209727219025
 51
48.3204060548383225
  0
ARC
  5
1517
  8
0
 10
863.3105125540150766
 20
112.3444104131683048
 30
0.0
 40
0.015
 50
311.941035878503385
 51
0.1286043843000784
  0
ARC
  5
1518
  8
0
 10
863.1169292155149151
 20
111.9975997974682969
 30
0.0
 40
0.007
 50
90.0
 51
180.0
  0
ARC
  5
1519
  8
0
 10
863.1719464624835609
 20
112.8024803421349986
 30
0.0
 40
0.0068889250221077
 50
166.8220683733065073
 51
310.5904872064145934
  0
ARC
  5
151A
  8
0
 10
863.8139218190149222
 20
44.129068965095307
 30
0.0
 40
0.1209276292
 50
267.9905302103957752
 51
290.2503020032983159
  0
ARC
  5
151B
  8
0
 10
864.6449292155150488
 20
43.8734123052953535
 30
0.0
 40
0.084
 50
0.0
 51
88.0000000000028564
  0
ARC
  5
151C
  8
0
 10
864.6449292155150488
 20
43.9043805753953222
 30
0.0
 40
0.084
 50
33.5573097624980718
 51
88.0223938684023892
  0
ARC
  5
151D
  8
0
 10
864.7582007658338625
 20
44.7895471156163723
 30
0.0
 40
0.0600100193893948
 50
359.9990406267891103
 51
69.7927786599378663
  0
ARC
  5
151E
  8
0
 10
864.4629105411205501
 20
43.9027743599501221
 30
0.0
 40
0.0160186761714711
 50
0.0269868450979059
 51
90.0730692833849673
  0
ARC
  5
151F
  8
0
 10
864.4949292155149578
 20
43.8712329252953168
 30
0.0
 40
0.016
 50
180.0
 51
270.0
  0
ARC
  5
1520
  8
0
 10
864.6429292155148687
 20
43.8392329252953417
 30
0.0
 40
0.016
 50
0.0
 51
90.0
  0
ARC
  5
1521
  8
0
 10
864.6429292155148687
 20
43.7692329252953485
 30
0.0
 40
0.016
 50
270.0
 51
0.0
  0
ARC
  5
1522
  8
0
 10
864.4949292155149578
 20
43.7372329252953307
 30
0.0
 40
0.016
 50
90.0
 51
180.0
  0
ARC
  5
1523
  8
0
 10
864.4949292155149578
 20
43.7242329252953326
 30
0.0
 40
0.016
 50
180.0
 51
270.0
  0
ARC
  5
1524
  8
0
 10
864.6679292155149597
 20
43.6922329252953503
 30
0.0
 40
0.016
 50
0.0
 51
90.0
  0
ARC
  5
1525
  8
0
 10
864.6999292155148851
 20
43.2555301623953383
 30
0.0
 40
0.016
 50
180.0
 51
270.0
  0
ARC
  5
1526
  8
0
 10
864.7129292155151461
 20
43.2555301623953383
 30
0.0
 40
0.016
 50
270.0
 51
0.0
  0
ARC
  5
1527
  8
0
 10
864.7129292155151461
 20
43.765601959195358
 30
0.0
 40
0.016
 50
0.0
 51
30.0000000017004105
  0
ARC
  5
1528
  8
0
 10
864.7129292155151461
 20
43.8434583655953318
 30
0.0
 40
0.016
 50
329.9999999981001224
 51
0.0
  0
ARC
  5
1529
  8
0
 10
864.7181668198149964
 20
43.8045301623953378
 30
0.0
 40
0.008
 50
150.0000000025997906
 51
209.9999999979004031
  0
ARC
  5
152A
  8
0
 10
863.8581657690648399
 20
104.4181796430682994
 30
0.0
 40
0.125
 50
0.0
 51
90.0
  0
ARC
  5
152B
  8
0
 10
863.8581657690648399
 20
104.1806796430683022
 30
0.0
 40
0.125
 50
270.0
 51
0.0
  0
ARC
  5
152C
  8
0
 10
864.1906378460149654
 20
111.5906054124683067
 30
0.0
 40
2.028
 50
137.5315493943014076
 51
219.9173541503996887
  0
ARC
  5
152D
  8
0
 10
864.1906378462357452
 20
111.590605412584793
 30
0.0
 40
1.9688759758442771
 50
172.0169267889116895
 51
219.7394394888945897
  0
ARC
  5
152E
  8
0
 10
864.1906378460149654
 20
111.5906054124683067
 30
0.0
 40
1.9688759755999989
 50
137.5315493943014076
 51
168.2933374484987041
  0
ARC
  5
152F
  8
0
 10
864.1490952606148994
 20
112.8915997974683023
 30
0.0
 40
0.016
 50
49.999999999698332
 51
90.0
  0
ARC
  5
1530
  8
0
 10
864.2817076625926802
 20
112.8452392358316985
 30
0.0
 40
0.016272753992794
 50
4.5463258542287104
 51
49.7871811211360011
  0
ARC
  5
1531
  8
0
 10
864.276692988361674
 20
112.8915592752729964
 30
0.0
 40
0.0160405472904683
 50
90.1013499230204644
 51
225.3256815347741053
  0
ARC
  5
1532
  8
0
 10
864.2910406563526067
 20
112.8025403502248025
 30
0.0
 40
0.0068889250043304
 50
216.8220680986503908
 51
0.5904873025373601
  0
ARC
  5
1533
  8
0
 10
864.5889659237150227
 20
113.0925997974682957
 30
0.0
 40
0.185
 50
269.9999999985994918
 51
299.9902861008990271
  0
ARC
  5
1534
  8
0
 10
864.5907277390149375
 20
113.0925997974682957
 30
0.0
 40
0.125
 50
269.9999999978961114
 51
299.6393377123006871
  0
ARC
  5
1535
  8
0
 10
864.7139292155150088
 20
112.8760722571683033
 30
0.0
 40
0.1241240244
 50
0.0000000008989011
 51
119.639337715103494
  0
ARC
  5
1536
  8
0
 10
864.7139292155150088
 20
112.8760722571683033
 30
0.0
 40
0.065
 50
0.0
 51
119.9902861033958033
  0
ARC
  5
1537
  8
0
 10
864.7612523054915528
 20
111.9682943963428983
 30
0.0
 40
0.0176905515903584
 50
275.4393068065564876
 51
357.7497696149791864
  0
ARC
  5
1538
  8
0
 10
864.8220532398149771
 20
110.2955997974682987
 30
0.0
 40
0.016
 50
270.0
 51
0.0
  0
ARC
  5
1539
  8
0
 10
864.7949292155147987
 20
110.2955997974682987
 30
0.0
 40
0.016
 50
180.0
 51
270.0
  0
ARC
  5
153A
  8
0
 10
866.5759433765149424
 20
78.0906065664183018
 30
0.0
 40
0.375
 50
270.0
 51
90.0
  0
LINE
  5
153B
  8
0
 10
864.4173793594649169
 20
111.8653769475182997
 30
0.0
 11
864.3637343185649797
 21
111.8830604677182947
 31
0.0
  0
LINE
  5
153C
  8
0
 10
864.587798772764927
 20
112.6229411924182955
 30
0.0
 11
864.6177302494648984
 21
112.5928728252182935
 31
0.0
  0
LINE
  5
153D
  8
0
 10
864.2414770099647967
 20
112.0439993000182994
 30
0.0
 11
864.2564427482650444
 21
112.0289651164183056
 31
0.0
  0
LINE
  5
153E
  8
0
 10
864.3661544214650121
 20
111.9024644790183061
 30
0.0
 11
864.3960858980650528
 21
111.8723961117183023
 31
0.0
  0
LINE
  5
153F
  8
0
 10
864.6177302494648984
 20
112.5928728252182935
 30
0.0
 11
864.616153770765095
 21
111.9018941016182964
 31
0.0
  0
LINE
  5
1540
  8
0
 10
864.587798772764927
 20
112.6229411924182955
 30
0.0
 11
864.5860854035649936
 21
111.8719626249182966
 31
0.0
  0
LINE
  5
1541
  8
0
 10
864.3960858980650528
 20
111.8723961117183023
 30
0.0
 11
864.3977992672650998
 21
112.6233746792183013
 31
0.0
  0
LINE
  5
1542
  8
0
 10
864.3661544214650121
 20
111.9024644790183061
 30
0.0
 11
864.3677309000648847
 21
112.5934432026183032
 31
0.0
  0
LINE
  5
1543
  8
0
 10
864.2564427482650444
 20
112.0289651164183056
 30
0.0
 11
864.2574431457649098
 21
112.4674444972182954
 31
0.0
  0
LINE
  5
1544
  8
0
 10
864.240919020506567
 20
111.7994296430682937
 30
0.0
 11
864.2425019559650536
 21
112.493238391818295
 31
0.0
  0
LINE
  5
1545
  8
0
 10
864.1625021641650619
 20
112.4934209126183049
 30
0.0
 11
864.1609188123065906
 21
111.7994296430682937
 31
0.0
  0
LINE
  5
1546
  8
0
 10
864.1415989074650952
 20
112.097541662918303
 30
0.0
 11
864.1422875852648531
 21
112.3993926980183033
 31
0.0
  0
LINE
  5
1547
  8
0
 10
864.1372832042650316
 20
112.3974782002183019
 30
0.0
 11
864.1366033144648782
 21
112.0994789758183003
 31
0.0
  0
LINE
  5
1548
  8
0
 10
864.0918966055647843
 20
112.2280813093182985
 30
0.0
 11
864.0919901474649123
 21
112.2690812026182954
 31
0.0
  0
LINE
  5
1549
  8
0
 10
864.6327434163649741
 20
111.9346835023182933
 30
0.0
 11
864.6327434163649741
 21
111.8984128709183068
 31
0.0
  0
LINE
  5
154A
  8
0
 10
864.3527434163648877
 20
111.8982561558183022
 30
0.0
 11
864.3527434163648877
 21
111.9966835023183052
 31
0.0
  0
LINE
  5
154B
  8
0
 10
864.3107434163650851
 20
111.9786835023183045
 30
0.0
 11
864.3107434163650851
 21
111.9039296754182971
 31
0.0
  0
LINE
  5
154C
  8
0
 10
864.5860854035649936
 20
111.8719626249182966
 30
0.0
 11
864.616153770765095
 21
111.9018941016182964
 31
0.0
  0
LINE
  5
154D
  8
0
 10
864.2424089621649728
 20
112.4524787589183035
 30
0.0
 11
864.2574431457649098
 21
112.4674444972182954
 31
0.0
  0
LINE
  5
154E
  8
0
 10
864.3677309000648847
 20
112.5934432026183032
 30
0.0
 11
864.3977992672650998
 21
112.6233746792183013
 31
0.0
  0
LINE
  5
154F
  8
0
 10
864.3960858980650528
 20
111.8723961117183023
 30
0.0
 11
864.4640696442650096
 21
111.8722410058182959
 31
0.0
  0
LINE
  5
1550
  8
0
 10
864.546511999864947
 20
111.8720529123182956
 30
0.0
 11
864.5860854035649936
 21
111.8719626249182966
 31
0.0
  0
LINE
  5
1551
  8
0
 10
864.2564427482650444
 20
112.0289651164183056
 30
0.0
 11
864.3664424619648798
 21
112.0287141504182955
 31
0.0
  0
LINE
  5
1552
  8
0
 10
864.1415989074650952
 20
112.097541662918303
 30
0.0
 11
864.1615988553649004
 21
112.097496032718297
 31
0.0
  0
LINE
  5
1553
  8
0
 10
864.1293755373649219
 20
112.0994954661182987
 30
0.0
 11
864.1366033144648782
 21
112.0994789758183003
 31
0.0
  0
LINE
  5
1554
  8
0
 10
864.1417496538648493
 20
112.1636145875182962
 30
0.0
 11
864.1617496017649955
 21
112.1635689573183043
 31
0.0
  0
LINE
  5
1555
  8
0
 10
864.1418509810649766
 20
112.2080268099182945
 30
0.0
 11
864.1618509289648955
 21
112.2079811797183027
 31
0.0
  0
LINE
  5
1556
  8
0
 10
864.0918966055647843
 20
112.2280813093182985
 30
0.0
 11
864.0247238492764836
 21
112.2282345649326061
 31
0.0
  0
LINE
  5
1557
  8
0
 10
864.0248173911687672
 20
112.2692344582168005
 30
0.0
 11
864.0919901474649123
 21
112.2690812026182954
 31
0.0
  0
LINE
  5
1558
  8
0
 10
864.1620354596650486
 20
112.2888619208183059
 30
0.0
 11
864.1420355116648579
 21
112.2889075510182977
 31
0.0
  0
LINE
  5
1559
  8
0
 10
864.1621367868649486
 20
112.3332741431183024
 30
0.0
 11
864.1421368388649853
 21
112.3333197733182942
 31
0.0
  0
LINE
  5
155A
  8
0
 10
864.1300554271649617
 20
112.3974946905183003
 30
0.0
 11
864.1372832042650316
 21
112.3974782002183019
 31
0.0
  0
LINE
  5
155B
  8
0
 10
864.1622875332650437
 20
112.3993470678182973
 30
0.0
 11
864.1422875852648531
 21
112.3993926980183033
 31
0.0
  0
LINE
  5
155C
  8
0
 10
864.2574431457649098
 20
112.4674444972182954
 30
0.0
 11
864.367442859565017
 21
112.4671935312182995
 31
0.0
  0
LINE
  5
155D
  8
0
 10
864.3977992672650998
 20
112.6233746792183013
 30
0.0
 11
864.4657830135648737
 21
112.6232195733182948
 31
0.0
  0
LINE
  5
155E
  8
0
 10
864.5482253690649941
 20
112.6230314798182945
 30
0.0
 11
864.587798772764927
 21
112.6229411924182955
 31
0.0
  0
LINE
  5
155F
  8
0
 10
864.5042635526649519
 20
111.8425133479182989
 30
0.0
 11
864.4782635526648846
 21
111.8425133479182989
 31
0.0
  0
LINE
  5
1560
  8
0
 10
864.710415015464946
 20
111.8906835023182964
 30
0.0
 11
864.7637434163649459
 21
111.8906835023182964
 31
0.0
  0
LINE
  5
1561
  8
0
 10
864.7629292155149869
 20
111.9506835023182987
 30
0.0
 11
864.6487434163650505
 21
111.9506835023182987
 31
0.0
  0
LINE
  5
1562
  8
0
 10
864.3457434163648259
 20
112.003683502318296
 30
0.0
 11
864.335743416364835
 21
112.003683502318296
 31
0.0
  0
LINE
  5
1563
  8
0
 10
864.6215575832650302
 20
111.8831543062183016
 30
0.0
 11
864.5622725140649436
 21
111.8644495183182954
 31
0.0
  0
ARC
  5
1564
  8
0
 10
864.4912635526649183
 20
112.0895133479182988
 30
0.0
 40
0.291
 50
264.4312709944991866
 51
265.4519748912713908
  0
ARC
  5
1565
  8
0
 10
864.4912635526649183
 20
112.0895133479182988
 30
0.0
 40
0.291
 50
274.5480251087220722
 51
315.5913269894991799
  0
ARC
  5
1566
  8
0
 10
864.4912635526649183
 20
112.0895133479182988
 30
0.0
 40
0.286
 50
239.2250484591008899
 51
261.2825706323994837
  0
ARC
  5
1567
  8
0
 10
864.4912635526649183
 20
112.0895133479182988
 30
0.0
 40
0.236
 50
251.7557428484979027
 51
263.6206297914997094
  0
ARC
  5
1568
  8
0
 10
864.4912635526649183
 20
112.0895133479182988
 30
0.0
 40
0.236
 50
276.3793702085004043
 51
287.5107918456953939
  0
ARC
  5
1569
  8
0
 10
864.5067356629638198
 20
112.5054281590555973
 30
0.0
 40
0.1247074046188754
 50
70.567481300331707
 51
109.1710767518152068
  0
ARC
  5
156A
  8
0
 10
864.505559350413705
 20
111.9898443255600995
 30
0.0
 40
0.1247074036719307
 50
250.5674811237616098
 51
289.1710769286758023
  0
ARC
  5
156B
  8
0
 10
864.7105771626835349
 20
111.8746790659473049
 30
0.0
 40
0.0160052577384185
 50
90.5804661412672516
 51
135.587532634943102
  0
ARC
  5
156C
  8
0
 10
864.4645776328649163
 20
111.8158112074183066
 30
0.0
 40
0.016
 50
230.2219004672963081
 51
264.4312709944010749
  0
ARC
  5
156D
  8
0
 10
864.6167434163648977
 20
111.8984128709183068
 30
0.0
 40
0.016
 50
287.5107918468020216
 51
0.0
  0
ARC
  5
156E
  8
0
 10
864.6487434163650505
 20
111.9346835023182933
 30
0.0
 40
0.016
 50
90.0
 51
180.0
  0
ARC
  5
156F
  8
0
 10
864.4641676026806181
 20
111.8478245898450041
 30
0.0
 40
0.0072032586774806
 50
5.1217538339953821
 51
83.0330852866503051
  0
ARC
  5
1570
  8
0
 10
864.4782635526648846
 20
111.8495133479183039
 30
0.0
 40
0.007
 50
188.5913744148004128
 51
269.9999999997980922
  0
ARC
  5
1571
  8
0
 10
864.5042635526649519
 20
111.8495133479183039
 30
0.0
 40
0.007
 50
269.9999999997003783
 51
351.4086255851996157
  0
ARC
  5
1572
  8
0
 10
864.5183595026494459
 20
111.8478245898450041
 30
0.0
 40
0.0072032586774983
 50
96.9669147137959442
 51
174.8782461659585863
  0
ARC
  5
1573
  8
0
 10
864.182444348665058
 20
112.248374776518304
 30
0.0
 40
0.1590012077
 50
187.277035168200598
 51
248.3896399467039942
  0
ARC
  5
1574
  8
0
 10
864.182444348665058
 20
112.248374776518304
 30
0.0
 40
0.1590012077
 50
111.3489597292986986
 51
172.4615228665998075
  0
ARC
  5
1575
  8
0
 10
864.3807434163649077
 20
111.9039296754182971
 30
0.0
 40
0.07
 50
180.0
 51
239.2250484590022097
  0
ARC
  5
1576
  8
0
 10
864.2025020600649441
 20
112.493329652218307
 30
0.0
 40
0.04
 50
359.8692790173005847
 51
179.869279017298993
  0
ARC
  5
1577
  8
0
 10
864.335743416364835
 20
111.9786835023183045
 30
0.0
 40
0.025
 50
89.9999999998957776
 51
180.0
  0
ARC
  5
1578
  8
0
 10
864.4434313811101447
 20
111.7901940556330942
 30
0.0
 40
0.017217771290453
 50
50.6837046275997523
 51
74.8990631636786333
  0
ARC
  5
1579
  8
0
 10
864.3687434163649641
 20
111.8982561558183022
 30
0.0
 40
0.016
 50
180.0
 51
251.755742848004104
  0
ARC
  5
157A
  8
0
 10
864.1294097599651423
 20
112.1144954270182978
 30
0.0
 40
0.015
 50
248.3896399480983064
 51
269.869279017298993
  0
ARC
  5
157B
  8
0
 10
864.1300212044661748
 20
112.3824947305964059
 30
0.0
 40
0.0149999989221474
 50
89.8692786303405882
 51
111.3493608609338992
  0
ARC
  5
157C
  8
0
 10
864.1517263628649062
 20
112.1533946127183015
 30
0.0
 40
0.015
 50
131.679593945161713
 51
179.869279027278111
  0
ARC
  5
157D
  8
0
 10
864.1521600778648917
 20
112.3434941180182989
 30
0.0
 40
0.015
 50
179.8713956156998961
 51
228.0589641214965866
  0
ARC
  5
157E
  8
0
 10
864.3457434163648259
 20
111.9966835023183052
 30
0.0
 40
0.007
 50
0.0
 51
90.0
  0
ARC
  5
157F
  8
0
 10
864.6613674551105078
 20
104.1147579770327951
 30
0.0
 40
0.3114708646234665
 50
292.1725585454939846
 51
359.4797212689381922
  0
ARC
  5
1580
  8
0
 10
864.6615058559989393
 20
104.4841952735121993
 30
0.0
 40
0.3113316303349145
 50
0.5032249671136232
 51
67.8445022664046178
  0
LINE
  5
1581
  8
0
 10
863.4956657690648854
 20
50.8561796430682875
 30
0.0
 11
863.4956657690648854
 21
50.6186796430683117
 31
0.0
  0
LINE
  5
1582
  8
0
 10
863.9831657690649536
 20
50.6186796430683117
 30
0.0
 11
863.9831657690649536
 21
50.8561796430682875
 31
0.0
  0
LINE
  5
1583
  8
0
 10
864.972825478364939
 20
50.9249296430683103
 30
0.0
 11
864.972825478364939
 21
50.5499296807682867
 31
0.0
  0
LINE
  5
1584
  8
0
 10
863.6206657690647717
 20
50.4936796430683117
 30
0.0
 11
863.8581657690648399
 21
50.4936796430683117
 31
0.0
  0
LINE
  5
1585
  8
0
 10
863.8581657690648399
 20
50.9811796430683017
 30
0.0
 11
863.6206657690647717
 21
50.9811796430683017
 31
0.0
  0
ARC
  5
1586
  8
0
 10
863.6206657690647717
 20
50.8561796430682875
 30
0.0
 40
0.125
 50
90.0
 51
180.0
  0
ARC
  5
1587
  8
0
 10
863.6206657690647717
 20
50.6186796430683117
 30
0.0
 40
0.125
 50
180.0
 51
270.0
  0
CIRCLE
  5
1588
  8
0
 10
863.7394157690647489
 20
50.7374296430683103
 30
0.0
 40
0.0582369251
  0
ARC
  5
1589
  8
0
 10
863.8581657690648399
 20
50.8561796430682875
 30
0.0
 40
0.125
 50
0.0
 51
90.0
  0
ARC
  5
158A
  8
0
 10
863.8581657690648399
 20
50.6186796430683117
 30
0.0
 40
0.125
 50
270.0
 51
0.0
  0
ARC
  5
158B
  8
0
 10
864.6613674551105078
 20
50.5527579770328614
 30
0.0
 40
0.3114708646234665
 50
292.1725585454939846
 51
359.4797212689381922
  0
ARC
  5
158C
  8
0
 10
864.6615058559989393
 20
50.9221952735121874
 30
0.0
 40
0.3113316303349145
 50
0.5032249671136232
 51
67.8445022664046178
  0
CIRCLE
  5
158D
  8
0
 10
863.7394292650149055
 20
77.5184296430683162
 30
0.0
 40
0.0582369251
  0
ARC
  5
158E
  8
0
 10
864.7641926483302086
 20
111.8759496302537997
 30
0.0
 40
0.0147407189570222
 50
358.6401053956358282
 51
91.7463925345337401
  0
ENDSEC
  0
EOF
