  0
SECTION
  2
HEADER
  9
$ACADVER
  1
AC1009
  9
$INSBASE
 10
812.1387751693018799
 20
76.8447946447193431
 30
0.0
  9
$EXTMIN
 10
810.5709448917518785
 20
76.8447946447193431
 30
0.0
  9
$EXTMAX
 10
813.381146020051915
 20
134.6156774964462954
 30
0.0
  9
$LIMMIN
 10
0.0
 20
0.0
  9
$LIMMAX
 10
11.6929133858000007
 20
8.2677165353999982
  9
$ORTHOMODE
 70
     1
  9
$REGENMODE
 70
     1
  9
$FILLMODE
 70
     1
  9
$QTEXTMODE
 70
     0
  9
$MIRRTEXT
 70
     0
  9
$DRAGMODE
 70
     2
  9
$LTSCALE
 40
0.6431102362
  9
$OSMODE
 70
  4095
  9
$ATTMODE
 70
     1
  9
$TEXTSIZE
 40
0.2
  9
$TRACEWID
 40
0.05
  9
$TEXTSTYLE
  7
STANDARD
  9
$CLAYER
  8
0
  9
$CELTYPE
  6
BYLAYER
  9
$CECOLOR
 62
   256
  9
$DIMSCALE
 40
1.0
  9
$DIMASZ
 40
0.1875
  9
$DIMEXO
 40
0.0625
  9
$DIMDLI
 40
0.4443307087
  9
$DIMRND
 40
0.0
  9
$DIMDLE
 40
0.0
  9
$DIMEXE
 40
0.125
  9
$DIMTP
 40
0.01
  9
$DIMTM
 40
0.01
  9
$DIMTXT
 40
2.0
  9
$DIMCEN
 40
0.1052362205
  9
$DIMTSZ
 40
0.0
  9
$DIMTOL
 70
     1
  9
$DIMLIM
 70
     0
  9
$DIMTIH
 70
     1
  9
$DIMTOH
 70
     1
  9
$DIMSE1
 70
     0
  9
$DIMSE2
 70
     0
  9
$DIMTAD
 70
     0
  9
$DIMZIN
 70
     0
  9
$DIMBLK
  1

  9
$DIMASO
 70
     1
  9
$DIMSHO
 70
     1
  9
$DIMPOST
  1
\X
  9
$DIMAPOST
  1

  9
$DIMALT
 70
     1
  9
$DIMALTD
 70
     2
  9
$DIMALTF
 40
25.3999999999999986
  9
$DIMLFAC
 40
1.0
  9
$DIMTOFL
 70
     0
  9
$DIMTVP
 40
0.0
  9
$DIMTIX
 70
     0
  9
$DIMSOXD
 70
     0
  9
$DIMSAH
 70
     0
  9
$DIMBLK1
  1

  9
$DIMBLK2
  1

  9
$DIMSTYLE
  2
STANDARD
  9
$DIMCLRD
 70
     0
  9
$DIMCLRE
 70
     0
  9
$DIMCLRT
 70
     0
  9
$DIMTFAC
 40
1.0
  9
$DIMGAP
 40
0.09
  9
$LUNITS
 70
     2
  9
$LUPREC
 70
     4
  9
$SKETCHINC
 40
0.1
  9
$FILLETRAD
 40
0.0
  9
$AUNITS
 70
     0
  9
$AUPREC
 70
     0
  9
$MENU
  1
.
  9
$ELEVATION
 40
0.0
  9
$PELEVATION
 40
0.0
  9
$THICKNESS
 40
0.0
  9
$LIMCHECK
 70
     0
  9
$BLIPMODE
 70
     0
  9
$CHAMFERA
 40
0.0
  9
$CHAMFERB
 40
0.0
  9
$SKPOLY
 70
     0
  9
$TDCREATE
 40
2458072.6192476861178875
  9
$TDUPDATE
 40
2458967.7367129628546536
  9
$TDINDWG
 40
0.0360039352
  9
$TDUSRTIMER
 40
0.0360039352
  9
$USRTIMER
 70
     1
  9
$ANGBASE
 50
0.0
  9
$ANGDIR
 70
     0
  9
$PDMODE
 70
     0
  9
$PDSIZE
 40
0.3125
  9
$PLINEWID
 40
0.0
  9
$COORDS
 70
     1
  9
$SPLFRAME
 70
     0
  9
$SPLINETYPE
 70
     6
  9
$SPLINESEGS
 70
     8
  9
$ATTDIA
 70
     1
  9
$ATTREQ
 70
     1
  9
$HANDLING
 70
     1
  9
$HANDSEED
  5
165E
  9
$SURFTAB1
 70
     6
  9
$SURFTAB2
 70
     6
  9
$SURFTYPE
 70
     6
  9
$SURFU
 70
     6
  9
$SURFV
 70
     6
  9
$UCSNAME
  2

  9
$UCSORG
 10
0.0
 20
0.0
 30
0.0
  9
$UCSXDIR
 10
1.0
 20
0.0
 30
0.0
  9
$UCSYDIR
 10
0.0
 20
1.0
 30
0.0
  9
$PUCSNAME
  2

  9
$PUCSORG
 10
0.0
 20
0.0
 30
0.0
  9
$PUCSXDIR
 10
1.0
 20
0.0
 30
0.0
  9
$PUCSYDIR
 10
0.0
 20
1.0
 30
0.0
  9
$USERI1
 70
     0
  9
$USERI2
 70
     0
  9
$USERI3
 70
     0
  9
$USERI4
 70
     0
  9
$USERI5
 70
     0
  9
$USERR1
 40
0.0
  9
$USERR2
 40
0.0
  9
$USERR3
 40
0.0
  9
$USERR4
 40
0.0
  9
$USERR5
 40
0.0
  9
$WORLDVIEW
 70
     1
  9
$SHADEDGE
 70
     3
  9
$SHADEDIF
 70
    70
  9
$TILEMODE
 70
     1
  9
$MAXACTVP
 70
    64
  9
$PLIMCHECK
 70
     0
  9
$PEXTMIN
 10
1.0000000000000000E+20
 20
1.0000000000000000E+20
 30
1.0000000000000000E+20
  9
$PEXTMAX
 10
-1.0000000000000000E+20
 20
-1.0000000000000000E+20
 30
-1.0000000000000000E+20
  9
$PLIMMIN
 10
0.0
 20
0.0
  9
$PLIMMAX
 10
12.0
 20
9.0
  9
$UNITMODE
 70
     0
  9
$VISRETAIN
 70
     1
  9
$PLINEGEN
 70
     0
  9
$PSLTSCALE
 70
     1
  0
ENDSEC
  0
SECTION
  2
TABLES
  0
TABLE
  2
VPORT
 70
     1
  0
VPORT
  2
*ACTIVE
 70
     0
 10
0.0
 20
0.0
 11
1.0
 21
1.0
 12
0.0
 22
0.0
 13
0.0
 23
0.0
 14
1.0
 24
1.0
 15
0.0
 25
0.0
 16
0.0
 26
0.0
 36
205.7918111391767013
 17
811.976104736328125
 27
105.7302284240721946
 37
0.0
 40
57.8572890128616919
 41
2.784968684759916
 42
50.0
 43
0.0
 44
0.0
 50
0.0
 51
0.0
 71
     0
 72
   100
 73
     1
 74
     1
 75
     0
 76
     0
 77
     0
 78
     0
  0
ENDTAB
  0
TABLE
  2
LTYPE
 70
     2
  0
LTYPE
  2
CONTINUOUS
 70
     0
  3
Solid line
 72
    65
 73
     0
 40
0.0
  0
LTYPE
  2
PHANTOM2
 70
     0
  3
___ _ _ ___ _ _ ___ _ _ ___ _ _
 72
    65
 73
     6
 40
1.25
 49
0.625
 49
-0.125
 49
0.125
 49
-0.125
 49
0.125
 49
-0.125
  0
ENDTAB
  0
TABLE
  2
LAYER
 70
     2
  0
LAYER
  2
0
 70
     0
 62
   255
  6
CONTINUOUS
  0
LAYER
  2
DEFPOINTS
 70
     0
 62
     7
  6
CONTINUOUS
  0
ENDTAB
  0
TABLE
  2
STYLE
 70
     1
  0
STYLE
  2
STANDARD
 70
     0
 40
0.0
 41
0.8
 50
0.0
 71
     0
 42
0.2
  3
txt
  4

  0
ENDTAB
  0
TABLE
  2
VIEW
 70
     0
  0
ENDTAB
  0
TABLE
  2
UCS
 70
     0
  0
ENDTAB
  0
TABLE
  2
APPID
 70
     9
  0
APPID
  2
ACAD
 70
     0
  0
APPID
  2
ACAD_MLEADERVER
 70
     0
  0
APPID
  2
ACAD_EXEMPT_FROM_CAD_STANDARDS
 70
     0
  0
APPID
  2
ACAD_NAV_VCDISPLAY
 70
     0
  0
APPID
  2
ACAD_DSTYLE_DIMJAG
 70
     0
  0
APPID
  2
ACAD_DSTYLE_DIMTALN
 70
     0
  0
APPID
  2
ACAECLAYERSTANDARD
 70
     0
  0
APPID
  2
ACCMTRANSPARENCY
 70
     0
  0
APPID
  2
ACDBATTR
 70
     0
  0
ENDTAB
  0
TABLE
  2
DIMSTYLE
 70
     1
  0
DIMSTYLE
  2
STANDARD
 70
     0
  3

  4

  5

  6

  7

 40
1.0
 41
0.1875
 42
0.0625
 43
0.38
 44
0.125
 45
0.0
 46
0.0
 47
0.01
 48
0.01
140
0.15625
141
0.09
142
0.0
143
25.3999999999999986
144
1.0
145
0.0
146
1.0
147
0.09
 71
     1
 72
     0
 73
     1
 74
     1
 75
     0
 76
     0
 77
     0
 78
     4
170
     0
171
     2
172
     0
173
     0
174
     0
175
     0
176
     0
177
     0
178
     0
  0
ENDTAB
  0
ENDSEC
  0
SECTION
  2
BLOCKS
  0
BLOCK
  8
0
  2
$MODEL_SPACE
 70
     0
 10
0.0
 20
0.0
 30
0.0
  3
$MODEL_SPACE
  1

  0
ENDBLK
  5
21
  8
0
  0
BLOCK
 67
     1
  8
0
  2
$PAPER_SPACE
 70
     0
 10
0.0
 20
0.0
 30
0.0
  3
$PAPER_SPACE
  1

  0
ENDBLK
  5
1D
 67
     1
  8
0
  0
ENDSEC
  0
SECTION
  2
ENTITIES
  0
ATTDEF
  5
FEC
  8
DEFPOINTS
 10
812.1349906721452498
 20
76.8556318685646715
 30
0.0
 40
0.001
  1
5407-59*
  3

  2
MODELNUMBER
 70
     0
1001
ACDBATTR
1070
     0
1070
     1
  0
ATTDEF
  5
FED
  8
DEFPOINTS
 10
812.1349906721452498
 20
76.8539652018980064
 30
0.0
 40
0.001
  1
FINESSE
  3

  2
TRADENAME
 70
     0
1001
ACDBATTR
1070
     0
1070
     1
  0
ATTDEF
  5
FEE
  8
DEFPOINTS
 10
812.1349906721452498
 20
76.8522985352313412
 30
0.0
 40
0.001
  1
BATH DOOR
  3

  2
PRODUCT
 70
     0
1001
ACDBATTR
1070
     0
1070
     1
  0
LINE
  5
144A
  8
0
 10
811.0768301601518715
 20
106.4571709757463935
 30
0.0
 11
811.0808707809519547
 21
104.9571764179463003
 31
0.0
  0
LINE
  5
144B
  8
0
 10
813.1872362612518828
 20
104.9080802590463009
 30
0.0
 11
813.2202504223519099
 21
104.9080802590463009
 31
0.0
  0
LINE
  5
144C
  8
0
 10
813.2702504223517508
 20
106.458080259046298
 30
0.0
 11
813.2702504223517508
 21
104.958080259046298
 31
0.0
  0
LINE
  5
144D
  8
0
 10
813.1872362612518828
 20
106.5080802590463946
 30
0.0
 11
813.2202504223519099
 21
106.5080802590463946
 31
0.0
  0
ARC
  5
144E
  8
0
 10
811.1308705995519404
 20
104.9573111053464061
 30
0.0
 40
0.05
 50
180.1543405323999139
 51
215.7934736587588134
  0
ARC
  5
144F
  8
0
 10
811.1268299787517435
 20
106.4573056631463004
 30
0.0
 40
0.05
 50
136.9130620905596913
 51
180.1543405323999139
  0
ARC
  5
1450
  8
0
 10
813.2202504223519099
 20
104.958080259046298
 30
0.0
 40
0.05
 50
270.0
 51
0.0
  0
ARC
  5
1451
  8
0
 10
813.2202504223519099
 20
106.458080259046298
 30
0.0
 40
0.05
 50
0.0
 51
90.0
  0
LINE
  5
1452
  8
0
 10
813.1212362612518518
 20
76.8529108579463411
 30
0.0
 11
813.1082362612518182
 21
76.8529108579463411
 31
0.0
  0
LINE
  5
1453
  8
0
 10
811.0903140773518771
 20
76.8529108579463411
 30
0.0
 11
811.1483557664518003
 21
76.8529108579463411
 31
0.0
  0
LINE
  5
1454
  8
0
 10
813.1372362612520419
 20
76.8529108579463411
 30
0.0
 11
813.1872362612518828
 21
76.8529108579463411
 31
0.0
  0
LINE
  5
1455
  8
0
 10
811.434086256851856
 20
76.8447946671463455
 30
0.0
 11
811.3721379965518281
 21
76.8468951640463445
 31
0.0
  0
LINE
  5
1456
  8
0
 10
811.228368619951766
 20
76.851769992546366
 30
0.0
 11
811.1657386545517738
 21
76.8538936042463234
 31
0.0
  0
LINE
  5
1457
  8
0
 10
813.1872362612518828
 20
76.99793594604634
 30
0.0
 11
813.2265178309520479
 21
76.99793594604634
 31
0.0
  0
LINE
  5
1458
  8
0
 10
813.0762362612517791
 20
77.3216136208463638
 30
0.0
 11
812.9032362612517773
 21
77.3216136208463638
 31
0.0
  0
LINE
  5
1459
  8
0
 10
812.8872362612518145
 20
77.3489625269463374
 30
0.0
 11
812.7514497920517442
 21
77.3489625269463374
 31
0.0
  0
LINE
  5
145A
  8
0
 10
812.9032362612517773
 20
77.3666136208463513
 30
0.0
 11
813.0512362612519155
 21
77.3666136208463513
 31
0.0
  0
LINE
  5
145B
  8
0
 10
813.0512362612519155
 20
77.4686136208463552
 30
0.0
 11
812.9032362612517773
 21
77.4686136208463552
 31
0.0
  0
LINE
  5
145C
  8
0
 10
812.8872362612518145
 20
77.4859625269463379
 30
0.0
 11
812.7514497920517442
 21
77.4859625269463379
 31
0.0
  0
LINE
  5
145D
  8
0
 10
811.608646052551876
 20
77.7589108579463471
 30
0.0
 11
811.5452362612519437
 21
77.7589108579463471
 31
0.0
  0
LINE
  5
145E
  8
0
 10
811.5452362612519437
 20
77.803910857946363
 30
0.0
 11
811.5619860905519545
 21
77.803910857946363
 31
0.0
  0
LINE
  5
145F
  8
0
 10
813.0561350076518465
 20
77.6017112397463507
 30
0.0
 11
811.7161746905519522
 21
77.6479793346463509
 31
0.0
  0
LINE
  5
1460
  8
0
 10
812.871197158251789
 20
77.5321737186463622
 30
0.0
 11
811.5431073919520486
 21
77.578551635246356
 31
0.0
  0
LINE
  5
1461
  8
0
 10
811.5452753641518484
 20
77.6235033574463387
 30
0.0
 11
813.0561678189518489
 21
77.5707418303463498
 31
0.0
  0
LINE
  5
1462
  8
0
 10
811.6350890102520452
 20
77.6419503997463494
 30
0.0
 11
812.2179885460518562
 21
77.6215955204463341
 31
0.0
  0
LINE
  5
1463
  8
0
 10
811.5784308066519088
 20
78.4845997143463308
 30
0.0
 11
811.1582182638519498
 21
78.5219130637463536
 31
0.0
  0
LINE
  5
1464
  8
0
 10
811.5394465475518473
 20
78.4101209069463323
 30
0.0
 11
811.2656712542518562
 21
78.4392311913463516
 31
0.0
  0
LINE
  5
1465
  8
0
 10
811.2704292433518276
 20
78.4839789459463475
 30
0.0
 11
811.5476410869517849
 21
78.4545032562463405
 31
0.0
  0
LINE
  5
1466
  8
0
 10
811.4536003181517572
 20
133.4817744575462939
 30
0.0
 11
811.5072453590519217
 21
133.4994579777462889
 31
0.0
  0
LINE
  5
1467
  8
0
 10
811.5789516594968518
 20
134.473147165336286
 30
0.0
 11
811.6057387311518596
 21
134.4956241872463067
 31
0.0
  0
LINE
  5
1468
  8
0
 10
811.7117856143519248
 20
134.5193377234463128
 30
0.0
 11
811.5847357744518149
 21
134.4127302496463017
 31
0.0
  0
LINE
  5
1469
  8
0
 10
811.2831809048517471
 20
134.2393387024463038
 30
0.0
 11
811.2532494281517756
 21
134.2092703352462877
 31
0.0
  0
LINE
  5
146A
  8
0
 10
811.6295026676518773
 20
133.6603968100463078
 30
0.0
 11
811.6145369293517433
 21
133.6453626264463139
 31
0.0
  0
LINE
  5
146B
  8
0
 10
811.5048252561517756
 20
133.518861989046286
 30
0.0
 11
811.4748937795518486
 21
133.4887936217463107
 31
0.0
  0
LINE
  5
146C
  8
0
 10
813.1195456623516975
 20
77.4139108579463482
 30
0.0
 11
813.1350926676517474
 21
77.3869826547463333
 31
0.0
  0
LINE
  5
146D
  8
0
 10
812.7265178309519342
 20
77.4174625269463661
 30
0.0
 11
812.7514497920517442
 21
77.3489625269463374
 31
0.0
  0
LINE
  5
146E
  8
0
 10
811.5779954025518919
 20
77.8199436082463478
 30
0.0
 11
811.557180876751886
 21
78.3944245189463516
 31
0.0
  0
LINE
  5
146F
  8
0
 10
811.6021513689519224
 20
78.3960538845463475
 30
0.0
 11
811.6246355608517433
 21
77.7754901879463603
 31
0.0
  0
LINE
  5
1470
  8
0
 10
811.658281813851886
 20
77.7058484910463392
 30
0.0
 11
811.6330874007519469
 21
78.4269299680463519
 31
0.0
  0
LINE
  5
1471
  8
0
 10
811.5735459907518816
 20
134.4195320656463082
 30
0.0
 11
811.57323626125185
 21
134.4608904542463108
 31
0.0
  0
LINE
  5
1472
  8
0
 10
811.2532494281517756
 20
134.2092703352462877
 30
0.0
 11
811.2548259068519201
 21
133.5182916116463048
 31
0.0
  0
LINE
  5
1473
  8
0
 10
811.2831809048517471
 20
134.2393387024463038
 30
0.0
 11
811.2848942740519078
 21
133.4883601349463049
 31
0.0
  0
LINE
  5
1474
  8
0
 10
811.4748937795518486
 20
133.4887936217463107
 30
0.0
 11
811.4731804103518016
 21
134.2397721892463096
 31
0.0
  0
LINE
  5
1475
  8
0
 10
811.5048252561517756
 20
133.518861989046286
 30
0.0
 11
811.5032487775517893
 21
134.2098407126462973
 31
0.0
  0
LINE
  5
1476
  8
0
 10
811.6145369293517433
 20
133.6453626264463139
 30
0.0
 11
811.6135365318517643
 21
134.0838420072462895
 31
0.0
  0
LINE
  5
1477
  8
0
 10
811.6300627476518912
 20
133.4149108579462961
 30
0.0
 11
811.6284777216518478
 21
134.1096359018463033
 31
0.0
  0
LINE
  5
1478
  8
0
 10
811.7084775134519532
 20
134.109818422646299
 30
0.0
 11
811.7100629558517539
 21
133.4149108579462961
 31
0.0
  0
LINE
  5
1479
  8
0
 10
811.7293807701519199
 20
133.7139391729463114
 30
0.0
 11
811.728692092351821
 21
134.0157902080462975
 31
0.0
  0
LINE
  5
147A
  8
0
 10
811.7336964733518698
 20
134.0138757102463103
 30
0.0
 11
811.7343763631517959
 21
133.7158764858463087
 31
0.0
  0
LINE
  5
147B
  8
0
 10
811.7790830720518898
 20
133.8444788193463069
 30
0.0
 11
811.7789895301517618
 21
133.8854787126462895
 31
0.0
  0
LINE
  5
147C
  8
0
 10
811.5765726467518562
 20
77.6595526567463423
 30
0.0
 11
811.576494245265053
 21
77.7431107618463386
 31
0.0
  0
LINE
  5
147D
  8
0
 10
811.0412362612519246
 20
133.1220810123463139
 30
0.0
 11
811.0412362612519246
 21
133.4910810123463136
 31
0.0
  0
LINE
  5
147E
  8
0
 10
811.0903140773518771
 20
133.1304541292047929
 30
0.0
 11
811.0903140773518771
 21
131.9370772618740943
 31
0.0
  0
LINE
  5
147F
  8
0
 10
811.0903140773518771
 20
131.9150847628185943
 30
0.0
 11
811.0903140773518771
 21
76.8529108579463411
 31
0.0
  0
LINE
  5
1480
  8
0
 10
811.0912362612517654
 20
133.4910810123463136
 30
0.0
 11
811.0912362612517654
 21
133.138081012346305
 31
0.0
  0
LINE
  5
1481
  8
0
 10
811.0912362612517654
 20
131.9300810123463066
 30
0.0
 11
811.0912362612517654
 21
131.9220810123462968
 31
0.0
  0
LINE
  5
1482
  8
0
 10
811.1063352169519476
 20
133.4149108579462961
 30
0.0
 11
811.1063352169519476
 21
76.8529108579463411
 31
0.0
  0
LINE
  5
1483
  8
0
 10
811.1483557664518003
 20
133.4149108579462961
 30
0.0
 11
811.1483557664518003
 21
76.8529108579463411
 31
0.0
  0
LINE
  5
1484
  8
0
 10
811.1582182638519498
 20
78.5219130637463536
 30
0.0
 11
811.1582182638519498
 21
133.4149108579462961
 31
0.0
  0
LINE
  5
1485
  8
0
 10
811.1582182638519498
 20
78.5219130637463536
 30
0.0
 11
811.1582362612518864
 21
77.1047778324463309
 31
0.0
  0
LINE
  5
1486
  8
0
 10
811.2382362612519273
 20
133.5510810123462875
 30
0.0
 11
811.2382362612519273
 21
133.5148103809463009
 31
0.0
  0
LINE
  5
1487
  8
0
 10
811.4842362612519082
 20
77.6395144756463367
 30
0.0
 11
811.4842362612519082
 21
77.7429108579463559
 31
0.0
  0
LINE
  5
1488
  8
0
 10
811.5182362612517863
 20
133.5146536658463106
 30
0.0
 11
811.5182362612517863
 21
133.6130810123462993
 31
0.0
  0
LINE
  5
1489
  8
0
 10
811.5292362612517536
 20
77.7429108579463559
 30
0.0
 11
811.5292362612517536
 21
77.6395144756463367
 31
0.0
  0
LINE
  5
148A
  8
0
 10
811.5602362612518164
 20
133.5950810123462986
 30
0.0
 11
811.5602362612518164
 21
133.5203271854462912
 31
0.0
  0
LINE
  5
148B
  8
0
 10
811.9039863107517476
 20
126.0336608579463018
 30
0.0
 11
811.9039863107517476
 21
125.7961608579463046
 31
0.0
  0
LINE
  5
148C
  8
0
 10
812.3914863107518158
 20
125.7961608579463046
 30
0.0
 11
812.3914863107518158
 21
126.0336608579463018
 31
0.0
  0
LINE
  5
148D
  8
0
 10
811.1502900491518631
 20
76.8704266194463628
 30
0.0
 11
811.2030145605518783
 21
78.4253880346463461
 31
0.0
  0
LINE
  5
148E
  8
0
 10
811.2480238757517554
 20
78.4249000663463249
 30
0.0
 11
811.2000848211517905
 21
77.011072261146353
 31
0.0
  0
LINE
  5
148F
  8
0
 10
811.1974605136517766
 20
76.9336756822463315
 30
0.0
 11
811.1969867079518508
 21
76.9197021118463624
 31
0.0
  0
LINE
  5
1490
  8
0
 10
811.4068660930518035
 20
76.9125856728463333
 30
0.0
 11
811.4073398988518875
 21
76.926559243346361
 31
0.0
  0
LINE
  5
1491
  8
0
 10
811.4524579813519267
 20
76.9292790622463656
 30
0.0
 11
811.4501177421517468
 21
76.8602602780463542
 31
0.0
  0
LINE
  5
1492
  8
0
 10
812.7062362612517745
 20
134.4620103124462958
 30
0.0
 11
812.7062362612517745
 21
134.4180925607462882
 31
0.0
  0
LINE
  5
1493
  8
0
 10
812.7514497920517442
 20
77.4288481225463556
 30
0.0
 11
812.7514497920517442
 21
77.3489625269463374
 31
0.0
  0
LINE
  5
1494
  8
0
 10
812.8872362612518145
 20
77.3376136208463549
 30
0.0
 11
812.8872362612518145
 21
77.3506136208463602
 31
0.0
  0
LINE
  5
1495
  8
0
 10
812.8872362612518145
 20
77.4846136208463463
 30
0.0
 11
812.8872362612518145
 21
77.5161626004463358
 31
0.0
  0
LINE
  5
1496
  8
0
 10
813.0672362612517645
 20
77.3826136208463424
 30
0.0
 11
813.0672362612517645
 21
77.4526136208463356
 31
0.0
  0
LINE
  5
1497
  8
0
 10
813.0922362612518555
 20
76.8689108579463607
 30
0.0
 11
813.0922362612518555
 21
77.3056136208463442
 31
0.0
  0
LINE
  5
1498
  8
0
 10
813.1232362612518045
 20
77.5641940179463347
 30
0.0
 11
813.1232362612518045
 21
133.4149108579462961
 31
0.0
  0
LINE
  5
1499
  8
0
 10
813.1372362612520419
 20
76.8529108579463411
 30
0.0
 11
813.1372362612520419
 21
133.4149108579462961
 31
0.0
  0
LINE
  5
149A
  8
0
 10
813.1872362612518828
 20
133.4910810123463136
 30
0.0
 11
813.1872362612518828
 21
76.8529108579463411
 31
0.0
  0
LINE
  5
149B
  8
0
 10
813.1872362612518828
 20
133.5830810123462982
 30
0.0
 11
813.1872362612518828
 21
134.4915534720462915
 31
0.0
  0
LINE
  5
149C
  8
0
 10
813.2265178309520479
 20
76.99793594604634
 30
0.0
 11
813.2265178309520479
 21
78.4029268063463576
 31
0.0
  0
LINE
  5
149D
  8
0
 10
813.2463602855518729
 20
134.4915534720462915
 30
0.0
 11
813.2463602855518729
 21
131.9110810123463011
 31
0.0
  0
LINE
  5
149E
  8
0
 10
813.381146020051915
 20
126.1024108579462961
 30
0.0
 11
813.381146020051915
 21
125.727410895646301
 31
0.0
  0
LINE
  5
149F
  8
0
 10
811.6075838485519398
 20
78.2527921469463479
 30
0.0
 11
811.6188786316517962
 21
78.4634358380463652
 31
0.0
  0
LINE
  5
14A0
  8
0
 10
812.7265178309519342
 20
77.4174625269463661
 30
0.0
 11
812.7514497920517442
 21
77.4859625269463379
 31
0.0
  0
LINE
  5
14A1
  8
0
 10
811.2940470058517803
 20
78.3020310883463537
 30
0.0
 11
811.3692012987518183
 21
78.4222130939463398
 31
0.0
  0
LINE
  5
14A2
  8
0
 10
811.3992596554519423
 20
78.4702805223463429
 30
0.0
 11
811.4171683647518876
 21
78.4989190009463584
 31
0.0
  0
LINE
  5
14A3
  8
0
 10
813.1350926676517474
 20
77.4488390611463444
 30
0.0
 11
813.1195456623516975
 21
77.421910857946358
 31
0.0
  0
LINE
  5
14A4
  8
0
 10
811.4730374566519231
 20
78.4939581090463605
 30
0.0
 11
811.454554347551948
 21
78.4644010867463351
 31
0.0
  0
LINE
  5
14A5
  8
0
 10
811.4280198602517657
 20
78.4219688079463424
 30
0.0
 11
811.3364404928519207
 21
78.2755208589463507
 31
0.0
  0
LINE
  5
14A6
  8
0
 10
811.2848942740519078
 20
133.4883601349463049
 30
0.0
 11
811.2548259068519201
 21
133.5182916116463048
 31
0.0
  0
LINE
  5
14A7
  8
0
 10
812.0289863107518613
 20
125.6711608579463046
 30
0.0
 11
812.2664863107518158
 21
125.6711608579463046
 31
0.0
  0
LINE
  5
14A8
  8
0
 10
812.2664863107518158
 20
126.1586608579463018
 30
0.0
 11
812.0289863107518613
 21
126.1586608579463018
 31
0.0
  0
LINE
  5
14A9
  8
0
 10
811.6285707154519287
 20
134.0688762689462976
 30
0.0
 11
811.6135365318517643
 21
134.0838420072462895
 31
0.0
  0
LINE
  5
14AA
  8
0
 10
811.5032487775517893
 20
134.2098407126462973
 30
0.0
 11
811.4731804103518016
 21
134.2397721892463096
 31
0.0
  0
LINE
  5
14AB
  8
0
 10
812.6938331135518183
 20
134.4138928121462868
 30
0.0
 11
812.5676869081519271
 21
134.5193377234463128
 31
0.0
  0
LINE
  5
14AC
  8
0
 10
812.6737223097517244
 20
134.4956338214462903
 30
0.0
 11
812.700520862951862
 21
134.4731471653462904
 31
0.0
  0
LINE
  5
14AD
  8
0
 10
812.7265178309519342
 20
77.4174625269463661
 30
0.0
 11
812.8765178309519115
 21
77.4859625269463379
 31
0.0
  0
LINE
  5
14AE
  8
0
 10
811.4748937795518486
 20
133.4887936217463107
 30
0.0
 11
811.4069100333518918
 21
133.4886385158463042
 31
0.0
  0
LINE
  5
14AF
  8
0
 10
811.3244676777519544
 20
133.4884504223462898
 30
0.0
 11
811.2848942740519078
 21
133.4883601349463049
 31
0.0
  0
LINE
  5
14B0
  8
0
 10
811.6145369293517433
 20
133.6453626264463139
 30
0.0
 11
811.5045372156519079
 21
133.6451116604463039
 31
0.0
  0
LINE
  5
14B1
  8
0
 10
811.7293807701519199
 20
133.7139391729463114
 30
0.0
 11
811.7093808222517737
 21
133.7138935427462911
 31
0.0
  0
LINE
  5
14B2
  8
0
 10
811.7416041402518658
 20
133.7158929761463071
 30
0.0
 11
811.7343763631517959
 21
133.7158764858463087
 31
0.0
  0
LINE
  5
14B3
  8
0
 10
811.7292300237519385
 20
133.7800120975462903
 30
0.0
 11
811.7092300758519059
 21
133.7799664673462985
 31
0.0
  0
LINE
  5
14B4
  8
0
 10
811.7291286965519248
 20
133.8244243199463028
 30
0.0
 11
811.7091287486517786
 21
133.824378689746311
 31
0.0
  0
LINE
  5
14B5
  8
0
 10
811.7790830720518898
 20
133.8444788193463069
 30
0.0
 11
811.8462558283401904
 21
133.8446320749606002
 31
0.0
  0
LINE
  5
14B6
  8
0
 10
811.8461622864479068
 20
133.8856319682448941
 30
0.0
 11
811.7789895301517618
 21
133.8854787126462895
 31
0.0
  0
LINE
  5
14B7
  8
0
 10
811.7089442179518528
 20
133.9052594308462858
 30
0.0
 11
811.7289441659519298
 21
133.905305061046306
 31
0.0
  0
LINE
  5
14B8
  8
0
 10
811.7088428907518391
 20
133.9496716531463107
 30
0.0
 11
811.7288428387519161
 21
133.9497172833463026
 31
0.0
  0
LINE
  5
14B9
  8
0
 10
811.7409242504518261
 20
134.0138922005463087
 30
0.0
 11
811.7336964733518698
 21
134.0138757102463103
 31
0.0
  0
LINE
  5
14BA
  8
0
 10
811.7086921443518577
 20
134.0157445778463057
 30
0.0
 11
811.728692092351821
 21
134.0157902080462975
 31
0.0
  0
LINE
  5
14BB
  8
0
 10
811.6135365318517643
 20
134.0838420072462895
 30
0.0
 11
811.5035368180518844
 21
134.0835910412463079
 31
0.0
  0
LINE
  5
14BC
  8
0
 10
811.4731804103518016
 20
134.2397721892463096
 30
0.0
 11
811.4051966640518003
 21
134.2396170833463032
 31
0.0
  0
LINE
  5
14BD
  8
0
 10
811.3227543085519073
 20
134.2394289898462887
 30
0.0
 11
811.2831809048517471
 21
134.2393387024463038
 31
0.0
  0
LINE
  5
14BE
  8
0
 10
813.2303602855517966
 20
131.89508101234631
 30
0.0
 11
813.2032362612519591
 21
131.89508101234631
 31
0.0
  0
LINE
  5
14BF
  8
0
 10
811.0912362612517654
 20
133.4149108579462961
 30
0.0
 11
813.1872362612518828
 21
133.4149108579462961
 31
0.0
  0
LINE
  5
14C0
  8
0
 10
811.3667161249518358
 20
133.4589108579463073
 30
0.0
 11
811.3927161249517894
 21
133.4589108579463073
 31
0.0
  0
LINE
  5
14C1
  8
0
 10
811.1605646621519554
 20
133.5070810123463048
 30
0.0
 11
811.1072362612519555
 21
133.5070810123463048
 31
0.0
  0
LINE
  5
14C2
  8
0
 10
811.0252362612518482
 20
133.5070810123463048
 30
0.0
 11
810.6808389077518768
 21
133.5070810123463048
 31
0.0
  0
LINE
  5
14C3
  8
0
 10
810.7023574409518005
 20
133.567081012346307
 30
0.0
 11
811.2222362612519646
 21
133.567081012346307
 31
0.0
  0
LINE
  5
14C4
  8
0
 10
811.5252362612518482
 20
133.6200810123463043
 30
0.0
 11
811.5352362612519528
 21
133.6200810123463043
 31
0.0
  0
LINE
  5
14C5
  8
0
 10
812.9972729694518421
 20
134.5230810123462959
 30
0.0
 11
812.6849716601518594
 21
134.5230810123462959
 31
0.0
  0
LINE
  5
14C6
  8
0
 10
812.5574023063517188
 20
134.5230810123462959
 30
0.0
 11
811.7220702160518613
 21
134.5230810123462959
 31
0.0
  0
LINE
  5
14C7
  8
0
 10
811.5945008622517207
 20
134.5230810123462959
 30
0.0
 11
811.3195155312519091
 21
134.5230810123462959
 31
0.0
  0
LINE
  5
14C8
  8
0
 10
811.3177537159517669
 20
134.5830810123462982
 30
0.0
 11
812.9990347847518706
 21
134.5830810123462982
 31
0.0
  0
LINE
  5
14C9
  8
0
 10
811.2494220943518712
 20
133.49955181624631
 30
0.0
 11
811.3087071635518441
 21
133.4808470283462896
 31
0.0
  0
ARC
  5
14CA
  8
0
 10
811.1649128676517648
 20
76.7189852542463484
 30
0.0
 40
0.28
 50
61.1656100915013923
 51
80.0465987228984659
  0
ARC
  5
14CB
  8
0
 10
811.1887121219518804
 20
76.712036909946363
 30
0.0
 40
0.23
 50
61.5479292019015034
 51
85.6480765402017425
  0
ARC
  5
14CC
  8
0
 10
811.1127295881517512
 20
76.8154575914463464
 30
0.0
 40
0.131
 50
21.13411535530118
 51
47.9924271051006102
  0
ARC
  5
14CD
  8
0
 10
811.1662808594519447
 20
76.8698844145463624
 30
0.0
 40
0.016
 50
178.0579999991003035
 51
268.0579999991002751
  0
ARC
  5
14CE
  8
0
 10
811.2160756314518721
 20
77.0105300562463526
 30
0.0
 40
0.016
 50
178.0579999999995948
 51
260.0465987228985227
  0
ARC
  5
14CF
  8
0
 10
811.227340564848987
 20
76.8598108696617146
 30
0.0
 40
0.0081063309875117
 50
277.285943385437804
 51
20.8034152392455987
  0
ARC
  5
14D0
  8
0
 10
811.2052200840314526
 20
76.9194757511127136
 30
0.0
 40
0.0082364872123494
 50
178.425160634234004
 51
234.1697729937914971
  0
ARC
  5
14D1
  8
0
 10
811.2054569817496485
 20
76.9334040833533663
 30
0.0
 40
0.0080010791255043
 50
84.9227372163395273
 51
178.0547045868846112
  0
ARC
  5
14D2
  8
0
 10
811.3021009014518086
 20
76.9212903082463413
 30
0.0
 40
0.008
 50
241.547929203101603
 51
294.5680707970980734
  0
ARC
  5
14D3
  8
0
 10
811.3038093813520391
 20
76.9712782554463502
 30
0.0
 40
0.008
 50
241.1656100804000005
 51
294.778214762598509
  0
ARC
  5
14D4
  8
0
 10
811.2639795247519032
 20
78.4233208786463649
 30
0.0
 40
0.061
 50
83.9305952989028299
 51
178.0580000001999963
  0
ARC
  5
14D5
  8
0
 10
811.3152437493519074
 20
78.2887759736463522
 30
0.0
 40
0.025
 50
147.9807209818976048
 51
327.9807209822004097
  0
ARC
  5
14D6
  8
0
 10
811.2639988117135772
 20
78.4232595681274063
 30
0.0
 40
0.0160589480784216
 50
84.0221511429772931
 51
174.1367344711902092
  0
ARC
  5
14D7
  8
0
 10
811.4245121667519243
 20
76.70979242874634
 30
0.0
 40
0.28
 50
97.7851044505011373
 51
114.7782147942011051
  0
ARC
  5
14D8
  8
0
 10
811.4010551225460404
 20
76.7048369356203068
 30
0.0
 40
0.2300000008267574
 50
90.4414990364587368
 51
114.5680707232912994
  0
ARC
  5
14D9
  8
0
 10
811.48386851595194
 20
76.8028732800463558
 30
0.0
 40
0.131
 50
127.6976918775987997
 51
154.9818846450995977
  0
ARC
  5
14DA
  8
0
 10
811.3944312727383021
 20
76.9297163953737311
 30
0.0
 40
0.0580283566266372
 50
359.5681838826862986
 51
97.7720897228405335
  0
ARC
  5
14DB
  8
0
 10
811.4341130578955017
 20
76.860808723214376
 30
0.0
 40
0.0160140784950392
 50
269.9041101614722038
 51
358.0373683035547856
  0
ARC
  5
14DC
  8
0
 10
811.3993444936518245
 20
76.9268303457463389
 30
0.0
 40
0.008
 50
358.0580000008998809
 51
90.4414990244013666
  0
ARC
  5
14DD
  8
0
 10
811.3988706878518542
 20
76.9128567752463539
 30
0.0
 40
0.008
 50
307.6976918454009251
 51
358.0580000004998737
  0
ARC
  5
14DE
  8
0
 10
811.3724090990685909
 20
76.8548905692811957
 30
0.0
 40
0.0080000000353941
 50
154.9818849930094871
 51
268.0579998887064903
  0
ARC
  5
14DF
  8
0
 10
811.5452362612519437
 20
77.6395144756463367
 30
0.0
 40
0.061
 50
180.0
 51
267.9999999998008207
  0
ARC
  5
14E0
  8
0
 10
811.541191368451905
 20
78.3938451889463579
 30
0.0
 40
0.061
 50
2.075026361599662
 51
83.9305952986997852
  0
ARC
  5
14E1
  8
0
 10
811.5452362612519437
 20
77.7429108579463559
 30
0.0
 40
0.061
 50
90.0
 51
180.0
  0
ARC
  5
14E2
  8
0
 10
811.5731239908518546
 20
78.4248348609463335
 30
0.0
 40
0.06
 50
2.0010866929000639
 51
84.9257336406041645
  0
ARC
  5
14E3
  8
0
 10
811.5760393410386087
 20
77.6809897043149249
 30
0.0
 40
0.0621227231106055
 50
35.4495655337202109
 51
89.5804381409605668
  0
ARC
  5
14E4
  8
0
 10
811.5452549356463123
 20
77.6395220205914427
 30
0.0
 40
0.0160186761712721
 50
180.0269868447672934
 51
270.073068926403721
  0
ARC
  5
14E5
  8
0
 10
811.5452362612519437
 20
77.7429108579463559
 30
0.0
 40
0.016
 50
90.0
 51
180.0
  0
ARC
  5
14E6
  8
0
 10
811.608646052551876
 20
77.7749108579463666
 30
0.0
 40
0.016
 50
270.0000000000977138
 51
2.075026361400071
  0
ARC
  5
14E7
  8
0
 10
811.5619792064555895
 20
77.8199270611109739
 30
0.0
 40
0.0160162046440817
 50
270.0246269127695768
 51
0.0591951220587489
  0
ARC
  5
14E8
  8
0
 10
811.538738229860769
 20
78.3914539974657885
 30
0.0
 40
0.0186803432384595
 50
9.1499351900637063
 51
87.8269486302761067
  0
ARC
  5
14E9
  8
0
 10
811.6392696724725511
 20
77.7619145199470836
 30
0.0
 40
0.1200369446134911
 50
238.5123741267086075
 51
268.0040915417218912
  0
ARC
  5
14EA
  8
0
 10
811.6674344973042707
 20
78.2495595429623165
 30
0.0
 40
0.0599360373133002
 50
182.0581107294401022
 51
244.0071660101149007
  0
ARC
  5
14EB
  8
0
 10
811.7182452237517509
 20
77.7079435981463575
 30
0.0
 40
0.06
 50
182.0010866954002893
 51
268.0223938528969256
  0
ARC
  5
14EC
  8
0
 10
811.6692369766517459
 20
77.759252855746098
 30
0.0
 40
0.0599853501997676
 50
246.4035984260324881
 51
259.9296490543432014
  0
ARC
  5
14ED
  8
0
 10
811.6692454015518479
 20
77.7592395776463547
 30
0.0
 40
0.0599765562
 50
224.7435144320010068
 51
246.3911455178005099
  0
ARC
  5
14EE
  8
0
 10
811.3797161249517558
 20
133.7059108579462929
 30
0.0
 40
0.291
 50
224.4086730105005074
 51
275.5687290055006997
  0
ARC
  5
14EF
  8
0
 10
811.3797161249517558
 20
133.7059108579462929
 30
0.0
 40
0.286
 50
278.7174293676005163
 51
300.7749515408991101
  0
ARC
  5
14F0
  8
0
 10
811.3797161249517558
 20
133.7059108579462929
 30
0.0
 40
0.236
 50
276.3793702085004043
 51
288.2442571515016994
  0
ARC
  5
14F1
  8
0
 10
811.3797161249517558
 20
133.7059108579462929
 30
0.0
 40
0.236
 50
252.4892081542980975
 51
263.6206297914997094
  0
ARC
  5
14F2
  8
0
 10
811.3195155312519091
 20
134.7080810123462982
 30
0.0
 40
0.185
 50
240.0097138991988004
 51
270.0000000014003945
  0
ARC
  5
14F3
  8
0
 10
811.3642440146530816
 20
134.1218256690837052
 30
0.0
 40
0.1247074046188754
 50
70.8289232481847364
 51
109.4325186996748016
  0
ARC
  5
14F4
  8
0
 10
811.3654203272031964
 20
133.6062418355880936
 30
0.0
 40
0.1247074036719307
 50
250.8289230713176039
 51
289.4325188762388166
  0
ARC
  5
14F5
  8
0
 10
811.3177537159517669
 20
134.7080810123462982
 30
0.0
 40
0.125
 50
240.3606622875952041
 51
270.0000000020974085
  0
ARC
  5
14F6
  8
0
 10
811.194552239451923
 20
134.4915534720462915
 30
0.0
 40
0.1241240244
 50
60.3606622850013821
 51
137.5315493943014076
  0
ARC
  5
14F7
  8
0
 10
811.194552239451923
 20
134.4915534720462915
 30
0.0
 40
0.065
 50
60.0097138962046301
 51
137.5315493953966097
  0
ARC
  5
14F8
  8
0
 10
810.6808389077518768
 20
133.4750810123462941
 30
0.0
 40
0.032
 50
90.0
 51
172.0169267860999867
  0
ARC
  5
14F9
  8
0
 10
811.0592362612519537
 20
133.138081012346305
 30
0.0
 40
0.032
 50
270.0
 51
0.0
  0
ARC
  5
14FA
  8
0
 10
810.7023574409518005
 20
133.5990810123462893
 30
0.0
 40
0.032
 50
168.2933374469992884
 51
270.0
  0
ARC
  5
14FB
  8
0
 10
811.0642362612518355
 20
131.9220810123462968
 30
0.0
 40
0.027
 50
219.9173541494022004
 51
0.0
  0
ARC
  5
14FC
  8
0
 10
811.0642356787227527
 20
131.9300809099698029
 30
0.0
 40
0.0270005825292637
 50
0.0002172450010466
 51
39.8699804920879615
  0
ARC
  5
14FD
  8
0
 10
811.0252362612518482
 20
133.4910810123463136
 30
0.0
 40
0.016
 50
0.0
 51
90.0
  0
ARC
  5
14FE
  8
0
 10
811.0574121227953128
 20
133.1221538565827132
 30
0.0
 40
0.0161760255611941
 50
180.2580164947679862
 51
276.4749048321514238
  0
ARC
  5
14FF
  8
0
 10
811.1072362612519555
 20
133.4910810123463136
 30
0.0
 40
0.016
 50
90.0
 51
180.0
  0
ARC
  5
1500
  8
0
 10
811.1604025149333665
 20
133.4910765759753986
 30
0.0
 40
0.0160052577384185
 50
44.4124673650571395
 51
89.4195338587327626
  0
ARC
  5
1501
  8
0
 10
811.4064020447517578
 20
133.4322087174462865
 30
0.0
 40
0.016
 50
275.5687290055989251
 51
309.7780995326968991
  0
ARC
  5
1502
  8
0
 10
811.25423626125189
 20
133.5148103809463009
 30
0.0
 40
0.016
 50
180.0
 51
252.4892081531984047
  0
ARC
  5
1503
  8
0
 10
811.2222362612519646
 20
133.5510810123462875
 30
0.0
 40
0.016
 50
0.0
 51
90.0
  0
ARC
  5
1504
  8
0
 10
811.4068120749361697
 20
133.4642220998730124
 30
0.0
 40
0.0072032586774806
 50
96.9669147133496665
 51
174.878246166004601
  0
ARC
  5
1505
  8
0
 10
811.3927161249517894
 20
133.4659108579463123
 30
0.0
 40
0.007
 50
270.0000000001954277
 51
351.4086255851997862
  0
ARC
  5
1506
  8
0
 10
811.3667161249518358
 20
133.4659108579463123
 30
0.0
 40
0.007
 50
188.5913744148002138
 51
270.0000000002996217
  0
ARC
  5
1507
  8
0
 10
811.3526201749674556
 20
133.4642220998730124
 30
0.0
 40
0.0072032586774983
 50
5.1217538340413773
 51
83.0330852862040985
  0
ARC
  5
1508
  8
0
 10
811.6885353289519571
 20
133.8647722865462981
 30
0.0
 40
0.1590012077
 50
291.6103600532962901
 51
352.7229648318001978
  0
ARC
  5
1509
  8
0
 10
811.6885353289519571
 20
133.8647722865462981
 30
0.0
 40
0.1590012077
 50
7.5384771334001428
 51
68.6510402707013299
  0
ARC
  5
150A
  8
0
 10
812.0289863107518613
 20
126.0336608579463018
 30
0.0
 40
0.125
 50
90.0
 51
180.0
  0
ARC
  5
150B
  8
0
 10
812.0289863107518613
 20
125.7961608579463046
 30
0.0
 40
0.125
 50
180.0
 51
270.0
  0
ARC
  5
150C
  8
0
 10
811.4902362612517663
 20
133.5203271854462912
 30
0.0
 40
0.07
 50
300.7749515409984724
 51
0.0
  0
CIRCLE
  5
150D
  8
0
 10
812.1477363107519523
 20
125.9149108579462961
 30
0.0
 40
0.0582369251
  0
ARC
  5
150E
  8
0
 10
811.66847761755173
 20
134.109727162246287
 30
0.0
 40
0.04
 50
0.1307209827002117
 51
180.1307209827000975
  0
ARC
  5
150F
  8
0
 10
811.5352362612519528
 20
133.5950810123462986
 30
0.0
 40
0.025
 50
0.0
 51
90.0000000000976854
  0
ARC
  5
1510
  8
0
 10
811.4275482965066431
 20
133.4065915656611878
 30
0.0
 40
0.017217771290453
 50
105.1009368363212957
 51
129.316295372398514
  0
ARC
  5
1511
  8
0
 10
811.5022362612519373
 20
133.5146536658463106
 30
0.0
 40
0.016
 50
288.2442571519961803
 51
0.0
  0
ARC
  5
1512
  8
0
 10
811.5944731846077502
 20
134.5070414845741027
 30
0.0
 40
0.016039551652322
 50
314.6166904917376996
 51
89.9011310905018348
  0
ARC
  5
1513
  8
0
 10
811.5892362612520401
 20
134.4608904542463108
 30
0.0
 40
0.016
 50
129.9999999999018883
 51
179.9999999998998135
  0
ARC
  5
1514
  8
0
 10
811.7220702160518613
 20
134.5070810123463048
 30
0.0
 40
0.016
 50
90.0
 51
129.9999999997997975
  0
ARC
  5
1515
  8
0
 10
811.7415699176517592
 20
133.730892937046292
 30
0.0
 40
0.015
 50
270.1307209827011206
 51
291.6103600519015799
  0
ARC
  5
1516
  8
0
 10
811.7409584731507266
 20
133.9988922406244001
 30
0.0
 40
0.0149999989221474
 50
68.6506391390725952
 51
90.1307213696594118
  0
ARC
  5
1517
  8
0
 10
811.7192533147517679
 20
133.7697921227463951
 30
0.0
 40
0.015
 50
0.1307209727219025
 51
48.3204060548400705
  0
ARC
  5
1518
  8
0
 10
811.718819599751896
 20
133.9598916280463072
 30
0.0
 40
0.015
 50
311.9410358785013955
 51
0.1286043843000784
  0
ARC
  5
1519
  8
0
 10
811.5252362612518482
 20
133.6130810123462993
 30
0.0
 40
0.007
 50
90.0
 51
180.0
  0
ARC
  5
151A
  8
0
 10
811.5802535082206077
 20
134.4179615570130011
 30
0.0
 40
0.0068889250221077
 50
166.822068373307502
 51
310.5904872064147071
  0
ARC
  5
151B
  8
0
 10
812.2222288647518553
 20
77.7424496606463435
 30
0.0
 40
0.1209276292
 50
267.9905302103957752
 51
290.3298764330858717
  0
ARC
  5
151C
  8
0
 10
813.0532362612517545
 20
77.4867930008463475
 30
0.0
 40
0.084
 50
0.0
 51
88.0000000000028564
  0
ARC
  5
151D
  8
0
 10
813.0532362612517545
 20
77.5177612709463517
 30
0.0
 40
0.084
 50
33.5573097625021788
 51
88.0223938684023892
  0
ARC
  5
151E
  8
0
 10
813.1665078115709093
 20
78.4029278111673875
 30
0.0
 40
0.0600100193893948
 50
359.9990406267891103
 51
69.7927786599378663
  0
ARC
  5
151F
  8
0
 10
812.8712175868572558
 20
77.5161550555011445
 30
0.0
 40
0.0160186761714711
 50
0.0269868450979059
 51
90.0730692833849673
  0
ARC
  5
1520
  8
0
 10
812.9032362612517773
 20
77.4846136208463463
 30
0.0
 40
0.016
 50
180.0
 51
270.0
  0
ARC
  5
1521
  8
0
 10
813.0512362612519155
 20
77.4526136208463356
 30
0.0
 40
0.016
 50
0.0
 51
90.0
  0
ARC
  5
1522
  8
0
 10
813.0512362612519155
 20
77.3826136208463424
 30
0.0
 40
0.016
 50
270.0
 51
0.0
  0
ARC
  5
1523
  8
0
 10
812.9032362612517773
 20
77.3506136208463602
 30
0.0
 40
0.016
 50
90.0
 51
180.0
  0
ARC
  5
1524
  8
0
 10
812.9032362612517773
 20
77.3376136208463549
 30
0.0
 40
0.016
 50
180.0
 51
270.0
  0
ARC
  5
1525
  8
0
 10
813.0762362612517791
 20
77.3056136208463442
 30
0.0
 40
0.016
 50
0.0
 51
90.0
  0
ARC
  5
1526
  8
0
 10
813.1082362612518182
 20
76.8689108579463607
 30
0.0
 40
0.016
 50
180.0
 51
270.0
  0
ARC
  5
1527
  8
0
 10
813.1212362612518518
 20
76.8689108579463607
 30
0.0
 40
0.016
 50
270.0
 51
0.0
  0
ARC
  5
1528
  8
0
 10
813.1212362612518518
 20
77.378982654746352
 30
0.0
 40
0.016
 50
0.0
 51
30.0000000017002399
  0
ARC
  5
1529
  8
0
 10
813.1212362612518518
 20
77.4568390611463542
 30
0.0
 40
0.016
 50
329.9999999981002929
 51
0.0
  0
ARC
  5
152A
  8
0
 10
813.1264738655518158
 20
77.4179108579463389
 30
0.0
 40
0.008
 50
150.0000000025991085
 51
209.9999999979002041
  0
ARC
  5
152B
  8
0
 10
812.2664863107518158
 20
126.0336608579463018
 30
0.0
 40
0.125
 50
0.0
 51
90.0
  0
ARC
  5
152C
  8
0
 10
812.2664863107518158
 20
125.7961608579463046
 30
0.0
 40
0.125
 50
270.0
 51
0.0
  0
ARC
  5
152D
  8
0
 10
812.5989448917517848
 20
133.2060866273463091
 30
0.0
 40
2.028
 50
137.5315493943014076
 51
219.9173541503996887
  0
ARC
  5
152E
  8
0
 10
812.5989448919725646
 20
133.2060866274628097
 30
0.0
 40
1.9688759758442771
 50
172.0169267889118885
 51
219.7394394888951012
  0
ARC
  5
152F
  8
0
 10
812.5989448917517848
 20
133.2060866273463091
 30
0.0
 40
1.9688759755999989
 50
137.5315493943014076
 51
168.2933374484989031
  0
ARC
  5
1530
  8
0
 10
812.5574023063517188
 20
134.5070810123463048
 30
0.0
 40
0.016
 50
49.999999999698467
 51
90.0
  0
ARC
  5
1531
  8
0
 10
812.6900147083294996
 20
134.4607204507098004
 30
0.0
 40
0.016272753992794
 50
4.5463258542287104
 51
49.787181121142801
  0
ARC
  5
1532
  8
0
 10
812.6850000340984934
 20
134.5070404901510983
 30
0.0
 40
0.0160405472904683
 50
90.1013499230204644
 51
225.3256815347760948
  0
ARC
  5
1533
  8
0
 10
812.6993477020896535
 20
134.4180215651028902
 30
0.0
 40
0.0068889250043304
 50
216.8220680986509024
 51
0.5904873025373601
  0
ARC
  5
1534
  8
0
 10
812.9972729694518421
 20
134.7080810123462982
 30
0.0
 40
0.185
 50
269.9999999985994918
 51
299.9902861008989134
  0
ARC
  5
1535
  8
0
 10
812.9990347847518706
 20
134.7080810123462982
 30
0.0
 40
0.125
 50
269.9999999978961114
 51
299.6393377123006871
  0
ARC
  5
1536
  8
0
 10
813.1222362612518282
 20
134.4915534720462915
 30
0.0
 40
0.1241240244
 50
0.0000000008997153
 51
119.6393377151025987
  0
ARC
  5
1537
  8
0
 10
813.1222362612518282
 20
134.4915534720462915
 30
0.0
 40
0.065
 50
0.0
 51
119.9902861034024966
  0
ARC
  5
1538
  8
0
 10
813.1695593512285996
 20
133.5837756112208865
 30
0.0
 40
0.0176905515903584
 50
275.4393068065564876
 51
357.7497696149791864
  0
ARC
  5
1539
  8
0
 10
813.2303602855517966
 20
131.9110810123463011
 30
0.0
 40
0.016
 50
270.0
 51
0.0
  0
ARC
  5
153A
  8
0
 10
813.2032362612519591
 20
131.9110810123463011
 30
0.0
 40
0.016
 50
180.0
 51
270.0
  0
LINE
  5
153B
  8
0
 10
812.8256864052017363
 20
133.480858162396288
 30
0.0
 11
812.7720413643017991
 21
133.4985416825963114
 31
0.0
  0
LINE
  5
153C
  8
0
 10
812.9961058185018601
 20
134.2384224072962979
 30
0.0
 11
813.0260372952019452
 21
134.2083540400963102
 31
0.0
  0
LINE
  5
153D
  8
0
 10
812.6497840557019572
 20
133.6594805148963019
 30
0.0
 11
812.6647497940017502
 21
133.644446331296308
 31
0.0
  0
LINE
  5
153E
  8
0
 10
812.7744614672019452
 20
133.5179456938963085
 30
0.0
 11
812.8043929438017585
 21
133.4878773265963048
 31
0.0
  0
LINE
  5
153F
  8
0
 10
813.0260372952019452
 20
134.2083540400963102
 30
0.0
 11
813.0244608165019145
 21
133.5173753164962989
 31
0.0
  0
LINE
  5
1540
  8
0
 10
812.9961058185018601
 20
134.2384224072962979
 30
0.0
 11
812.994392449301813
 21
133.487443839796299
 31
0.0
  0
LINE
  5
1541
  8
0
 10
812.8043929438017585
 20
133.4878773265963048
 30
0.0
 11
812.8061063130019193
 21
134.2388558940963037
 31
0.0
  0
LINE
  5
1542
  8
0
 10
812.7744614672019452
 20
133.5179456938963085
 30
0.0
 11
812.7760379458019315
 21
134.2089244174962914
 31
0.0
  0
LINE
  5
1543
  8
0
 10
812.6647497940017502
 20
133.644446331296308
 30
0.0
 11
812.6657501915019566
 21
134.0829257120963121
 31
0.0
  0
LINE
  5
1544
  8
0
 10
812.6492260662436138
 20
133.4149108579462961
 30
0.0
 11
812.6508090017018731
 21
134.1087196066962974
 31
0.0
  0
LINE
  5
1545
  8
0
 10
812.5708092099018813
 20
134.1089021274962931
 30
0.0
 11
812.5692258580436373
 21
133.4149108579462961
 31
0.0
  0
LINE
  5
1546
  8
0
 10
812.5499059532019146
 20
133.7130228777963055
 30
0.0
 11
812.5505946310018999
 21
134.0148739128962916
 31
0.0
  0
LINE
  5
1547
  8
0
 10
812.545590250001851
 20
134.0129594150963044
 30
0.0
 11
812.544910360201925
 21
133.7149601906963028
 31
0.0
  0
LINE
  5
1548
  8
0
 10
812.5002036513019448
 20
133.843562524196301
 30
0.0
 11
812.5002971932018454
 21
133.884562417496312
 31
0.0
  0
LINE
  5
1549
  8
0
 10
813.0410504621019072
 20
133.55016471719631
 30
0.0
 11
813.0410504621019072
 21
133.513894085796295
 31
0.0
  0
LINE
  5
154A
  8
0
 10
812.7610504621017071
 20
133.5137373706963047
 30
0.0
 11
812.7610504621017071
 21
133.6121647171962934
 31
0.0
  0
LINE
  5
154B
  8
0
 10
812.7190504621019045
 20
133.5941647171962927
 30
0.0
 11
812.7190504621019045
 21
133.5194108902963137
 31
0.0
  0
LINE
  5
154C
  8
0
 10
812.994392449301813
 20
133.487443839796299
 30
0.0
 11
813.0244608165019145
 21
133.5173753164962989
 31
0.0
  0
LINE
  5
154D
  8
0
 10
812.6507160079017922
 20
134.0679599737962917
 30
0.0
 11
812.6657501915019566
 21
134.0829257120963121
 31
0.0
  0
LINE
  5
154E
  8
0
 10
812.7760379458019315
 20
134.2089244174962914
 30
0.0
 11
812.8061063130019193
 21
134.2388558940963037
 31
0.0
  0
LINE
  5
154F
  8
0
 10
812.8043929438017585
 20
133.4878773265963048
 30
0.0
 11
812.872376690001829
 21
133.4877222206962983
 31
0.0
  0
LINE
  5
1550
  8
0
 10
812.9548190456017664
 20
133.4875341271963123
 30
0.0
 11
812.994392449301813
 21
133.487443839796299
 31
0.0
  0
LINE
  5
1551
  8
0
 10
812.6647497940017502
 20
133.644446331296308
 30
0.0
 11
812.7747495077018129
 21
133.644195365296298
 31
0.0
  0
LINE
  5
1552
  8
0
 10
812.5499059532019146
 20
133.7130228777963055
 30
0.0
 11
812.5699059011019472
 21
133.7129772475963136
 31
0.0
  0
LINE
  5
1553
  8
0
 10
812.537682583101855
 20
133.7149766809963012
 30
0.0
 11
812.544910360201925
 21
133.7149601906963028
 31
0.0
  0
LINE
  5
1554
  8
0
 10
812.5500566996017824
 20
133.7790958023963128
 30
0.0
 11
812.570056647501815
 21
133.7790501721962926
 31
0.0
  0
LINE
  5
1555
  8
0
 10
812.550158026801796
 20
133.8235080247962969
 30
0.0
 11
812.5701579747019423
 21
133.8234623945963051
 31
0.0
  0
LINE
  5
1556
  8
0
 10
812.5002036513019448
 20
133.843562524196301
 30
0.0
 11
812.4330308950133031
 21
133.8437157798105943
 31
0.0
  0
LINE
  5
1557
  8
0
 10
812.4331244369055867
 20
133.8847156730948029
 30
0.0
 11
812.5002971932018454
 21
133.884562417496312
 31
0.0
  0
LINE
  5
1558
  8
0
 10
812.5703425054017544
 20
133.9043431356963083
 30
0.0
 11
812.5503425574017911
 21
133.9043887658963001
 31
0.0
  0
LINE
  5
1559
  8
0
 10
812.5704438326018817
 20
133.9487553579963048
 30
0.0
 11
812.5504438846018047
 21
133.9488009881962967
 31
0.0
  0
LINE
  5
155A
  8
0
 10
812.5383624729018948
 20
134.0129759053963028
 30
0.0
 11
812.545590250001851
 21
134.0129594150963044
 31
0.0
  0
LINE
  5
155B
  8
0
 10
812.5705945790017495
 20
134.0148282826962998
 30
0.0
 11
812.5505946310018999
 21
134.0148739128962916
 31
0.0
  0
LINE
  5
155C
  8
0
 10
812.6657501915019566
 20
134.0829257120963121
 30
0.0
 11
812.7757499053018364
 21
134.082674746096302
 31
0.0
  0
LINE
  5
155D
  8
0
 10
812.8061063130019193
 20
134.2388558940963037
 30
0.0
 11
812.8740900593019205
 21
134.2387007881962973
 31
0.0
  0
LINE
  5
155E
  8
0
 10
812.9565324148018135
 20
134.2385126946963112
 30
0.0
 11
812.9961058185018601
 21
134.2384224072962979
 31
0.0
  0
LINE
  5
155F
  8
0
 10
812.912570598401885
 20
133.4579945627963014
 30
0.0
 11
812.8865705984019314
 21
133.4579945627963014
 31
0.0
  0
LINE
  5
1560
  8
0
 10
813.1187220612017654
 20
133.5061647171962989
 30
0.0
 11
813.1720504621017653
 21
133.5061647171962989
 31
0.0
  0
LINE
  5
1561
  8
0
 10
813.17123626125192
 20
133.5661647171963011
 30
0.0
 11
813.0570504621018699
 21
133.5661647171963011
 31
0.0
  0
LINE
  5
1562
  8
0
 10
812.754050462101759
 20
133.6191647171962984
 30
0.0
 11
812.7440504621017681
 21
133.6191647171962984
 31
0.0
  0
LINE
  5
1563
  8
0
 10
813.0298646290018496
 20
133.498635521096304
 30
0.0
 11
812.970579559801763
 21
133.4799307331963121
 31
0.0
  0
ARC
  5
1564
  8
0
 10
812.8995705984018514
 20
133.704994562796287
 30
0.0
 40
0.291
 50
264.4312709944991866
 51
265.4519748912713908
  0
ARC
  5
1565
  8
0
 10
812.8995705984018514
 20
133.704994562796287
 30
0.0
 40
0.291
 50
274.5480251087220722
 51
315.5913269894991799
  0
ARC
  5
1566
  8
0
 10
812.8995705984018514
 20
133.704994562796287
 30
0.0
 40
0.286
 50
239.2250484591008899
 51
261.2825706323994837
  0
ARC
  5
1567
  8
0
 10
812.8995705984018514
 20
133.704994562796287
 30
0.0
 40
0.236
 50
251.7557428484983006
 51
263.6206297914997094
  0
ARC
  5
1568
  8
0
 10
812.8995705984018514
 20
133.704994562796287
 30
0.0
 40
0.236
 50
276.3793702085004043
 51
287.5107918456956781
  0
ARC
  5
1569
  8
0
 10
812.9150427087006392
 20
134.1209093739336993
 30
0.0
 40
0.1247074046188754
 50
70.5674813003313091
 51
109.1710767518152068
  0
ARC
  5
156A
  8
0
 10
812.9138663961505245
 20
133.6053255404382014
 30
0.0
 40
0.1247074036719307
 50
250.5674811237612118
 51
289.1710769286825098
  0
ARC
  5
156B
  8
0
 10
813.1188842084203543
 20
133.4901602808253074
 30
0.0
 40
0.0160052577384185
 50
90.5804661412672516
 51
135.5875326349427894
  0
ARC
  5
156C
  8
0
 10
812.8728846786017357
 20
133.431292422296309
 30
0.0
 40
0.016
 50
230.2219004673031009
 51
264.4312709944010749
  0
ARC
  5
156D
  8
0
 10
813.0250504621018308
 20
133.513894085796295
 30
0.0
 40
0.016
 50
287.5107918467954278
 51
0.0
  0
ARC
  5
156E
  8
0
 10
813.0570504621018699
 20
133.55016471719631
 30
0.0
 40
0.016
 50
90.0
 51
180.0
  0
ARC
  5
156F
  8
0
 10
812.8724746484175512
 20
133.4633058047230065
 30
0.0
 40
0.0072032586774806
 50
5.1217538339953821
 51
83.0330852866503051
  0
ARC
  5
1570
  8
0
 10
812.8865705984019314
 20
133.4649945627963064
 30
0.0
 40
0.007
 50
188.5913744148002138
 51
269.9999999997980922
  0
ARC
  5
1571
  8
0
 10
812.912570598401885
 20
133.4649945627963064
 30
0.0
 40
0.007
 50
269.9999999997003783
 51
351.4086255851997862
  0
ARC
  5
1572
  8
0
 10
812.9266665483862653
 20
133.4633058047230065
 30
0.0
 40
0.0072032586774983
 50
96.9669147137894356
 51
174.8782461659585863
  0
ARC
  5
1573
  8
0
 10
812.5907513944018774
 20
133.8638559913962922
 30
0.0
 40
0.1590012077
 50
187.2770351681998022
 51
248.389639946697514
  0
ARC
  5
1574
  8
0
 10
812.5907513944018774
 20
133.8638559913962922
 30
0.0
 40
0.1590012077
 50
111.3489597292986986
 51
172.4615228665998075
  0
ARC
  5
1575
  8
0
 10
812.7890504621017271
 20
133.5194108902963137
 30
0.0
 40
0.07
 50
180.0
 51
239.2250484590014139
  0
ARC
  5
1576
  8
0
 10
812.6108091058017635
 20
134.1088108670963095
 30
0.0
 40
0.04
 50
359.8692790172997888
 51
179.8692790172997888
  0
ARC
  5
1577
  8
0
 10
812.7440504621017681
 20
133.5941647171962927
 30
0.0
 40
0.025
 50
89.9999999998957776
 51
180.0
  0
ARC
  5
1578
  8
0
 10
812.8517384268470778
 20
133.4056752705110966
 30
0.0
 40
0.017217771290453
 50
50.683704627601422
 51
74.8990631636787043
  0
ARC
  5
1579
  8
0
 10
812.7770504621017835
 20
133.5137373706963047
 30
0.0
 40
0.016
 50
180.0
 51
251.7557428480037913
  0
ARC
  5
157A
  8
0
 10
812.537716805701848
 20
133.7299766418962861
 30
0.0
 40
0.015
 50
248.3896399480983064
 51
269.869279017298993
  0
ARC
  5
157B
  8
0
 10
812.5383282502029942
 20
133.9979759454743942
 30
0.0
 40
0.0149999989221474
 50
89.8692786303405882
 51
111.3493608609274048
  0
ARC
  5
157C
  8
0
 10
812.5600334086017256
 20
133.7688758275963039
 30
0.0
 40
0.015
 50
131.679593945159894
 51
179.869279027278111
  0
ARC
  5
157D
  8
0
 10
812.5604671236018248
 20
133.9589753328963013
 30
0.0
 40
0.015
 50
179.8713956156998961
 51
228.0589641214984908
  0
ARC
  5
157E
  8
0
 10
812.754050462101759
 20
133.6121647171962934
 30
0.0
 40
0.007
 50
0.0
 51
90.0
  0
ARC
  5
157F
  8
0
 10
813.06968799679737
 20
125.730239191910897
 30
0.0
 40
0.3114708646234665
 50
292.1725585454939846
 51
359.479721268938988
  0
ARC
  5
1580
  8
0
 10
813.0698263976858016
 20
126.0996764883902017
 30
0.0
 40
0.3113316303349145
 50
0.5032249671136232
 51
67.8445022664046178
  0
LINE
  5
1581
  8
0
 10
811.9039863107517476
 20
84.4716608579463468
 30
0.0
 11
811.9039863107517476
 21
84.2341608579463639
 31
0.0
  0
LINE
  5
1582
  8
0
 10
812.3914863107518158
 20
84.2341608579463639
 30
0.0
 11
812.3914863107518158
 21
84.4716608579463468
 31
0.0
  0
LINE
  5
1583
  8
0
 10
813.381146020051915
 20
84.5404108579463269
 30
0.0
 11
813.381146020051915
 21
84.165410895646346
 31
0.0
  0
LINE
  5
1584
  8
0
 10
812.0289863107518613
 20
84.1091608579463639
 30
0.0
 11
812.2664863107518158
 21
84.1091608579463639
 31
0.0
  0
LINE
  5
1585
  8
0
 10
812.2664863107518158
 20
84.5966608579463468
 30
0.0
 11
812.0289863107518613
 21
84.5966608579463468
 31
0.0
  0
ARC
  5
1586
  8
0
 10
812.0289863107518613
 20
84.4716608579463468
 30
0.0
 40
0.125
 50
90.0
 51
180.0
  0
ARC
  5
1587
  8
0
 10
812.0289863107518613
 20
84.2341608579463639
 30
0.0
 40
0.125
 50
180.0
 51
270.0
  0
CIRCLE
  5
1588
  8
0
 10
812.1477363107519523
 20
84.3529108579463411
 30
0.0
 40
0.0582369251
  0
ARC
  5
1589
  8
0
 10
812.2664863107518158
 20
84.4716608579463468
 30
0.0
 40
0.125
 50
0.0
 51
90.0
  0
ARC
  5
158A
  8
0
 10
812.2664863107518158
 20
84.2341608579463639
 30
0.0
 40
0.125
 50
270.0
 51
0.0
  0
ARC
  5
158B
  8
0
 10
813.06968799679737
 20
84.1682391919109136
 30
0.0
 40
0.3114708646234665
 50
292.1725585454939846
 51
359.4797212689381922
  0
ARC
  5
158C
  8
0
 10
813.0698263976858016
 20
84.5376764883902467
 30
0.0
 40
0.3113316303349145
 50
0.5032249671136232
 51
67.8445022664046178
  0
CIRCLE
  5
158D
  8
0
 10
812.1477363107519523
 20
105.1339108579463044
 30
0.0
 40
0.0582369251
  0
ARC
  5
158E
  8
0
 10
813.172499694067028
 20
133.4914308451319016
 30
0.0
 40
0.0147407189570222
 50
358.6401053956365104
 51
91.7463925345337401
  0
ENDSEC
  0
EOF
