  0
SECTION
  2
HEADER
  9
$ACADVER
  1
AC1009
  9
$INSBASE
 10
16.541327854550001
 20
-27.332275082500001
 30
0.0
  9
$EXTMIN
 10
-50.103446444199989
 20
-35.219842675379311
 30
0.0
  9
$EXTMAX
 10
23.69411624672378
 20
71.361881343321897
 30
0.0
  9
$LIMMIN
 10
0.0
 20
0.0
  9
$LIMMAX
 10
22.0
 20
17.0
  9
$ORTHOMODE
 70
     1
  9
$REGENMODE
 70
     1
  9
$FILLMODE
 70
     1
  9
$QTEXTMODE
 70
     0
  9
$MIRRTEXT
 70
     0
  9
$DRAGMODE
 70
     2
  9
$LTSCALE
 40
1.2099999999999991
  9
$OSMODE
 70
    39
  9
$ATTMODE
 70
     1
  9
$TEXTSIZE
 40
0.2
  9
$TRACEWID
 40
0.05
  9
$TEXTSTYLE
  7
STANDARD
  9
$CLAYER
  8
0
  9
$CELTYPE
  6
BYLAYER
  9
$CECOLOR
 62
   256
  9
$DIMSCALE
 40
1.0
  9
$DIMASZ
 40
0.1875
  9
$DIMEXO
 40
0.0625
  9
$DIMDLI
 40
0.8359999999999999
  9
$DIMRND
 40
0.0
  9
$DIMDLE
 40
0.0
  9
$DIMEXE
 40
0.125
  9
$DIMTP
 40
0.0
  9
$DIMTM
 40
0.0
  9
$DIMTXT
 40
2.0
  9
$DIMCEN
 40
0.198
  9
$DIMTSZ
 40
0.0
  9
$DIMTOL
 70
     0
  9
$DIMLIM
 70
     0
  9
$DIMTIH
 70
     1
  9
$DIMTOH
 70
     1
  9
$DIMSE1
 70
     0
  9
$DIMSE2
 70
     0
  9
$DIMTAD
 70
     0
  9
$DIMZIN
 70
     0
  9
$DIMBLK
  1

  9
$DIMASO
 70
     1
  9
$DIMSHO
 70
     1
  9
$DIMPOST
  1
\X
  9
$DIMAPOST
  1

  9
$DIMALT
 70
     1
  9
$DIMALTD
 70
     2
  9
$DIMALTF
 40
25.399999999999999
  9
$DIMLFAC
 40
1.0
  9
$DIMTOFL
 70
     0
  9
$DIMTVP
 40
0.0
  9
$DIMTIX
 70
     0
  9
$DIMSOXD
 70
     0
  9
$DIMSAH
 70
     0
  9
$DIMBLK1
  1

  9
$DIMBLK2
  1

  9
$DIMSTYLE
  2
STANDARD
  9
$DIMCLRD
 70
     0
  9
$DIMCLRE
 70
     0
  9
$DIMCLRT
 70
     0
  9
$DIMTFAC
 40
1.0
  9
$DIMGAP
 40
0.09
  9
$LUNITS
 70
     2
  9
$LUPREC
 70
     4
  9
$SKETCHINC
 40
0.1
  9
$FILLETRAD
 40
0.0
  9
$AUNITS
 70
     0
  9
$AUPREC
 70
     0
  9
$MENU
  1
.
  9
$ELEVATION
 40
0.0
  9
$PELEVATION
 40
0.0
  9
$THICKNESS
 40
0.0
  9
$LIMCHECK
 70
     0
  9
$BLIPMODE
 70
     0
  9
$CHAMFERA
 40
0.0
  9
$CHAMFERB
 40
0.0
  9
$SKPOLY
 70
     0
  9
$TDCREATE
 40
2458128.4700686689
  9
$TDUPDATE
 40
2458134.6569926729
  9
$TDINDWG
 40
0.0453015278
  9
$TDUSRTIMER
 40
0.0453015278
  9
$USRTIMER
 70
     1
  9
$ANGBASE
 50
0.0
  9
$ANGDIR
 70
     0
  9
$PDMODE
 70
     0
  9
$PDSIZE
 40
0.3125
  9
$PLINEWID
 40
0.0
  9
$COORDS
 70
     1
  9
$SPLFRAME
 70
     0
  9
$SPLINETYPE
 70
     6
  9
$SPLINESEGS
 70
     8
  9
$ATTDIA
 70
     1
  9
$ATTREQ
 70
     1
  9
$HANDLING
 70
     1
  9
$HANDSEED
  5
D9D
  9
$SURFTAB1
 70
     6
  9
$SURFTAB2
 70
     6
  9
$SURFTYPE
 70
     6
  9
$SURFU
 70
     6
  9
$SURFV
 70
     6
  9
$UCSNAME
  2

  9
$UCSORG
 10
0.0
 20
0.0
 30
0.0
  9
$UCSXDIR
 10
1.0
 20
0.0
 30
0.0
  9
$UCSYDIR
 10
0.0
 20
1.0
 30
0.0
  9
$PUCSNAME
  2

  9
$PUCSORG
 10
0.0
 20
0.0
 30
0.0
  9
$PUCSXDIR
 10
1.0
 20
0.0
 30
0.0
  9
$PUCSYDIR
 10
0.0
 20
1.0
 30
0.0
  9
$USERI1
 70
     0
  9
$USERI2
 70
     0
  9
$USERI3
 70
     0
  9
$USERI4
 70
     0
  9
$USERI5
 70
     0
  9
$USERR1
 40
0.0
  9
$USERR2
 40
0.0
  9
$USERR3
 40
0.0
  9
$USERR4
 40
0.0
  9
$USERR5
 40
0.0
  9
$WORLDVIEW
 70
     1
  9
$SHADEDGE
 70
     3
  9
$SHADEDIF
 70
    70
  9
$TILEMODE
 70
     1
  9
$MAXACTVP
 70
    48
  9
$PLIMCHECK
 70
     0
  9
$PEXTMIN
 10
1.0000000000000000E+020
 20
1.0000000000000000E+020
 30
1.0000000000000000E+020
  9
$PEXTMAX
 10
-1.0000000000000000E+020
 20
-1.0000000000000000E+020
 30
-1.0000000000000000E+020
  9
$PLIMMIN
 10
0.0
 20
0.0
  9
$PLIMMAX
 10
12.0
 20
9.0
  9
$UNITMODE
 70
     0
  9
$VISRETAIN
 70
     1
  9
$PLINEGEN
 70
     0
  9
$PSLTSCALE
 70
     1
  0
ENDSEC
  0
SECTION
  2
TABLES
  0
TABLE
  2
VPORT
 70
     1
  0
VPORT
  2
*ACTIVE
 70
     0
 10
0.0
 20
0.0
 11
1.0
 21
1.0
 12
15.70471832771193
 22
-0.6318054653397667
 13
0.0
 23
0.0
 14
1.0
 24
1.0
 15
0.0
 25
0.0
 16
0.0
 26
0.0
 36
1.0
 17
0.0
 27
0.0
 37
0.0
 40
120.1845916998906
 41
2.0329087048832268
 42
50.0
 43
0.0
 44
0.0
 50
0.0
 51
0.0
 71
     0
 72
   100
 73
     1
 74
     1
 75
     0
 76
     0
 77
     0
 78
     0
  0
ENDTAB
  0
TABLE
  2
LTYPE
 70
     2
  0
LTYPE
  2
CONTINUOUS
 70
     0
  3
Solid line
 72
    65
 73
     0
 40
0.0
  0
LTYPE
  2
PHANTOM2
 70
     0
  3
___ _ _ ___ _ _ ___ _ _ ___ _ _
 72
    65
 73
     6
 40
1.25
 49
0.625
 49
-0.125
 49
0.125
 49
-0.125
 49
0.125
 49
-0.125
  0
ENDTAB
  0
TABLE
  2
LAYER
 70
     2
  0
LAYER
  2
0
 70
     0
 62
     7
  6
CONTINUOUS
  0
LAYER
  2
DEFPOINTS
 70
     0
 62
     7
  6
CONTINUOUS
  0
ENDTAB
  0
TABLE
  2
STYLE
 70
     1
  0
STYLE
  2
STANDARD
 70
     0
 40
0.0
 41
0.8
 50
0.0
 71
     0
 42
0.2
  3
txt
  4

  0
ENDTAB
  0
TABLE
  2
VIEW
 70
     0
  0
ENDTAB
  0
TABLE
  2
UCS
 70
     0
  0
ENDTAB
  0
TABLE
  2
APPID
 70
     7
  0
APPID
  2
ACAD
 70
     0
  0
APPID
  2
ACAD_MLEADERVER
 70
     0
  0
APPID
  2
ACAD_DSTYLE_DIMJAG
 70
     0
  0
APPID
  2
ACAD_DSTYLE_DIMTALN
 70
     0
  0
APPID
  2
ACAD_NAV_VCDISPLAY
 70
     0
  0
APPID
  2
ACAD_EXEMPT_FROM_CAD_STANDARDS
 70
     0
  0
APPID
  2
ACDBATTR
 70
     0
  0
ENDTAB
  0
TABLE
  2
DIMSTYLE
 70
     1
  0
DIMSTYLE
  2
STANDARD
 70
     0
  3

  4

  5

  6

  7

 40
1.0
 41
0.1875
 42
0.0625
 43
0.38
 44
0.125
 45
0.0
 46
0.0
 47
1.5
 48
1.5
140
0.15625
141
0.09
142
0.0
143
25.399999999999999
144
1.0
145
0.0
146
1.0
147
0.09
 71
     0
 72
     0
 73
     1
 74
     1
 75
     0
 76
     0
 77
     0
 78
     4
170
     0
171
     2
172
     0
173
     0
174
     0
175
     0
176
     0
177
     0
178
     0
  0
ENDTAB
  0
ENDSEC
  0
SECTION
  2
BLOCKS
  0
BLOCK
  8
0
  2
$MODEL_SPACE
 70
     0
 10
0.0
 20
0.0
 30
0.0
  3
$MODEL_SPACE
  1

  0
ENDBLK
  5
21
  8
0
  0
BLOCK
 67
     1
  8
0
  2
$PAPER_SPACE
 70
     0
 10
0.0
 20
0.0
 30
0.0
  3
$PAPER_SPACE
  1

  0
ENDBLK
  5
1D
 67
     1
  8
0
  0
ENDSEC
  0
SECTION
  2
ENTITIES
  0
LINE
  5
8DD
  8
0
 10
15.6064771466
 20
-27.332275082500001
 30
0.0
 11
17.476178562499999
 21
-27.332275082500001
 31
0.0
  0
LINE
  5
8DE
  8
0
 10
17.201327854599999
 20
-25.932275082499999
 30
0.0
 11
15.8813278546
 21
-25.932275082499999
 31
0.0
  0
LINE
  5
8DF
  8
0
 10
15.1809730641
 20
41.751185777000003
 30
0.0
 11
15.556304132799999
 21
42.7287487125
 31
0.0
  0
LINE
  5
8E0
  8
0
 10
15.556304132799999
 20
42.589253166099986
 30
0.0
 11
15.484096470700001
 21
42.401185777000009
 31
0.0
  0
LINE
  5
8E1
  8
0
 10
15.4457019025
 20
42.301185776999993
 30
0.0
 11
15.2276508102
 21
41.733264057900001
 31
0.0
  0
LINE
  5
8E2
  8
0
 10
17.0812223561
 20
41.521112798899999
 30
0.0
 11
17.075014218700002
 21
41.502473242299999
 31
0.0
  0
LINE
  5
8E3
  8
0
 10
15.2576693466
 20
42.373724917500013
 30
0.0
 11
15.2576693466
 21
42.060724917499989
 31
0.0
  0
LINE
  5
8E4
  8
0
 10
15.296215334399999
 20
42.060724917499989
 30
0.0
 11
15.296215334399999
 21
42.373724917500013
 31
0.0
  0
LINE
  5
8E5
  8
0
 10
15.553215334400001
 20
41.180724917500001
 30
0.0
 11
15.553215334400001
 21
41.549724917500001
 31
0.0
  0
LINE
  5
8E6
  8
0
 10
15.556304132799999
 20
42.80715515699999
 30
0.0
 11
15.556304132799999
 21
41.646415573985337
 31
0.0
  0
LINE
  5
8E7
  8
0
 10
15.5563929313
 20
41.625724917500001
 30
0.0
 11
15.556304132799999
 21
41.646415573985337
 31
0.0
  0
LINE
  5
8E8
  8
0
 10
15.6064771466
 20
-27.332275082500001
 30
0.0
 11
15.6064771466
 21
41.103433926399987
 31
0.0
  0
LINE
  5
8E9
  8
0
 10
15.6064771466
 20
41.103433926399987
 30
0.0
 11
15.6064771466
 21
41.477724917499991
 31
0.0
  0
LINE
  5
8EA
  8
0
 10
15.7038278546
 20
-27.332275082500001
 30
0.0
 11
15.7038278546
 21
41.019188108899989
 31
0.0
  0
LINE
  5
8EB
  8
0
 10
15.716215334399999
 20
42.625024917499999
 30
0.0
 11
15.716215334399999
 21
41.800024917500011
 31
0.0
  0
LINE
  5
8EC
  8
0
 10
15.8813278546
 20
-25.932275082499999
 30
0.0
 11
15.8813278546
 21
-27.332275082500001
 31
0.0
  0
LINE
  5
8ED
  8
0
 10
19.361215334400001
 20
7.241724917500008
 30
0.0
 11
17.476178562599991
 21
7.241724917500008
 31
0.0
  0
LINE
  5
8EE
  8
0
 10
15.6064771466
 20
7.241724917500008
 30
0.0
 11
13.7062153344
 21
7.241724917500008
 31
0.0
  0
LINE
  5
8EF
  8
0
 10
19.361215334400001
 20
7.9917249174999929
 30
0.0
 11
17.476178562599991
 21
7.9917249174999929
 31
0.0
  0
LINE
  5
8F0
  8
0
 10
15.6064771466
 20
7.9917249174999929
 30
0.0
 11
13.7062153344
 21
7.9917249174999929
 31
0.0
  0
LINE
  5
8F1
  8
0
 10
17.201327854599999
 20
-27.332275082500001
 30
0.0
 11
17.201327854599999
 21
-25.932275082499999
 31
0.0
  0
LINE
  5
8F2
  8
0
 10
17.378827854600001
 20
41.019188108899989
 30
0.0
 11
17.378827854600001
 21
-27.332275082500001
 31
0.0
  0
LINE
  5
8F3
  8
0
 10
17.386215334399999
 20
41.800024917500011
 30
0.0
 11
17.386215334399999
 21
42.625024917499999
 31
0.0
  0
LINE
  5
8F4
  8
0
 10
17.42819673
 20
41.477724917499991
 30
0.0
 11
17.42819673
 21
41.4863716272
 31
0.0
  0
LINE
  5
8F5
  8
0
 10
17.476178562499999
 20
-27.332275082500001
 30
0.0
 11
17.476178562499999
 21
41.477724917499991
 31
0.0
  0
LINE
  5
8F6
  8
0
 10
17.556215334400001
 20
39.923724917500003
 30
0.0
 11
17.556215334400001
 21
42.808724917500022
 31
0.0
  0
LINE
  5
8F7
  8
0
 10
17.6162153344
 20
42.808724917500022
 30
0.0
 11
17.6162153344
 21
39.923724917500003
 31
0.0
  0
LINE
  5
8F8
  8
0
 10
16.037416449999998
 20
41.502473242299999
 30
0.0
 11
16.0312083126
 21
41.521112798899999
 31
0.0
  0
LINE
  5
8F9
  8
0
 10
17.5962153344
 20
39.903724917500007
 30
0.0
 11
17.576215334400001
 21
39.903724917500007
 31
0.0
  0
LINE
  5
8FA
  8
0
 10
15.530915334399999
 20
39.903724917500007
 30
0.0
 11
15.504817556800001
 21
39.903724917500007
 31
0.0
  0
LINE
  5
8FB
  8
0
 10
17.52421533439999
 20
39.953724917499997
 30
0.0
 11
17.508215334399999
 21
39.953724917499997
 31
0.0
  0
LINE
  5
8FC
  8
0
 10
17.476178562499989
 20
41.477724917499991
 30
0.0
 11
15.6064771466
 21
41.477724917499991
 31
0.0
  0
LINE
  5
8FD
  8
0
 10
15.7812965175
 20
41.502136118999992
 30
0.0
 11
16.037440114084319
 21
41.502136118999992
 31
0.0
  0
LINE
  5
8FE
  8
0
 10
17.074842712500011
 20
41.502136118999992
 30
0.0
 11
17.331134151200001
 21
41.502136118999992
 31
0.0
  0
LINE
  5
8FF
  8
0
 10
16.037416449999998
 20
41.502473242299999
 30
0.0
 11
17.075014218700002
 21
41.502473242299999
 31
0.0
  0
LINE
  5
900
  8
0
 10
17.396199319099999
 20
41.518369039600003
 30
0.0
 11
17.1646895716
 21
41.518369039600003
 31
0.0
  0
LINE
  5
901
  8
0
 10
15.94774109710001
 20
41.518369039600003
 30
0.0
 11
15.716231351099999
 21
41.518369039600003
 31
0.0
  0
LINE
  5
902
  8
0
 10
17.083309310099999
 20
41.52136747090001
 30
0.0
 11
17.431218641299999
 21
41.52136747090001
 31
0.0
  0
LINE
  5
903
  8
0
 10
15.537215334400001
 20
41.565724917499999
 30
0.0
 11
15.140731235300001
 21
41.565724917499999
 31
0.0
  0
LINE
  5
904
  8
0
 10
15.1488101176
 20
41.625724917500001
 30
0.0
 11
15.5563929313
 21
41.625724917500001
 31
0.0
  0
LINE
  5
905
  8
0
 10
15.8662153344
 20
41.650024917500012
 30
0.0
 11
17.236215334400001
 21
41.650024917500012
 31
0.0
  0
LINE
  5
906
  8
0
 10
15.2576693466
 20
42.060724917499989
 30
0.0
 11
15.296215334399999
 21
42.060724917499989
 31
0.0
  0
LINE
  5
907
  8
0
 10
15.296215334399999
 20
42.134474917500008
 30
0.0
 11
15.328135274799999
 21
42.134474917500008
 31
0.0
  0
LINE
  5
908
  8
0
 10
15.3816939877
 20
42.134474917500008
 30
0.0
 11
15.556304132799999
 21
42.134474917500008
 31
0.0
  0
LINE
  5
909
  8
0
 10
15.296215334399999
 20
42.299974917500002
 30
0.0
 11
15.391678285299999
 21
42.299974917500002
 31
0.0
  0
LINE
  5
90A
  8
0
 10
15.4452369982
 20
42.299974917500002
 30
0.0
 11
15.556304132799999
 21
42.299974917500002
 31
0.0
  0
LINE
  5
90B
  8
0
 10
15.556304132799999
 20
42.317224917500013
 30
0.0
 11
15.4690407755
 21
42.317224917500013
 31
0.0
  0
LINE
  5
90C
  8
0
 10
15.507435343799999
 20
42.367224917500003
 30
0.0
 11
15.556304132799999
 21
42.367224917500003
 31
0.0
  0
LINE
  5
90D
  8
0
 10
17.236215334400001
 20
42.775024917499998
 30
0.0
 11
15.8662153344
 21
42.775024917499998
 31
0.0
  0
LINE
  5
90E
  8
0
 10
17.443215334400001
 20
42.921724917500008
 30
0.0
 11
15.5899681668
 21
42.921724917500008
 31
0.0
  0
LINE
  5
90F
  8
0
 10
15.5902153344
 20
42.981724917500003
 30
0.0
 11
17.443215334400001
 21
42.981724917500003
 31
0.0
  0
ARC
  5
910
  8
0
 10
13.7062153344
 20
7.6167249174999929
 30
0.0
 40
0.375
 50
90.0
 51
270.0
  0
ARC
  5
911
  8
0
 10
15.4262153344
 20
42.217224917499998
 30
0.0
 40
0.23
 50
137.1223721609
 51
222.8776278391
  0
ARC
  5
912
  8
0
 10
15.5902153344
 20
42.808724917500022
 30
0.0
 40
0.173
 50
90.0
 51
141.55480492379999
  0
ARC
  5
913
  8
0
 10
15.8662153344
 20
41.800024917500011
 30
0.0
 40
0.15
 50
180.0
 51
270.0
  0
ARC
  5
914
  8
0
 10
15.8662153344
 20
42.625024917499999
 30
0.0
 40
0.15
 50
90.0
 51
180.0
  0
ARC
  5
915
  8
0
 10
15.614215334400001
 20
42.796724917500008
 30
0.0
 40
0.125
 50
90.0
 51
142.1785287456
  0
ARC
  5
916
  8
0
 10
15.590216209613949
 20
42.808723824954157
 30
0.0
 40
0.1130013647784479
 50
90.125766780059749
 51
141.5546469782881
  0
ARC
  5
917
  8
0
 10
15.140731235300001
 20
41.533724917500003
 30
0.0
 40
0.032
 50
90.0
 51
177.71177972069981
  0
ARC
  5
918
  8
0
 10
15.5712153344
 20
41.196724917500013
 30
0.0
 40
0.032
 50
268.30615909750009
 51
336.79787843669129
  0
ARC
  5
919
  8
0
 10
15.1488101176
 20
41.657724917499998
 30
0.0
 40
0.032
 50
174.4990878040999
 51
270.0
  0
ARC
  5
91A
  8
0
 10
15.716230322599991
 20
41.486372655700009
 30
0.0
 40
0.0319962905
 50
89.998160586500106
 51
180.0018384080997
  0
ARC
  5
91B
  8
0
 10
15.507435343799999
 20
42.392224917500002
 30
0.0
 40
0.025
 50
158.9959228355998
 51
270.0
  0
ARC
  5
91C
  8
0
 10
15.4690407755
 20
42.2922249175
 30
0.0
 40
0.025
 50
90.0
 51
158.9959228333997
  0
ARC
  5
91D
  8
0
 10
15.204311937199989
 20
41.742224917500003
 30
0.0
 40
0.025
 50
158.99592282740011
 51
338.9959228329999
  0
ARC
  5
91E
  8
0
 10
15.578215334399999
 20
39.978724917500003
 30
0.0
 40
0.025
 50
219.5323662306001
 51
0.0
  0
ARC
  5
91F
  8
0
 10
15.504817556800001
 20
39.923724917500003
 30
0.0
 40
0.02
 50
219.7691230384998
 51
270.0
  0
ARC
  5
920
  8
0
 10
15.530915334399999
 20
39.923724917500003
 30
0.0
 40
0.02
 50
270.0
 51
40.17747457880013
  0
ARC
  5
921
  8
0
 10
15.537215334400001
 20
41.549724917500001
 30
0.0
 40
0.016
 50
0.0
 51
90.0
  0
ARC
  5
922
  8
0
 10
15.56924715411235
 20
41.180738097656402
 30
0.0
 40
0.0160318251302187
 50
180.04710426991261
 51
273.65605148259567
  0
ARC
  5
923
  8
0
 10
19.361215334400001
 20
7.6167249174999929
 30
0.0
 40
0.375
 50
270.0
 51
90.0
  0
ARC
  5
924
  8
0
 10
17.320658053799999
 20
41.434969071200001
 30
0.0
 40
2.3824427194999989
 50
141.55480492370009
 51
219.7691230344999
  0
ARC
  5
925
  8
0
 10
17.3551929757
 20
41.445238959000001
 30
0.0
 40
2.328977641399999
 50
142.17852874520011
 51
219.53236623230021
  0
ARC
  5
926
  8
0
 10
17.320658053799999
 20
41.434969071200001
 30
0.0
 40
2.3224427194999988
 50
141.55480492370009
 51
220.17747457769971
  0
ARC
  5
927
  8
0
 10
17.3551929757
 20
41.445238959000001
 30
0.0
 40
2.2485909859999991
 50
143.1307841436813
 51
156.30171089426071
  0
ARC
  5
928
  8
0
 10
17.3551929757
 20
41.445238959000001
 30
0.0
 40
2.2485909859999991
 50
162.2704130998905
 51
174.49908780609991
  0
ARC
  5
929
  8
0
 10
17.3551929757
 20
41.445238959000001
 30
0.0
 40
2.2482289062
 50
177.71177972099969
 51
218.80620193608419
  0
ARC
  5
92A
  8
0
 10
17.443215334400001
 20
42.808724917500022
 30
0.0
 40
0.173
 50
0.0
 51
90.0
  0
ARC
  5
92B
  8
0
 10
17.236215334400001
 20
42.625024917499999
 30
0.0
 40
0.15
 50
0.0
 51
90.0
  0
ARC
  5
92C
  8
0
 10
17.236215334400001
 20
41.800024917500011
 30
0.0
 40
0.15
 50
270.0
 51
0.0
  0
ARC
  5
92D
  8
0
 10
17.443215334400001
 20
42.808724917500022
 30
0.0
 40
0.113
 50
0.0
 51
90.0
  0
ARC
  5
92E
  8
0
 10
17.508241328783171
 20
39.985787673492482
 30
0.0
 40
0.0320627665297225
 50
180.00710547799679
 51
269.95354834372807
  0
ARC
  5
92F
  8
0
 10
17.52421533439999
 20
39.985724917500008
 30
0.0
 40
0.032
 50
270.0
 51
0.0
  0
ARC
  5
930
  8
0
 10
17.396200346099999
 20
41.486372655700009
 30
0.0
 40
0.0319962905
 50
359.99816058719989
 51
90.001838901099774
  0
ARC
  5
931
  8
0
 10
17.576215334400001
 20
39.923724917500003
 30
0.0
 40
0.02
 50
180.0
 51
270.0
  0
ARC
  5
932
  8
0
 10
17.5962153344
 20
39.923724917500003
 30
0.0
 40
0.02
 50
270.0
 51
0.0
  0
LINE
  5
933
  8
0
 10
15.603215334399991
 20
39.978724917500003
 30
0.0
 11
15.603215334399991
 21
40.036300507875133
 31
0.0
  0
ARC
  5
934
  8
0
 10
15.65619865455473
 20
41.515310415642062
 30
0.0
 40
0.0999833201393883
 50
142.01344274079079
 51
180.0003127596795
  0
LINE
  5
935
  8
0
 10
15.55621533441683
 20
41.515309869864502
 30
0.0
 11
15.556215334399999
 21
41.261711210000001
 31
0.0
  0
ARC
  5
936
  8
0
 10
15.646204446555309
 20
41.261711209994033
 30
0.0
 40
0.0899891121553154
 50
179.9999999961972
 51
243.802426636744
  0
ARC
  5
937
  8
0
 10
15.679470389438769
 20
42.8077937348272
 30
0.0
 40
0.1231679120390132
 50
112.3305871667168
 51
180.29705771333039
  0
ARC
  5
938
  8
0
 10
15.681254340668239
 20
41.646317709869187
 30
0.0
 40
0.1249502461930395
 50
179.9551245270398
 51
269.98051708373572
  0
LINE
  5
939
  8
0
 10
15.68121185245781
 20
41.52136747090001
 30
0.0
 11
16.029121358600001
 21
41.52136747090001
 31
0.0
  0
ARC
  5
93A
  8
0
 10
17.42923267348835
 20
41.648259182894471
 30
0.0
 40
0.1269072521215228
 50
270.89665654807652
 51
359.16761222646238
  0
LINE
  5
93B
  8
0
 10
17.083309310099999
 20
41.52136747090001
 30
0.0
 11
17.0812223561
 21
41.521112798899999
 31
0.0
  0
ARC
  5
93C
  8
0
 10
17.331227341022661
 20
41.452489522570232
 30
0.0
 40
0.0496466838914942
 50
30.55064037832571
 51
90.10754781545927
  0
LINE
  5
93D
  8
0
 10
16.0312083126
 20
41.521112798899999
 30
0.0
 11
16.029121358600001
 21
41.52136747090001
 31
0.0
  0
ARC
  5
93E
  8
0
 10
15.94819415335456
 20
41.545657124247327
 30
0.0
 40
0.0272918465696323
 50
269.04882201411613
 51
297.12716795908511
  0
LINE
  5
93F
  8
0
 10
15.684234032116469
 20
41.486371628999997
 30
0.0
 11
15.684234032116469
 21
41.477724917499991
 31
0.0
  0
ARC
  5
940
  8
0
 10
15.78298261885911
 20
41.449366402467781
 30
0.0
 40
0.0527966468696862
 50
91.830095779970307
 51
147.51171188523509
  0
ARC
  5
941
  8
0
 10
17.164317437960278
 20
41.546314958624698
 30
0.0
 40
0.027948396619138
 50
243.2052077246779
 51
270.76291736273112
  0
ARC
  5
942
  8
0
 10
15.634808516169119
 20
41.026010024738682
 30
0.0
 40
0.0693556602819635
 50
354.35518292110169
 51
30.755313890827601
  0
ARC
  5
943
  8
0
 10
15.7105504599011
 20
41.094333695082511
 30
0.0
 40
0.0366074318487942
 50
173.80847990530111
 51
243.83812843931901
  0
LINE
  5
944
  8
0
 10
15.6741565615
 20
41.098281887799992
 30
0.0
 11
15.6741565615
 21
41.477724917499991
 31
0.0
  0
ARC
  5
945
  8
0
 10
17.448395849961411
 20
41.025953142510708
 30
0.0
 40
0.0698961490953491
 50
149.621811406793
 51
185.5541773172441
  0
ARC
  5
946
  8
0
 10
17.364724455128439
 20
41.098967369349552
 30
0.0
 40
0.0443289970203747
 50
301.81844708033952
 51
5.78289385705403
  0
LINE
  5
947
  8
0
 10
17.408827854600009
 20
41.103433926399831
 30
0.0
 11
17.408827854600009
 21
41.477724917500012
 31
0.0
  0
LINE
  5
948
  8
0
 10
15.296215334399999
 20
42.373724917500013
 30
0.0
 11
15.2576693466
 21
42.373724917500013
 31
0.0
  0
ATTDEF
  5
B46
  8
DEFPOINTS
 10
16.536331678303728
 20
-27.34738473957923
 30
0.0
 40
0.001
  1
ALUMINUM/GLASS
  3

  2
MATERIAL
 70
     0
1001
ACDBATTR
1070
     0
1070
     1
  0
ATTDEF
  5
B47
  8
DEFPOINTS
 10
16.536331678303728
 20
-27.345718072912561
 30
0.0
 40
0.001
  1
SHOWER DOOR
  3

  2
PRODUCT
 70
     0
1001
ACDBATTR
1070
     0
1070
     1
  0
ATTDEF
  5
B48
  8
DEFPOINTS
 10
16.536331678303728
 20
-27.344051406245899
 30
0.0
 40
0.001
  1
FINESSE
  3

  2
TRADENAME
 70
     0
1001
ACDBATTR
1070
     0
1070
     1
  0
ATTDEF
  5
B49
  8
DEFPOINTS
 10
16.536331678303728
 20
-27.342384739579231
 30
0.0
 40
0.001
  1
5375EZ-47
  3

  2
MODELNUMBER
 70
     0
1001
ACDBATTR
1070
     0
1070
     1
  0
ENDSEC
  0
EOF
