  0
SECTION
  2
HEADER
  9
$ACADVER
  1
AC1009
  9
$INSBASE
 10
-26.378446444199991
 20
53.785018355699982
 30
0.0
  9
$EXTMIN
 10
-50.108295306085211
 20
-35.22364463541922
 30
-0.0000000000000058
  9
$EXTMAX
 10
23.7012461830966
 20
71.362931948057792
 30
0.0000000000000104
  9
$LIMMIN
 10
0.0
 20
0.0
  9
$LIMMAX
 10
22.0
 20
17.0
  9
$ORTHOMODE
 70
     0
  9
$REGENMODE
 70
     1
  9
$FILLMODE
 70
     1
  9
$QTEXTMODE
 70
     0
  9
$MIRRTEXT
 70
     0
  9
$DRAGMODE
 70
     2
  9
$LTSCALE
 40
1.2099999999999991
  9
$OSMODE
 70
    39
  9
$ATTMODE
 70
     1
  9
$TEXTSIZE
 40
0.2
  9
$TRACEWID
 40
0.05
  9
$TEXTSTYLE
  7
STANDARD
  9
$CLAYER
  8
0
  9
$CELTYPE
  6
BYLAYER
  9
$CECOLOR
 62
   256
  9
$DIMSCALE
 40
1.0
  9
$DIMASZ
 40
0.1875
  9
$DIMEXO
 40
0.0625
  9
$DIMDLI
 40
0.8359999999999999
  9
$DIMRND
 40
0.0
  9
$DIMDLE
 40
0.0
  9
$DIMEXE
 40
0.125
  9
$DIMTP
 40
0.0
  9
$DIMTM
 40
0.0
  9
$DIMTXT
 40
2.0
  9
$DIMCEN
 40
0.198
  9
$DIMTSZ
 40
0.0
  9
$DIMTOL
 70
     0
  9
$DIMLIM
 70
     0
  9
$DIMTIH
 70
     1
  9
$DIMTOH
 70
     1
  9
$DIMSE1
 70
     0
  9
$DIMSE2
 70
     0
  9
$DIMTAD
 70
     0
  9
$DIMZIN
 70
     0
  9
$DIMBLK
  1

  9
$DIMASO
 70
     1
  9
$DIMSHO
 70
     1
  9
$DIMPOST
  1
\X
  9
$DIMAPOST
  1

  9
$DIMALT
 70
     1
  9
$DIMALTD
 70
     2
  9
$DIMALTF
 40
25.399999999999999
  9
$DIMLFAC
 40
1.0
  9
$DIMTOFL
 70
     0
  9
$DIMTVP
 40
0.0
  9
$DIMTIX
 70
     0
  9
$DIMSOXD
 70
     0
  9
$DIMSAH
 70
     0
  9
$DIMBLK1
  1

  9
$DIMBLK2
  1

  9
$DIMSTYLE
  2
STANDARD
  9
$DIMCLRD
 70
     0
  9
$DIMCLRE
 70
     0
  9
$DIMCLRT
 70
     0
  9
$DIMTFAC
 40
1.0
  9
$DIMGAP
 40
0.09
  9
$LUNITS
 70
     2
  9
$LUPREC
 70
     4
  9
$SKETCHINC
 40
0.1
  9
$FILLETRAD
 40
0.0
  9
$AUNITS
 70
     0
  9
$AUPREC
 70
     0
  9
$MENU
  1
.
  9
$ELEVATION
 40
0.0
  9
$PELEVATION
 40
0.0
  9
$THICKNESS
 40
0.0
  9
$LIMCHECK
 70
     0
  9
$BLIPMODE
 70
     0
  9
$CHAMFERA
 40
0.0
  9
$CHAMFERB
 40
0.0
  9
$SKPOLY
 70
     0
  9
$TDCREATE
 40
2458128.4700686689
  9
$TDUPDATE
 40
2458134.657067569
  9
$TDINDWG
 40
0.0457704861
  9
$TDUSRTIMER
 40
0.0457704861
  9
$USRTIMER
 70
     1
  9
$ANGBASE
 50
0.0
  9
$ANGDIR
 70
     0
  9
$PDMODE
 70
     0
  9
$PDSIZE
 40
0.3125
  9
$PLINEWID
 40
0.0
  9
$COORDS
 70
     1
  9
$SPLFRAME
 70
     0
  9
$SPLINETYPE
 70
     6
  9
$SPLINESEGS
 70
     8
  9
$ATTDIA
 70
     1
  9
$ATTREQ
 70
     1
  9
$HANDLING
 70
     1
  9
$HANDSEED
  5
D5E
  9
$SURFTAB1
 70
     6
  9
$SURFTAB2
 70
     6
  9
$SURFTYPE
 70
     6
  9
$SURFU
 70
     6
  9
$SURFV
 70
     6
  9
$UCSNAME
  2

  9
$UCSORG
 10
0.0
 20
0.0
 30
0.0
  9
$UCSXDIR
 10
1.0
 20
0.0
 30
0.0
  9
$UCSYDIR
 10
0.0
 20
1.0
 30
0.0
  9
$PUCSNAME
  2

  9
$PUCSORG
 10
0.0
 20
0.0
 30
0.0
  9
$PUCSXDIR
 10
1.0
 20
0.0
 30
0.0
  9
$PUCSYDIR
 10
0.0
 20
1.0
 30
0.0
  9
$USERI1
 70
     0
  9
$USERI2
 70
     0
  9
$USERI3
 70
     0
  9
$USERI4
 70
     0
  9
$USERI5
 70
     0
  9
$USERR1
 40
0.0
  9
$USERR2
 40
0.0
  9
$USERR3
 40
0.0
  9
$USERR4
 40
0.0
  9
$USERR5
 40
0.0
  9
$WORLDVIEW
 70
     1
  9
$SHADEDGE
 70
     3
  9
$SHADEDIF
 70
    70
  9
$TILEMODE
 70
     1
  9
$MAXACTVP
 70
    48
  9
$PLIMCHECK
 70
     0
  9
$PEXTMIN
 10
1.0000000000000000E+020
 20
1.0000000000000000E+020
 30
1.0000000000000000E+020
  9
$PEXTMAX
 10
-1.0000000000000000E+020
 20
-1.0000000000000000E+020
 30
-1.0000000000000000E+020
  9
$PLIMMIN
 10
0.0
 20
0.0
  9
$PLIMMAX
 10
12.0
 20
9.0
  9
$UNITMODE
 70
     0
  9
$VISRETAIN
 70
     1
  9
$PLINEGEN
 70
     0
  9
$PSLTSCALE
 70
     1
  0
ENDSEC
  0
SECTION
  2
TABLES
  0
TABLE
  2
VPORT
 70
     1
  0
VPORT
  2
*ACTIVE
 70
     0
 10
0.0
 20
0.0
 11
1.0
 21
1.0
 12
-28.862829942306579
 22
49.50802383627267
 13
0.0
 23
0.0
 14
1.0
 24
1.0
 15
0.0
 25
0.0
 16
0.0
 26
0.0
 36
1.0
 17
0.0
 27
0.0
 37
0.0
 40
43.576449123550482
 41
2.0329087048832268
 42
50.0
 43
0.0
 44
0.0
 50
0.0
 51
0.0
 71
     0
 72
   100
 73
     1
 74
     1
 75
     0
 76
     0
 77
     0
 78
     0
  0
ENDTAB
  0
TABLE
  2
LTYPE
 70
     8
  0
LTYPE
  2
CONTINUOUS
 70
     0
  3
Solid line
 72
    65
 73
     0
 40
0.0
  0
LTYPE
  2
PHANTOM2
 70
     0
  3
___ _ _ ___ _ _ ___ _ _ ___ _ _
 72
    65
 73
     6
 40
1.25
 49
0.625
 49
-0.125
 49
0.125
 49
-0.125
 49
0.125
 49
-0.125
  0
ENDTAB
  0
TABLE
  2
LAYER
 70
    82
  0
LAYER
  2
0
 70
     0
 62
     7
  6
CONTINUOUS
  0
LAYER
  2
DEFPOINTS
 70
     0
 62
     7
  6
CONTINUOUS
  0
ENDTAB
  0
TABLE
  2
STYLE
 70
     2
  0
STYLE
  2
STANDARD
 70
     0
 40
0.0
 41
0.8
 50
0.0
 71
     0
 42
0.2
  3
txt
  4

  0
ENDTAB
  0
TABLE
  2
VIEW
 70
     0
  0
ENDTAB
  0
TABLE
  2
UCS
 70
     0
  0
ENDTAB
  0
TABLE
  2
APPID
 70
     7
  0
APPID
  2
ACAD
 70
     0
  0
APPID
  2
ACAD_MLEADERVER
 70
     0
  0
APPID
  2
ACAD_DSTYLE_DIMJAG
 70
     0
  0
APPID
  2
ACAD_DSTYLE_DIMTALN
 70
     0
  0
APPID
  2
ACAD_NAV_VCDISPLAY
 70
     0
  0
APPID
  2
ACAD_EXEMPT_FROM_CAD_STANDARDS
 70
     0
  0
APPID
  2
AcDbAttr
 70
     0
  0
ENDTAB
  0
TABLE
  2
DIMSTYLE
 70
     2
  0
DIMSTYLE
  2
STANDARD
 70
     0
  3

  4

  5

  6

  7

 40
1.0
 41
0.1875
 42
0.0625
 43
0.38
 44
0.125
 45
0.0
 46
0.0
 47
1.5
 48
1.5
140
0.15625
141
0.09
142
0.0
143
25.399999999999999
144
1.0
145
0.0
146
1.0
147
0.09
 71
     0
 72
     0
 73
     1
 74
     1
 75
     0
 76
     0
 77
     0
 78
     4
170
     0
171
     2
172
     0
173
     0
174
     0
175
     0
176
     0
177
     0
178
     0
  0
ENDTAB
  0
ENDSEC
  0
SECTION
  2
BLOCKS
  0
BLOCK
  8
0
  2
$MODEL_SPACE
 70
     0
 10
0.0
 20
0.0
 30
0.0
  3
$MODEL_SPACE
  1

  0
ENDBLK
  5
21
  8
0
  0
BLOCK
 67
     1
  8
0
  2
$PAPER_SPACE
 70
     0
 10
0.0
 20
0.0
 30
0.0
  3
$PAPER_SPACE
  1

  0
ENDBLK
  5
1D
 67
     1
  8
0
  0
ENDSEC
  0
SECTION
  2
ENTITIES
  0
LINE
  5
7D3
  8
0
 10
-50.103446444199989
 20
53.389130875999989
 30
0.0
 11
-50.103446444199989
 21
54.709130875999989
 31
0.0
  0
LINE
  5
7D4
  8
0
 10
-50.068446444199999
 20
52.446018355699998
 30
0.0
 11
-50.068446444199999
 21
55.124018355699988
 31
0.0
  0
LINE
  5
7D5
  8
0
 10
-47.688446444199997
 20
55.7440183557
 30
0.0
 11
-47.688446444199997
 21
55.124018355699988
 31
0.0
  0
LINE
  5
7D6
  8
0
 10
-46.938446444199997
 20
55.7440183557
 30
0.0
 11
-46.938446444199997
 21
55.124018355699988
 31
0.0
  0
LINE
  5
7D7
  8
0
 10
-44.068446444199999
 20
52.446018355699998
 30
0.0
 11
-44.068446444199999
 21
55.124018355699988
 31
0.0
  0
LINE
  5
7D8
  8
0
 10
-27.6884464442
 20
55.064018355699993
 30
0.0
 11
-27.6884464442
 21
55.7440183557
 31
0.0
  0
LINE
  5
7D9
  8
0
 10
-24.448446444199998
 20
50.839018355699999
 30
0.0
 11
-6.6984464441999991
 21
50.839018355699992
 31
0.0
  0
LINE
  5
7DA
  8
0
 10
-24.448446444199998
 20
51.589018355699999
 30
0.0
 11
-6.6984464441999991
 21
51.589018355699999
 31
0.0
  0
LINE
  5
7DB
  8
0
 10
-26.9384464442
 20
55.064018355699993
 30
0.0
 11
-26.9384464442
 21
55.7440183557
 31
0.0
  0
LINE
  5
7DC
  8
0
 10
-50.068446444199999
 20
52.446018355699998
 30
0.0
 11
-44.068446444199999
 21
52.446018355699998
 31
0.0
  0
LINE
  5
7DD
  8
0
 10
-8.8184464441999992
 20
52.446018355699998
 30
0.0
 11
-2.8184464441999988
 21
52.446018355699998
 31
0.0
  0
LINE
  5
7DE
  8
0
 10
-44.068446444199999
 20
52.534018355699992
 30
0.0
 11
-8.8184464441999992
 21
52.534018355699992
 31
0.0
  0
LINE
  5
7DF
  8
0
 10
-2.8184464441999988
 20
52.9625241934
 30
0.0
 11
-8.8184464441999992
 21
52.9625241934
 31
0.0
  0
LINE
  5
7E0
  8
0
 10
-44.068446444199999
 20
52.9625241934
 30
0.0
 11
-50.068446444199999
 21
52.9625241934
 31
0.0
  0
LINE
  5
7E1
  8
0
 10
-8.8184464441999992
 20
53.023277696499989
 30
0.0
 11
-44.068446444199999
 21
53.023277696499989
 31
0.0
  0
LINE
  5
7E2
  8
0
 10
-2.8184464441999988
 20
53.389130875999989
 30
0.0
 11
-2.6534464441999921
 21
53.389130875999989
 31
0.0
  0
LINE
  5
7E3
  8
0
 10
-50.068446444199999
 20
53.389130875999989
 30
0.0
 11
-50.103446444199989
 21
53.389130875999989
 31
0.0
  0
LINE
  5
7E4
  8
0
 10
-25.948446444199998
 20
52.534018355699999
 30
0.0
 11
-25.948446444199998
 21
52.339018355700013
 31
0.0
  0
LINE
  5
7E5
  8
0
 10
-25.198446444199998
 20
52.534018355699999
 30
0.0
 11
-25.198446444199998
 21
52.339018355700013
 31
0.0
  0
LINE
  5
7E6
  8
0
 10
-2.8184464441999988
 20
54.709130875999989
 30
0.0
 11
-2.6534464441999921
 21
54.709130875999989
 31
0.0
  0
LINE
  5
7E7
  8
0
 10
-50.068446444199999
 20
54.709130875999989
 30
0.0
 11
-50.103446444199989
 21
54.709130875999989
 31
0.0
  0
LINE
  5
7E8
  8
0
 10
-44.068446444199999
 20
55.064018355699993
 30
0.0
 11
-8.8184464441999992
 21
55.064018355699993
 31
0.0
  0
LINE
  5
7E9
  8
0
 10
-50.068446444199999
 20
55.124018355699988
 30
0.0
 11
-44.068446444199999
 21
55.124018355699988
 31
0.0
  0
LINE
  5
7EA
  8
0
 10
-8.8184464441999992
 20
55.124018355699988
 30
0.0
 11
-2.8184464441999988
 21
55.124018355699988
 31
0.0
  0
LINE
  5
7EB
  8
0
 10
-28.4384464442
 20
56.494018355699993
 30
0.0
 11
-46.188446444199997
 21
56.494018355699993
 31
0.0
  0
LINE
  5
7EC
  8
0
 10
-28.4384464442
 20
57.2440183557
 30
0.0
 11
-46.188446444199997
 21
57.2440183557
 31
0.0
  0
LINE
  5
7ED
  8
0
 10
-8.8184464441999992
 20
52.446018355699998
 30
0.0
 11
-8.8184464441999992
 21
55.124018355699988
 31
0.0
  0
LINE
  5
7EE
  8
0
 10
-5.9484464441999991
 20
52.339018355699999
 30
0.0
 11
-5.9484464441999991
 21
52.446018355699998
 31
0.0
  0
LINE
  5
7EF
  8
0
 10
-5.1984464441999991
 20
52.339018355699999
 30
0.0
 11
-5.1984464441999991
 21
52.446018355699998
 31
0.0
  0
LINE
  5
7F0
  8
0
 10
-2.8184464441999988
 20
52.446018355699998
 30
0.0
 11
-2.8184464441999988
 21
55.124018355699988
 31
0.0
  0
LINE
  5
7F1
  8
0
 10
-2.6534464441999921
 20
54.709130875999989
 30
0.0
 11
-2.6534464441999921
 21
53.389130875999989
 31
0.0
  0
ARC
  5
7F2
  8
0
 10
-46.188446444199997
 20
55.7440183557
 30
0.0
 40
1.5
 50
90.0
 51
180.0
  0
ARC
  5
7F3
  8
0
 10
-28.4384464442
 20
55.7440183557
 30
0.0
 40
1.5
 50
0.0
 51
90.0
  0
ARC
  5
7F4
  8
0
 10
-6.6984464441999991
 20
52.339018355699999
 30
0.0
 40
1.5
 50
270.0
 51
0.0
  0
ARC
  5
7F5
  8
0
 10
-24.448446444199998
 20
52.339018355700013
 30
0.0
 40
1.5
 50
180.0
 51
270.0
  0
ARC
  5
7F6
  8
0
 10
-46.188446444199997
 20
55.7440183557
 30
0.0
 40
0.75
 50
90.0
 51
180.0
  0
ARC
  5
7F7
  8
0
 10
-28.4384464442
 20
55.7440183557
 30
0.0
 40
0.75
 50
0.0
 51
90.0
  0
ARC
  5
7F8
  8
0
 10
-6.6984464441999991
 20
52.339018355699999
 30
0.0
 40
0.75
 50
270.0
 51
0.0
  0
ARC
  5
7F9
  8
0
 10
-24.448446444199998
 20
52.339018355700013
 30
0.0
 40
0.75
 50
180.0
 51
270.0
  0
LINE
  5
854
  8
0
 10
-2.7694464441999922
 20
53.211630875999987
 30
0.0
 11
-2.7874464441999929
 21
53.211630875999987
 31
0.0
  0
LINE
  5
855
  8
0
 10
-2.7874464441999929
 20
54.886630875999991
 30
0.0
 11
-2.7694464441999922
 21
54.886630875999991
 31
0.0
  0
LINE
  5
856
  8
0
 10
-2.7534464442000011
 20
54.952018355699998
 30
0.0
 11
-2.7534464442000011
 21
54.902630875999989
 31
0.0
  0
LINE
  5
857
  8
0
 10
-2.7534464442000011
 20
53.195630875999981
 30
0.0
 11
-2.7534464442000011
 21
53.146243396199992
 31
0.0
  0
ARC
  5
858
  8
0
 10
-3.457946444199997
 20
39.130367834899999
 30
0.0
 40
14.0
 50
87.252980503900346
 51
87.381899645817398
  0
ARC
  5
859
  8
0
 10
-3.457946444199997
 20
68.967893916999998
 30
0.0
 40
14.0
 50
272.61810035418262
 51
272.7470194960996
  0
ARC
  5
85A
  8
0
 10
-2.7854464441999971
 20
54.952018355699998
 30
0.0
 40
0.032
 50
0.0000000001001493
 51
92.747019496199883
  0
ARC
  5
85B
  8
0
 10
-2.7854464441999971
 20
53.146243396199992
 30
0.0
 40
0.032
 50
267.25298050380007
 51
0.0
  0
ARC
  5
85C
  8
0
 10
-2.7874213796006369
 20
54.902692101833331
 30
0.0
 40
0.0160612453908067
 50
181.1207561874036
 51
269.9105862398668
  0
ARC
  5
85D
  8
0
 10
-2.7694464441999922
 20
54.902630875999989
 30
0.0
 40
0.016
 50
269.99999999989979
 51
0.0
  0
ARC
  5
85E
  8
0
 10
-2.7694464441999922
 20
53.195630875999981
 30
0.0
 40
0.016
 50
0.0000000001001493
 51
90.00000000010013
  0
ARC
  5
85F
  8
0
 10
-2.7874213817449842
 20
53.195569652349917
 30
0.0
 40
0.0160612432041922
 50
90.08940612270041
 51
178.87925144998439
  0
ARC
  5
860
  8
0
 10
-2.8193838829999929
 20
53.197630875999998
 30
0.0
 40
0.016
 50
273.3588790119345
 51
353.73125391350032
  0
ARC
  5
861
  8
0
 10
-2.8193838829999929
 20
54.900630876000001
 30
0.0
 40
0.016
 50
6.2687460863997897
 51
86.641120988065566
  0
ATTDEF
  5
ABA
  8
DEFPOINTS
 10
-26.383442620446271
 20
53.76990869862076
 30
0.0
 40
0.001
  1
ALUMINUM/GLASS
  3

  2
MATERIAL
 70
     0
1001
AcDbAttr
1070
     0
1070
     1
  0
ATTDEF
  5
ABB
  8
DEFPOINTS
 10
-26.383442620446271
 20
53.771575365287433
 30
0.0
 40
0.001
  1
SHOWER DOOR
  3

  2
PRODUCT
 70
     0
1001
AcDbAttr
1070
     0
1070
     1
  0
ATTDEF
  5
ABC
  8
DEFPOINTS
 10
-26.383442620446271
 20
53.773242031954098
 30
0.0
 40
0.001
  1
FINESSE
  3

  2
TRADENAME
 70
     0
1001
AcDbAttr
1070
     0
1070
     1
  0
ATTDEF
  5
ABD
  8
DEFPOINTS
 10
-26.383442620446271
 20
53.774908698620763
 30
0.0
 40
0.001
  1
5375EZ-47
  3

  2
MODELNUMBER
 70
     0
1001
AcDbAttr
1070
     0
1070
     1
  0
ENDSEC
  0
EOF
