  0
SECTION
  2
HEADER
  9
$ACADVER
  1
AC1009
  9
$INSBASE
 10
-14.1115940007
 20
-21.3269874579
 30
0.0
  9
$EXTMIN
 10
-36.961594000700003
 20
-32.767622797530152
 30
0.0
  9
$EXTMAX
 10
41.247297478465718
 20
78.054215786044693
 30
0.0
  9
$LIMMIN
 10
0.0
 20
0.0
  9
$LIMMAX
 10
22.0
 20
17.0
  9
$ORTHOMODE
 70
     0
  9
$REGENMODE
 70
     1
  9
$FILLMODE
 70
     1
  9
$QTEXTMODE
 70
     0
  9
$MIRRTEXT
 70
     0
  9
$DRAGMODE
 70
     2
  9
$LTSCALE
 40
1.2099999999999991
  9
$OSMODE
 70
    39
  9
$ATTMODE
 70
     1
  9
$TEXTSIZE
 40
0.2
  9
$TRACEWID
 40
0.05
  9
$TEXTSTYLE
  7
STANDARD
  9
$CLAYER
  8
0
  9
$CELTYPE
  6
BYLAYER
  9
$CECOLOR
 62
   256
  9
$DIMSCALE
 40
1.0
  9
$DIMASZ
 40
0.1875
  9
$DIMEXO
 40
0.0625
  9
$DIMDLI
 40
0.8359999999999999
  9
$DIMRND
 40
0.0
  9
$DIMDLE
 40
0.0
  9
$DIMEXE
 40
0.125
  9
$DIMTP
 40
0.0
  9
$DIMTM
 40
0.0
  9
$DIMTXT
 40
2.0
  9
$DIMCEN
 40
0.198
  9
$DIMTSZ
 40
0.0
  9
$DIMTOL
 70
     0
  9
$DIMLIM
 70
     0
  9
$DIMTIH
 70
     1
  9
$DIMTOH
 70
     1
  9
$DIMSE1
 70
     0
  9
$DIMSE2
 70
     0
  9
$DIMTAD
 70
     0
  9
$DIMZIN
 70
     0
  9
$DIMBLK
  1

  9
$DIMASO
 70
     1
  9
$DIMSHO
 70
     1
  9
$DIMPOST
  1
\X
  9
$DIMAPOST
  1

  9
$DIMALT
 70
     1
  9
$DIMALTD
 70
     2
  9
$DIMALTF
 40
25.399999999999999
  9
$DIMLFAC
 40
1.0
  9
$DIMTOFL
 70
     0
  9
$DIMTVP
 40
0.0
  9
$DIMTIX
 70
     0
  9
$DIMSOXD
 70
     0
  9
$DIMSAH
 70
     0
  9
$DIMBLK1
  1

  9
$DIMBLK2
  1

  9
$DIMSTYLE
  2
STANDARD
  9
$DIMCLRD
 70
     0
  9
$DIMCLRE
 70
     0
  9
$DIMCLRT
 70
     0
  9
$DIMTFAC
 40
1.0
  9
$DIMGAP
 40
0.09
  9
$LUNITS
 70
     2
  9
$LUPREC
 70
     4
  9
$SKETCHINC
 40
0.1
  9
$FILLETRAD
 40
0.0
  9
$AUNITS
 70
     0
  9
$AUPREC
 70
     0
  9
$MENU
  1
.
  9
$ELEVATION
 40
0.0
  9
$PELEVATION
 40
0.0
  9
$THICKNESS
 40
0.0
  9
$LIMCHECK
 70
     0
  9
$BLIPMODE
 70
     0
  9
$CHAMFERA
 40
0.0
  9
$CHAMFERB
 40
0.0
  9
$SKPOLY
 70
     0
  9
$TDCREATE
 40
2458128.6703614239
  9
$TDUPDATE
 40
2458128.7392921299
  9
$TDINDWG
 40
0.0647253125
  9
$TDUSRTIMER
 40
0.0647253125
  9
$USRTIMER
 70
     1
  9
$ANGBASE
 50
0.0
  9
$ANGDIR
 70
     0
  9
$PDMODE
 70
     0
  9
$PDSIZE
 40
0.3125
  9
$PLINEWID
 40
0.0
  9
$COORDS
 70
     1
  9
$SPLFRAME
 70
     0
  9
$SPLINETYPE
 70
     6
  9
$SPLINESEGS
 70
     8
  9
$ATTDIA
 70
     1
  9
$ATTREQ
 70
     1
  9
$HANDLING
 70
     1
  9
$HANDSEED
  5
D54
  9
$SURFTAB1
 70
     6
  9
$SURFTAB2
 70
     6
  9
$SURFTYPE
 70
     6
  9
$SURFU
 70
     6
  9
$SURFV
 70
     6
  9
$UCSNAME
  2

  9
$UCSORG
 10
0.0
 20
0.0
 30
0.0
  9
$UCSXDIR
 10
1.0
 20
0.0
 30
0.0
  9
$UCSYDIR
 10
0.0
 20
1.0
 30
0.0
  9
$PUCSNAME
  2

  9
$PUCSORG
 10
0.0
 20
0.0
 30
0.0
  9
$PUCSXDIR
 10
1.0
 20
0.0
 30
0.0
  9
$PUCSYDIR
 10
0.0
 20
1.0
 30
0.0
  9
$USERI1
 70
     0
  9
$USERI2
 70
     0
  9
$USERI3
 70
     0
  9
$USERI4
 70
     0
  9
$USERI5
 70
     0
  9
$USERR1
 40
0.0
  9
$USERR2
 40
0.0
  9
$USERR3
 40
0.0
  9
$USERR4
 40
0.0
  9
$USERR5
 40
0.0
  9
$WORLDVIEW
 70
     1
  9
$SHADEDGE
 70
     3
  9
$SHADEDIF
 70
    70
  9
$TILEMODE
 70
     1
  9
$MAXACTVP
 70
    48
  9
$PLIMCHECK
 70
     0
  9
$PEXTMIN
 10
1.0000000000000000E+020
 20
1.0000000000000000E+020
 30
1.0000000000000000E+020
  9
$PEXTMAX
 10
-1.0000000000000000E+020
 20
-1.0000000000000000E+020
 30
-1.0000000000000000E+020
  9
$PLIMMIN
 10
0.0
 20
0.0
  9
$PLIMMAX
 10
12.0
 20
9.0
  9
$UNITMODE
 70
     0
  9
$VISRETAIN
 70
     1
  9
$PLINEGEN
 70
     0
  9
$PSLTSCALE
 70
     1
  0
ENDSEC
  0
SECTION
  2
TABLES
  0
TABLE
  2
VPORT
 70
     1
  0
VPORT
  2
*ACTIVE
 70
     0
 10
0.0
 20
0.0
 11
1.0
 21
1.0
 12
-12.576026055789921
 22
1.3049901658391709
 13
0.0
 23
0.0
 14
1.0
 24
1.0
 15
0.0
 25
0.0
 16
0.0
 26
0.0
 36
1.0
 17
0.0
 27
0.0
 37
0.0
 40
142.36417544779519
 41
2.0329087048832268
 42
50.0
 43
0.0
 44
0.0
 50
0.0
 51
0.0
 71
     0
 72
   100
 73
     1
 74
     1
 75
     0
 76
     0
 77
     0
 78
     0
  0
ENDTAB
  0
TABLE
  2
LTYPE
 70
     2
  0
LTYPE
  2
CONTINUOUS
 70
     0
  3
Solid line
 72
    65
 73
     0
 40
0.0
  0
LTYPE
  2
PHANTOM2
 70
     0
  3
___ _ _ ___ _ _ ___ _ _ ___ _ _
 72
    65
 73
     6
 40
1.25
 49
0.625
 49
-0.125
 49
0.125
 49
-0.125
 49
0.125
 49
-0.125
  0
ENDTAB
  0
TABLE
  2
LAYER
 70
     2
  0
LAYER
  2
0
 70
     0
 62
     7
  6
CONTINUOUS
  0
LAYER
  2
DEFPOINTS
 70
     0
 62
     7
  6
CONTINUOUS
  0
ENDTAB
  0
TABLE
  2
STYLE
 70
     1
  0
STYLE
  2
STANDARD
 70
     0
 40
0.0
 41
0.8
 50
0.0
 71
     0
 42
0.2
  3
txt
  4

  0
ENDTAB
  0
TABLE
  2
VIEW
 70
     0
  0
ENDTAB
  0
TABLE
  2
UCS
 70
     0
  0
ENDTAB
  0
TABLE
  2
APPID
 70
     7
  0
APPID
  2
ACAD
 70
     0
  0
APPID
  2
ACAD_MLEADERVER
 70
     0
  0
APPID
  2
ACAD_NAV_VCDISPLAY
 70
     0
  0
APPID
  2
ACAD_DSTYLE_DIMJAG
 70
     0
  0
APPID
  2
ACAD_DSTYLE_DIMTALN
 70
     0
  0
APPID
  2
ACAD_EXEMPT_FROM_CAD_STANDARDS
 70
     0
  0
APPID
  2
ACDBATTR
 70
     0
  0
ENDTAB
  0
TABLE
  2
DIMSTYLE
 70
     1
  0
DIMSTYLE
  2
STANDARD
 70
     0
  3

  4

  5

  6

  7

 40
1.0
 41
0.1875
 42
0.0625
 43
0.38
 44
0.125
 45
0.0
 46
0.0
 47
1.5
 48
1.5
140
0.15625
141
0.09
142
0.0
143
25.399999999999999
144
1.0
145
0.0
146
1.0
147
0.09
 71
     0
 72
     0
 73
     1
 74
     1
 75
     0
 76
     0
 77
     0
 78
     4
170
     0
171
     2
172
     0
173
     0
174
     0
175
     0
176
     0
177
     0
178
     0
  0
ENDTAB
  0
ENDSEC
  0
SECTION
  2
BLOCKS
  0
BLOCK
  8
0
  2
$MODEL_SPACE
 70
     0
 10
0.0
 20
0.0
 30
0.0
  3
$MODEL_SPACE
  1

  0
ENDBLK
  5
21
  8
0
  0
BLOCK
 67
     1
  8
0
  2
$PAPER_SPACE
 70
     0
 10
0.0
 20
0.0
 30
0.0
  3
$PAPER_SPACE
  1

  0
ENDBLK
  5
1D
 67
     1
  8
0
  0
ENDSEC
  0
SECTION
  2
ENTITIES
  0
LINE
  5
943
  8
0
 10
-36.861594000700009
 20
-21.326987458000001
 30
0.0
 11
-35.452594000700003
 21
-21.326987458000001
 31
0.0
  0
LINE
  5
944
  8
0
 10
-35.452594000700003
 20
-21.326987458000001
 30
0.0
 11
-16.276594000700001
 21
-21.3269874579
 31
0.0
  0
LINE
  5
945
  8
0
 10
-10.276594000699999
 20
-21.3269874579
 30
0.0
 11
7.2294059992999911
 21
-21.326987458000001
 31
0.0
  0
LINE
  5
946
  8
0
 10
7.2294059992999911
 20
-21.326987458000001
 30
0.0
 11
8.6384059992999838
 21
-21.326987458000001
 31
0.0
  0
LINE
  5
947
  8
0
 10
8.6384059992999838
 20
-21.326987458000001
 30
0.0
 11
8.7384059992999781
 21
-21.326987458000001
 31
0.0
  0
LINE
  5
948
  8
0
 10
-10.276594000699999
 20
-21.3269874579
 30
0.0
 11
-16.276594000700001
 21
-21.3269874579
 31
0.0
  0
LINE
  5
949
  8
0
 10
-36.861594000700009
 20
-21.326987458000001
 30
0.0
 11
-36.961594000700003
 21
-21.326987458000001
 31
0.0
  0
LINE
  5
94A
  8
0
 10
7.2294059992999911
 20
-21.201987458000001
 30
0.0
 11
-10.276594000699999
 21
-21.2019874579
 31
0.0
  0
LINE
  5
94B
  8
0
 10
-16.276594000700001
 20
-21.2019874579
 30
0.0
 11
-35.452594000700003
 21
-21.201987458000001
 31
0.0
  0
LINE
  5
94C
  8
0
 10
8.6384059992999838
 20
-19.926987457999999
 30
0.0
 11
8.7384059992999781
 21
-19.926987457999999
 31
0.0
  0
LINE
  5
94D
  8
0
 10
-36.861594000700009
 20
-19.926987457999999
 30
0.0
 11
-36.961594000700003
 21
-19.926987457999999
 31
0.0
  0
LINE
  5
94E
  8
0
 10
7.2294059992999911
 20
-19.676987457999999
 30
0.0
 11
-10.276594000699999
 21
-19.676987457900001
 31
0.0
  0
LINE
  5
94F
  8
0
 10
-16.276594000700001
 20
-19.676987457900001
 30
0.0
 11
-35.452594000700003
 21
-19.676987457999999
 31
0.0
  0
LINE
  5
950
  8
0
 10
-16.355199716499989
 20
-19.651492127499999
 30
0.0
 11
-16.276594000700001
 21
-19.651492127499999
 31
0.0
  0
LINE
  5
951
  8
0
 10
-16.276594000700001
 20
-19.618987457900001
 30
0.0
 11
-10.276594000699999
 21
-19.618987457900001
 31
0.0
  0
LINE
  5
952
  8
0
 10
-35.452594000700003
 20
-19.504987457999992
 30
0.0
 11
-15.14159400070001
 21
-19.5049874579
 31
0.0
  0
LINE
  5
953
  8
0
 10
7.2294059992999982
 20
-19.50498745789999
 30
0.0
 11
-15.14159400070001
 21
-19.5049874579
 31
0.0
  0
LINE
  5
954
  8
0
 10
-35.452594000700003
 20
-19.408987457999999
 30
0.0
 11
-15.14159400070001
 21
-19.4089874579
 31
0.0
  0
LINE
  5
955
  8
0
 10
-15.1415940007
 20
-19.4089874579
 30
0.0
 11
7.2294059992999982
 21
-19.4089874579
 31
0.0
  0
LINE
  5
956
  8
0
 10
-36.961594000700003
 20
-21.326987458000001
 30
0.0
 11
-36.961594000700003
 21
-19.926987457999999
 31
0.0
  0
LINE
  5
957
  8
0
 10
-36.926594000699993
 20
44.177012541999993
 30
0.0
 11
-36.926594000699993
 21
41.099012542000011
 31
0.0
  0
LINE
  5
958
  8
0
 10
-36.861594000700009
 20
-21.326987458000001
 30
0.0
 11
-36.861594000700002
 21
41.099012542000011
 31
0.0
  0
LINE
  5
959
  8
0
 10
-35.452594000699989
 20
41.099012542000011
 30
0.0
 11
-35.452594000700003
 21
-21.326987458000001
 31
0.0
  0
LINE
  5
95A
  8
0
 10
-30.9265940007
 20
41.099012542000011
 30
0.0
 11
-30.9265940007
 21
44.177012541999993
 31
0.0
  0
LINE
  5
95B
  8
0
 10
-16.276594000700001
 20
-19.6190018896
 30
0.0
 11
-16.276594000700001
 21
-21.3269874579
 31
0.0
  0
LINE
  5
95C
  8
0
 10
-15.14159400070001
 20
-19.4089874579
 30
0.0
 11
-15.1415940007
 21
41.149012542000001
 31
0.0
  0
LINE
  5
95D
  8
0
 10
-16.375196657199989
 20
-19.671143271999998
 30
0.0
 11
-16.375298667799989
 21
-19.676987457900001
 31
0.0
  0
LINE
  5
95E
  8
0
 10
5.2584059992999954
 20
10.847012542
 30
0.0
 11
-12.74159400069999
 21
10.847012542
 31
0.0
  0
LINE
  5
95F
  8
0
 10
5.2584059992999954
 20
11.597012542
 30
0.0
 11
-12.74159400069999
 21
11.597012542
 31
0.0
  0
LINE
  5
961
  8
0
 10
-10.276594000699999
 20
-21.3269874579
 30
0.0
 11
-10.276594000699999
 21
-19.6190018896
 31
0.0
  0
LINE
  5
962
  8
0
 10
2.5734059992999998
 20
44.177012541999993
 30
0.0
 11
2.5734059992999998
 21
41.099012542000011
 31
0.0
  0
LINE
  5
964
  8
0
 10
7.2294059992999911
 20
-21.326987458000001
 30
0.0
 11
7.2294059993000062
 21
41.099012542000011
 31
0.0
  0
LINE
  5
965
  8
0
 10
8.5734059993000002
 20
41.099012542000011
 30
0.0
 11
8.5734059993000002
 21
44.177012541999993
 31
0.0
  0
LINE
  5
966
  8
0
 10
8.6384059992999962
 20
41.991218034799992
 30
0.0
 11
8.6384059992999838
 21
-21.326987458000001
 31
0.0
  0
LINE
  5
967
  8
0
 10
8.7384059992999781
 20
-19.926987457999999
 30
0.0
 11
8.7384059992999781
 21
-21.326987458000001
 31
0.0
  0
LINE
  5
968
  8
0
 10
8.5734059993000002
 20
41.099012542000011
 30
0.0
 11
2.5734059992999998
 21
41.099012542000011
 31
0.0
  0
LINE
  5
969
  8
0
 10
-30.9265940007
 20
41.099012542000011
 30
0.0
 11
-36.926594000699993
 21
41.099012542000011
 31
0.0
  0
LINE
  5
96A
  8
0
 10
-30.9265940007
 20
41.149012541999987
 30
0.0
 11
2.5734059992999998
 21
41.149012541999987
 31
0.0
  0
LINE
  5
96B
  8
0
 10
-30.9265940007
 20
44.117012542000012
 30
0.0
 11
2.5734059992999998
 21
44.117012542000012
 31
0.0
  0
LINE
  5
96C
  8
0
 10
-36.926594000699993
 20
44.177012541999993
 30
0.0
 11
-30.9265940007
 21
44.177012541999993
 31
0.0
  0
LINE
  5
96D
  8
0
 10
2.5734059992999998
 20
44.177012541999993
 30
0.0
 11
8.5734059993000002
 21
44.177012541999993
 31
0.0
  0
CIRCLE
  5
96F
  8
0
 10
-15.6115940007
 20
11.222012542
 30
0.0
 40
0.38
  0
CIRCLE
  5
970
  8
0
 10
-33.611594000700002
 20
11.222012542
 30
0.0
 40
0.38
  0
ARC
  5
971
  8
0
 10
-12.74159400069999
 20
11.222012542
 30
0.0
 40
0.375
 50
90.0
 51
270.0
  0
ARC
  5
972
  8
0
 10
5.2584059992999954
 20
11.222012542
 30
0.0
 40
0.375
 50
270.0
 51
90.0
  0
ARC
  5
973
  8
0
 10
-16.355199794899999
 20
-19.671493099799999
 30
0.0
 40
0.0199999935
 50
89.999760638100355
 51
178.99909076909989
  0
ARC
  5
A22
  8
0
 10
7.8884059992999971
 20
41.991218034799992
 30
0.0
 40
0.75
 50
0.0
 51
24.029863840454571
  0
ATTDEF
  5
A75
  8
DEFPOINTS
 10
-14.11683359876382
 20
-21.342582324515131
 30
0.0
 40
0.001
  1
ALUMINUM/GLASS
  3

  2
MATERIAL
 70
     0
1001
ACDBATTR
1070
     0
1070
     1
  0
ATTDEF
  5
A76
  8
DEFPOINTS
 10
-14.11683359876382
 20
-21.340915657848459
 30
0.0
 40
0.001
  1
SHOWER DOOR
  3

  2
PRODUCT
 70
     0
1001
ACDBATTR
1070
     0
1070
     1
  0
ATTDEF
  5
A77
  8
DEFPOINTS
 10
-14.11683359876382
 20
-21.33924899118179
 30
0.0
 40
0.001
  1
FINESSE
  3

  2
TRADENAME
 70
     0
1001
ACDBATTR
1070
     0
1070
     1
  0
ATTDEF
  5
A78
  8
DEFPOINTS
 10
-14.11683359876382
 20
-21.337582324515129
 30
0.0
 40
0.001
  1
5365EZ-45
  3

  2
MODELNUMBER
 70
     0
1001
ACDBATTR
1070
     0
1070
     1
  0
ENDSEC
  0
EOF
