  0
SECTION
  2
HEADER
  9
$ACADVER
  1
AC1009
  9
$INSBASE
 10
33.24424563106664
 20
16.4854609028
 30
0.0
  9
$EXTMIN
 10
24.610296233133269
 20
8.4854609027999999
 30
0.0
  9
$EXTMAX
 10
41.878195028999997
 20
16.497774468250761
 30
0.0
  9
$LIMMIN
 10
0.0
 20
0.0
  9
$LIMMAX
 10
22.0
 20
17.0
  9
$ORTHOMODE
 70
     1
  9
$REGENMODE
 70
     1
  9
$FILLMODE
 70
     1
  9
$QTEXTMODE
 70
     0
  9
$MIRRTEXT
 70
     0
  9
$DRAGMODE
 70
     2
  9
$LTSCALE
 40
1.2099999999999991
  9
$OSMODE
 70
  3071
  9
$ATTMODE
 70
     1
  9
$TEXTSIZE
 40
0.2
  9
$TRACEWID
 40
0.05
  9
$TEXTSTYLE
  7
STANDARD
  9
$CLAYER
  8
0
  9
$CELTYPE
  6
BYLAYER
  9
$CECOLOR
 62
   256
  9
$DIMSCALE
 40
1.0
  9
$DIMASZ
 40
0.1875
  9
$DIMEXO
 40
0.0625
  9
$DIMDLI
 40
0.8359999999999999
  9
$DIMRND
 40
0.0
  9
$DIMDLE
 40
0.0
  9
$DIMEXE
 40
0.125
  9
$DIMTP
 40
0.0
  9
$DIMTM
 40
0.0
  9
$DIMTXT
 40
0.15625
  9
$DIMCEN
 40
0.198
  9
$DIMTSZ
 40
0.0
  9
$DIMTOL
 70
     0
  9
$DIMLIM
 70
     0
  9
$DIMTIH
 70
     1
  9
$DIMTOH
 70
     1
  9
$DIMSE1
 70
     0
  9
$DIMSE2
 70
     0
  9
$DIMTAD
 70
     0
  9
$DIMZIN
 70
     0
  9
$DIMBLK
  1
CLOSED
  9
$DIMASO
 70
     1
  9
$DIMSHO
 70
     1
  9
$DIMPOST
  1

  9
$DIMAPOST
  1

  9
$DIMALT
 70
     0
  9
$DIMALTD
 70
     2
  9
$DIMALTF
 40
25.399999999999999
  9
$DIMLFAC
 40
1.0
  9
$DIMTOFL
 70
     0
  9
$DIMTVP
 40
0.0
  9
$DIMTIX
 70
     0
  9
$DIMSOXD
 70
     0
  9
$DIMSAH
 70
     0
  9
$DIMBLK1
  1

  9
$DIMBLK2
  1

  9
$DIMSTYLE
  2
STANDARD
  9
$DIMCLRD
 70
     0
  9
$DIMCLRE
 70
     0
  9
$DIMCLRT
 70
     0
  9
$DIMTFAC
 40
1.0
  9
$DIMGAP
 40
0.09
  9
$LUNITS
 70
     4
  9
$LUPREC
 70
     4
  9
$SKETCHINC
 40
0.1
  9
$FILLETRAD
 40
0.0
  9
$AUNITS
 70
     0
  9
$AUPREC
 70
     2
  9
$MENU
  1
.
  9
$ELEVATION
 40
0.0
  9
$PELEVATION
 40
0.0
  9
$THICKNESS
 40
0.0
  9
$LIMCHECK
 70
     0
  9
$BLIPMODE
 70
     0
  9
$CHAMFERA
 40
0.0
  9
$CHAMFERB
 40
0.0
  9
$SKPOLY
 70
     0
  9
$TDCREATE
 40
2458016.764994456
  9
$TDUPDATE
 40
2458017.6526793288
  9
$TDINDWG
 40
0.1619881944
  9
$TDUSRTIMER
 40
0.1619881944
  9
$USRTIMER
 70
     1
  9
$ANGBASE
 50
0.0
  9
$ANGDIR
 70
     0
  9
$PDMODE
 70
     0
  9
$PDSIZE
 40
0.3125
  9
$PLINEWID
 40
0.0
  9
$COORDS
 70
     1
  9
$SPLFRAME
 70
     0
  9
$SPLINETYPE
 70
     6
  9
$SPLINESEGS
 70
     8
  9
$ATTDIA
 70
     1
  9
$ATTREQ
 70
     1
  9
$HANDLING
 70
     1
  9
$HANDSEED
  5
1600
  9
$SURFTAB1
 70
     6
  9
$SURFTAB2
 70
     6
  9
$SURFTYPE
 70
     6
  9
$SURFU
 70
     6
  9
$SURFV
 70
     6
  9
$UCSNAME
  2

  9
$UCSORG
 10
0.0
 20
0.0
 30
0.0
  9
$UCSXDIR
 10
1.0
 20
0.0
 30
0.0
  9
$UCSYDIR
 10
0.0
 20
1.0
 30
0.0
  9
$PUCSNAME
  2

  9
$PUCSORG
 10
0.0
 20
0.0
 30
0.0
  9
$PUCSXDIR
 10
1.0
 20
0.0
 30
0.0
  9
$PUCSYDIR
 10
0.0
 20
1.0
 30
0.0
  9
$USERI1
 70
     0
  9
$USERI2
 70
     0
  9
$USERI3
 70
     0
  9
$USERI4
 70
     0
  9
$USERI5
 70
     0
  9
$USERR1
 40
0.0
  9
$USERR2
 40
0.0
  9
$USERR3
 40
0.0
  9
$USERR4
 40
0.0
  9
$USERR5
 40
0.0
  9
$WORLDVIEW
 70
     1
  9
$SHADEDGE
 70
     3
  9
$SHADEDIF
 70
    70
  9
$TILEMODE
 70
     1
  9
$MAXACTVP
 70
    48
  9
$PLIMCHECK
 70
     0
  9
$PEXTMIN
 10
1.0000000000000000E+020
 20
1.0000000000000000E+020
 30
1.0000000000000000E+020
  9
$PEXTMAX
 10
-1.0000000000000000E+020
 20
-1.0000000000000000E+020
 30
-1.0000000000000000E+020
  9
$PLIMMIN
 10
0.0
 20
0.0
  9
$PLIMMAX
 10
12.0
 20
9.0
  9
$UNITMODE
 70
     0
  9
$VISRETAIN
 70
     1
  9
$PLINEGEN
 70
     0
  9
$PSLTSCALE
 70
     1
  0
ENDSEC
  0
SECTION
  2
TABLES
  0
TABLE
  2
VPORT
 70
     1
  0
VPORT
  2
*ACTIVE
 70
     0
 10
0.0
 20
0.0
 11
1.0
 21
1.0
 12
14.310794864814101
 22
-8.2001489565778982
 13
0.0
 23
0.0
 14
1.0
 24
1.0
 15
0.0
 25
0.0
 16
-0.0000000000000355
 26
0.0
 36
162.04245942307219
 17
19.275874137878422
 27
23.944797039031979
 37
0.0
 40
23.276319892677389
 41
2.3109756097560972
 42
50.0
 43
0.0
 44
0.0
 50
0.0
 51
0.0
 71
     0
 72
   100
 73
     1
 74
     1
 75
     0
 76
     0
 77
     0
 78
     0
  0
ENDTAB
  0
TABLE
  2
LTYPE
 70
     2
  0
LTYPE
  2
CONTINUOUS
 70
     0
  3
Solid line
 72
    65
 73
     0
 40
0.0
  0
LTYPE
  2
PHANTOM2
 70
     0
  3
___ _ _ ___ _ _ ___ _ _ ___ _ _
 72
    65
 73
     6
 40
1.25
 49
0.625
 49
-0.125
 49
0.125
 49
-0.125
 49
0.125
 49
-0.125
  0
ENDTAB
  0
TABLE
  2
LAYER
 70
     2
  0
LAYER
  2
0
 70
     0
 62
     7
  6
CONTINUOUS
  0
LAYER
  2
DEFPOINTS
 70
     0
 62
     7
  6
CONTINUOUS
  0
ENDTAB
  0
TABLE
  2
STYLE
 70
     1
  0
STYLE
  2
STANDARD
 70
     0
 40
0.0
 41
0.8
 50
0.0
 71
     0
 42
0.2
  3
txt
  4

  0
ENDTAB
  0
TABLE
  2
VIEW
 70
     0
  0
ENDTAB
  0
TABLE
  2
UCS
 70
     0
  0
ENDTAB
  0
TABLE
  2
APPID
 70
     7
  0
APPID
  2
ACAD
 70
     0
  0
APPID
  2
ACAD_MLEADERVER
 70
     0
  0
APPID
  2
ACAD_EXEMPT_FROM_CAD_STANDARDS
 70
     0
  0
APPID
  2
ACAD_NAV_VCDISPLAY
 70
     0
  0
APPID
  2
AEC_MEMBER_STYLE_AUTOTRIM_XDATA
 70
     0
  0
APPID
  2
ACDBATTR
 70
     0
  0
APPID
  2
MANULPOINTSASSOCIATIVE
 70
     0
  0
ENDTAB
  0
TABLE
  2
DIMSTYLE
 70
     2
  0
DIMSTYLE
  2
STANDARD
 70
     0
  3

  4

  5
CLOSED
  6
CLOSED
  7
CLOSED
 40
1.0
 41
0.1875
 42
0.0625
 43
0.38
 44
0.125
 45
0.0
 46
0.0
 47
1.5
 48
1.5
140
0.15625
141
0.09
142
0.0
143
25.399999999999999
144
1.0
145
0.0
146
1.0
147
0.09
 71
     0
 72
     0
 73
     1
 74
     1
 75
     0
 76
     0
 77
     0
 78
     4
170
     0
171
     2
172
     0
173
     0
174
     0
175
     0
176
     0
177
     0
178
     0
  0
ENDTAB
  0
ENDSEC
  0
SECTION
  2
BLOCKS
  0
BLOCK
  8
0
  2
$MODEL_SPACE
 70
     0
 10
0.0
 20
0.0
 30
0.0
  3
$MODEL_SPACE
  1

  0
ENDBLK
  5
21
  8
0
  0
BLOCK
 67
     1
  8
0
  2
$PAPER_SPACE
 70
     0
 10
0.0
 20
0.0
 30
0.0
  3
$PAPER_SPACE
  1

  0
ENDBLK
  5
1D
 67
     1
  8
0
  0
BLOCK
  8
0
  2
_CLOSED
 70
     0
 10
0.0
 20
0.0
 30
0.0
  3
_CLOSED
  1

  0
LINE
  5
22F
  8
0
  6
BYBLOCK
 62
     0
 10
0.0
 20
0.0
 30
0.0
 11
-1.0
 21
0.1666666667
 31
0.0
  0
LINE
  5
230
  8
0
  6
BYBLOCK
 62
     0
 10
-1.0
 20
0.1666666667
 30
0.0
 11
-1.0
 21
-0.1666666667
 31
0.0
  0
LINE
  5
231
  8
0
  6
BYBLOCK
 62
     0
 10
-1.0
 20
-0.1666666667
 30
0.0
 11
0.0
 21
0.0
 31
0.0
  0
LINE
  5
232
  8
0
  6
BYBLOCK
 62
     0
 10
-1.0
 20
0.0
 30
0.0
 11
0.0
 21
0.0
 31
0.0
  0
ENDBLK
  5
233
  8
0
  6
BYBLOCK
 62
     0
  0
BLOCK
  8
0
  2
*U2
 70
     1
 10
0.0
 20
0.0
 30
0.0
  3
*U2
  1

  0
TEXT
  5
15FD
  8
0
 62
     0
 10
32.890086293833342
 20
18.832777406123849
 30
0.0
 40
0.15625
  1
17.2679
 41
0.8
  0
ENDBLK
  5
15FF
  8
0
  0
ENDSEC
  0
SECTION
  2
ENTITIES
  0
LINE
  5
10DC
  8
0
 10
24.735312155300001
 20
16.4854609028
 30
0.0
 11
41.753193230699999
 21
16.4854609028
 31
0.0
  0
ARC
  5
10DD
  8
0
 10
41.747412845960248
 20
16.35469567830911
 30
0.0
 40
0.1308930072585448
 50
2.5244276638802341
 51
87.468922662461296
  0
LINE
  5
10DE
  8
0
 10
41.878195028999997
 20
16.3604609028
 30
0.0
 11
41.878195028999997
 21
16.170460902799999
 31
0.0
  0
ARC
  5
10DF
  8
0
 10
41.747383813669259
 20
16.176266382866171
 30
0.0
 40
0.1309399772991623
 50
272.59713996860091
 51
357.45884650486482
  0
ARC
  5
10E0
  8
0
 10
24.732764656414741
 20
16.168585084271591
 30
0.0
 40
0.1224684232814736
 50
179.1223804083007
 51
253.81320682188911
  0
LINE
  5
10E1
  8
0
 10
24.610310894600001
 20
16.170460902799999
 30
0.0
 11
24.610310892000001
 21
16.3604609028
 31
0.0
  0
ARC
  5
10E2
  8
0
 10
24.737443951905231
 20
16.358327517240951
 30
0.0
 40
0.1271512574867855
 50
90.960656415479576
 51
179.0386274834226
  0
LINE
  5
10F2
  8
0
 10
24.698624164856199
 20
16.05097155810563
 30
0.0
 11
41.7533171129
 21
16.045460902799999
 31
0.0
  0
ARC
  5
10F3
  8
0
 10
41.376193553982731
 20
15.787790850078681
 30
0.0
 40
0.2579082676662716
 50
91.702754316275175
 51
177.31296881881889
  0
ARC
  5
10F4
  8
0
 10
29.50924368323615
 20
15.44306786228697
 30
0.0
 40
11.61480742315355
 50
342.78941784481941
 51
1.760437496107301
  0
ARC
  5
10F5
  8
0
 10
35.738125309700251
 20
13.59234994862031
 30
0.0
 40
5.1177853949803431
 50
324.6575991485991
 51
341.94771866429687
  0
ARC
  5
10F6
  8
0
 10
38.466053440750557
 20
11.83720241361662
 30
0.0
 40
1.8829955404072209
 50
290.8346438035307
 51
320.20117295581002
  0
ARC
  5
10F7
  8
0
 10
37.43690388208951
 20
15.281177843366491
 30
0.0
 40
5.4741368687327521
 50
272.0397796701854
 51
288.0801067215703
  0
LINE
  5
10F8
  8
0
 10
37.631746759900018
 20
9.8105096291000002
 30
0.0
 11
35.131275841899999
 21
9.8114712997000009
 31
0.0
  0
ARC
  5
10F9
  8
0
 10
37.651999325597423
 20
9.5535139606105464
 30
0.0
 40
0.2577924359415781
 50
94.505888905148197
 51
178.3747460372409
  0
LINE
  5
10FA
  8
0
 10
37.394310596700002
 20
9.5608255286998372
 30
0.0
 11
37.394310596700002
 21
8.4854609027999999
 31
0.0
  0
LINE
  5
10FB
  8
0
 10
37.394310596700002
 20
8.4854609027999999
 30
0.0
 11
34.7643105967
 21
8.4854609027999999
 31
0.0
  0
LINE
  5
10FC
  8
0
 10
34.7643105967
 20
8.4854609027999999
 30
0.0
 11
34.7643105967
 21
9.1206196976000005
 31
0.0
  0
ARC
  5
10FD
  8
0
 10
34.632908614011747
 20
9.1144677965820762
 30
0.0
 40
0.1315459119111513
 50
2.6804829470703861
 51
85.260467067297697
  0
ARC
  5
10FE
  8
0
 10
35.05964394331275
 20
22.03470722804208
 30
0.0
 40
12.79590292490119
 50
253.9843325401477
 51
268.13756196585302
  0
ARC
  5
10FF
  8
0
 10
37.220723474789501
 20
23.549699317856071
 30
0.0
 40
14.94104544351098
 50
227.78483707642499
 51
247.5982085375062
  0
ARC
  5
1100
  8
0
 10
33.657925968704362
 20
19.863959921805581
 30
0.0
 40
9.8187249317238017
 50
216.16849223413291
 51
228.7313390526667
  0
ARC
  5
1101
  8
0
 10
29.691286312722411
 20
17.12080191027486
 30
0.0
 40
4.9992086677244103
 50
201.90078198533669
 51
217.61787539050459
  0
ARC
  5
1102
  8
0
 10
368134.92487098748
 20
110982.0645115019
 30
0.0
 40
384471.7290499385
 50
196.7753509924903
 51
196.7754454245059
  0
ARC
  5
1103
  8
0
 10
24.61172719145436
 20
15.79974088796067
 30
0.0
 40
0.2658344101275891
 50
13.72096900150002
 51
70.920253863234436
  0
ARC
  5
110D
  8
0
 10
35.400231775780341
 20
25.159668916484868
 30
0.0
 40
15.35055499711191
 50
261.16130365036128
 51
268.99593398676478
  0
LINE
  5
110E
  8
0
 10
33.086723091700001
 20
12.169035371
 30
0.0
 11
33.041569422000002
 21
9.9914043281999998
 31
0.0
  0
ARC
  5
110F
  8
0
 10
31.86300662364717
 20
10.093425711517
 30
0.0
 40
1.182970258423756
 50
342.94067539111722
 51
355.052567901906
  0
ARC
  5
1111
  8
0
 10
32.77178720118372
 20
9.8601801883000153
 30
0.0
 40
0.2495780628249828
 50
313.28403465427289
 51
332.89177917834581
  0
ARC
  5
1112
  8
0
 10
32.792683674919999
 20
9.9637274198661068
 30
0.0
 40
0.322370721938253
 50
267.1944242993772
 51
297.7730719991838
  0
ARC
  5
1113
  8
0
 10
34.676312142656514
 20
43.30871688283576
 30
0.0
 40
33.7205110802687
 50
266.44489607542067
 51
266.77094231919079
  0
ARC
  5
1114
  8
0
 10
32.590092575563091
 20
9.9527260409048122
 30
0.0
 40
0.2996667357855981
 50
212.12606700103561
 51
269.09416586111922
  0
ARC
  5
1115
  8
0
 10
32.65742201533147
 20
9.8721492084205842
 30
0.0
 40
0.3306301155238866
 50
179.21918226897509
 51
193.78435240228481
  0
ARC
  5
1116
  8
0
 10
104.1058391717909
 20
2.42341677624125
 30
0.0
 40
72.164935928116194
 50
173.8723521789554
 51
174.07188625673541
  0
LINE
  5
1117
  8
0
 10
32.353210501200003
 20
10.126567017699999
 30
0.0
 11
32.317094149500001
 21
12.4619769471
 31
0.0
  0
ARC
  5
1118
  8
0
 10
32.48745095093539
 20
12.49117462228187
 30
0.0
 40
0.172856219725998
 50
65.22887817033714
 51
189.75829827684731
  0
LINE
  5
1119
  8
0
 10
32.559876754900003
 20
12.6481261295
 30
0.0
 11
32.844265676900001
 21
12.5414471129
 31
0.0
  0
ARC
  5
111A
  8
0
 10
32.661808389965643
 20
12.157527494468191
 30
0.0
 40
0.4250705058837584
 50
1.55135046590661
 51
64.580658268527174
  0
ARC
  5
111B
  8
0
 10
34.419672476483527
 20
18.17474044114158
 30
0.0
 40
8.3092334513530268
 50
239.15024409954029
 51
255.59971775733979
  0
ARC
  5
111C
  8
0
 10
38.365336931101581
 20
24.732133550071001
 30
0.0
 40
15.96216431304703
 50
223.02790575332381
 51
239.06102698324801
  0
ARC
  5
111D
  8
0
 10
27.61430236485921
 20
14.72888483621805
 30
0.0
 40
1.2773806840017989
 50
208.04624583678481
 51
224.07877363144169
  0
LINE
  5
111E
  8
0
 10
26.486926835599998
 20
14.1282781992
 30
0.0
 11
26.61334837590001
 21
14.2284278194
 31
0.0
  0
ARC
  5
111F
  8
0
 10
26.499223149506719
 20
14.304574707458761
 30
0.0
 40
0.1371966321028015
 50
326.28790097562933
 51
27.349687362625051
  0
ARC
  5
1120
  8
0
 10
25.44723385750655
 20
13.90000808103067
 30
0.0
 40
1.26355497435676
 50
21.719627583400129
 51
34.833724666308242
  0
ARC
  5
1121
  8
0
 10
30.473310669544968
 20
17.297858293097811
 30
0.0
 40
4.8034532783085648
 50
197.41053237933809
 51
213.85702316993189
  0
ARC
  5
1122
  8
0
 10
25.635030563182632
 20
15.78510252860786
 30
0.0
 40
0.265837559912839
 50
16.49612939416642
 51
87.393623249343804
  0
ARC
  5
1123
  8
0
 10
27.083237694120431
 20
12.38427532996527
 30
0.0
 40
0.1400346248392446
 50
4.1998468415784922
 51
45.386569399922692
  0
LINE
  5
1124
  8
0
 10
27.222896280200001
 20
12.3945308401
 30
0.0
 11
27.267166793241291
 21
9.8582793212971005
 31
0.0
  0
ARC
  5
1125
  8
0
 10
27.3921477546
 20
9.8604609027999981
 30
0.0
 40
0.1249999999999978
 50
181.00001528059749
 51
270.00000000000171
  0
LINE
  5
1126
  8
0
 10
27.39214775460065
 20
9.7354609027999999
 30
0.0
 11
31.529251750170712
 21
9.735460802911124
 31
0.0
  0
ARC
  5
1127
  8
0
 10
31.536962980600009
 20
9.7671210767622441
 30
0.0
 40
0.0325858253702685
 50
251.6453189863621
 51
256.31146664647372
  0
ATTDEF
  5
12D1
  8
DEFPOINTS
 10
33.244252635963811
 20
16.496774468250759
 30
0.0
 40
0.001
  1
442050
  3

  2
MODELNUMBER
 70
     0
1001
ACDBATTR
1070
     0
1070
     1
  0
ATTDEF
  5
12D2
  8
DEFPOINTS
 10
33.244252635963811
 20
16.495107801584101
 30
0.0
 40
0.001
  1
WESCOTT
  3

  2
TRADENAME
 70
     0
1001
ACDBATTR
1070
     0
1070
     1
  0
ATTDEF
  5
12D3
  8
DEFPOINTS
 10
33.244252635963811
 20
16.493441134917429
 30
0.0
 40
0.001
  1
BATHROOM SINK
  3

  2
PRODUCT
 70
     0
1001
ACDBATTR
1070
     0
1070
     1
  0
ATTDEF
  5
12D4
  8
DEFPOINTS
 10
33.244252635963811
 20
16.491774468250771
 30
0.0
 40
0.001
  1
VITREOUS CHINA
  3

  2
MATERIAL
 70
     0
1001
ACDBATTR
1070
     0
1070
     1
  0
ENDSEC
  0
EOF
