  0
SECTION
  2
HEADER
  9
$ACADVER
  1
AC1009
  9
$INSBASE
 10
111.3852262784152
 20
64.129947139626324
 30
0.0
  9
$EXTMIN
 10
97.927557242092362
 20
55.495551127470883
 30
0.0
  9
$EXTMAX
 10
125.0036170193285
 20
72.764133148264861
 30
0.0
  9
$LIMMIN
 10
0.0
 20
0.0
  9
$LIMMAX
 10
22.0
 20
17.0
  9
$ORTHOMODE
 70
     1
  9
$REGENMODE
 70
     1
  9
$FILLMODE
 70
     1
  9
$QTEXTMODE
 70
     0
  9
$MIRRTEXT
 70
     0
  9
$DRAGMODE
 70
     2
  9
$LTSCALE
 40
1.2099999999999991
  9
$OSMODE
 70
  3071
  9
$ATTMODE
 70
     1
  9
$TEXTSIZE
 40
0.2
  9
$TRACEWID
 40
0.05
  9
$TEXTSTYLE
  7
STANDARD
  9
$CLAYER
  8
0
  9
$CELTYPE
  6
BYLAYER
  9
$CECOLOR
 62
   256
  9
$DIMSCALE
 40
1.0
  9
$DIMASZ
 40
0.1875
  9
$DIMEXO
 40
0.0625
  9
$DIMDLI
 40
0.8359999999999999
  9
$DIMRND
 40
0.0
  9
$DIMDLE
 40
0.0
  9
$DIMEXE
 40
0.125
  9
$DIMTP
 40
0.0
  9
$DIMTM
 40
0.0
  9
$DIMTXT
 40
0.15625
  9
$DIMCEN
 40
0.198
  9
$DIMTSZ
 40
0.0
  9
$DIMTOL
 70
     0
  9
$DIMLIM
 70
     0
  9
$DIMTIH
 70
     1
  9
$DIMTOH
 70
     1
  9
$DIMSE1
 70
     0
  9
$DIMSE2
 70
     0
  9
$DIMTAD
 70
     0
  9
$DIMZIN
 70
     0
  9
$DIMBLK
  1
CLOSED
  9
$DIMASO
 70
     1
  9
$DIMSHO
 70
     1
  9
$DIMPOST
  1

  9
$DIMAPOST
  1

  9
$DIMALT
 70
     1
  9
$DIMALTD
 70
     2
  9
$DIMALTF
 40
25.399999999999999
  9
$DIMLFAC
 40
1.0
  9
$DIMTOFL
 70
     0
  9
$DIMTVP
 40
0.0
  9
$DIMTIX
 70
     0
  9
$DIMSOXD
 70
     0
  9
$DIMSAH
 70
     0
  9
$DIMBLK1
  1

  9
$DIMBLK2
  1

  9
$DIMSTYLE
  2
STANDARD
  9
$DIMCLRD
 70
     0
  9
$DIMCLRE
 70
     0
  9
$DIMCLRT
 70
     0
  9
$DIMTFAC
 40
1.0
  9
$DIMGAP
 40
0.09
  9
$LUNITS
 70
     4
  9
$LUPREC
 70
     4
  9
$SKETCHINC
 40
0.1
  9
$FILLETRAD
 40
0.0
  9
$AUNITS
 70
     0
  9
$AUPREC
 70
     2
  9
$MENU
  1
.
  9
$ELEVATION
 40
0.0
  9
$PELEVATION
 40
0.0
  9
$THICKNESS
 40
0.0
  9
$LIMCHECK
 70
     0
  9
$BLIPMODE
 70
     0
  9
$CHAMFERA
 40
0.0
  9
$CHAMFERB
 40
0.0
  9
$SKPOLY
 70
     0
  9
$TDCREATE
 40
2458016.764994456
  9
$TDUPDATE
 40
2458017.6521207872
  9
$TDINDWG
 40
0.1628955208
  9
$TDUSRTIMER
 40
0.1628955208
  9
$USRTIMER
 70
     1
  9
$ANGBASE
 50
0.0
  9
$ANGDIR
 70
     0
  9
$PDMODE
 70
     0
  9
$PDSIZE
 40
0.3125
  9
$PLINEWID
 40
0.0
  9
$COORDS
 70
     1
  9
$SPLFRAME
 70
     0
  9
$SPLINETYPE
 70
     6
  9
$SPLINESEGS
 70
     8
  9
$ATTDIA
 70
     1
  9
$ATTREQ
 70
     1
  9
$HANDLING
 70
     1
  9
$HANDSEED
  5
17E2
  9
$SURFTAB1
 70
     6
  9
$SURFTAB2
 70
     6
  9
$SURFTYPE
 70
     6
  9
$SURFU
 70
     6
  9
$SURFV
 70
     6
  9
$UCSNAME
  2

  9
$UCSORG
 10
0.0
 20
0.0
 30
0.0
  9
$UCSXDIR
 10
1.0
 20
0.0
 30
0.0
  9
$UCSYDIR
 10
0.0
 20
1.0
 30
0.0
  9
$PUCSNAME
  2

  9
$PUCSORG
 10
0.0
 20
0.0
 30
0.0
  9
$PUCSXDIR
 10
1.0
 20
0.0
 30
0.0
  9
$PUCSYDIR
 10
0.0
 20
1.0
 30
0.0
  9
$USERI1
 70
     0
  9
$USERI2
 70
     0
  9
$USERI3
 70
     0
  9
$USERI4
 70
     0
  9
$USERI5
 70
     0
  9
$USERR1
 40
0.0
  9
$USERR2
 40
0.0
  9
$USERR3
 40
0.0
  9
$USERR4
 40
0.0
  9
$USERR5
 40
0.0
  9
$WORLDVIEW
 70
     1
  9
$SHADEDGE
 70
     3
  9
$SHADEDIF
 70
    70
  9
$TILEMODE
 70
     1
  9
$MAXACTVP
 70
    48
  9
$PLIMCHECK
 70
     0
  9
$PEXTMIN
 10
1.0000000000000000E+020
 20
1.0000000000000000E+020
 30
1.0000000000000000E+020
  9
$PEXTMAX
 10
-1.0000000000000000E+020
 20
-1.0000000000000000E+020
 30
-1.0000000000000000E+020
  9
$PLIMMIN
 10
0.0
 20
0.0
  9
$PLIMMAX
 10
12.0
 20
9.0
  9
$UNITMODE
 70
     0
  9
$VISRETAIN
 70
     1
  9
$PLINEGEN
 70
     0
  9
$PSLTSCALE
 70
     1
  0
ENDSEC
  0
SECTION
  2
TABLES
  0
TABLE
  2
VPORT
 70
     1
  0
VPORT
  2
*ACTIVE
 70
     0
 10
0.0
 20
0.0
 11
1.0
 21
1.0
 12
2.0789560189108691
 22
-0.69342827433222
 13
0.0
 23
0.0
 14
1.0
 24
1.0
 15
0.0
 25
0.0
 16
-0.0000000000000142
 26
0.0
 36
77.553363558510299
 17
111.3852272033691
 27
64.129947662353516
 37
0.0
 40
19.164321795524089
 41
2.3109756097560972
 42
50.0
 43
0.0
 44
0.0
 50
0.0
 51
0.0
 71
     0
 72
   100
 73
     1
 74
     1
 75
     0
 76
     0
 77
     0
 78
     0
  0
ENDTAB
  0
TABLE
  2
LTYPE
 70
     2
  0
LTYPE
  2
CONTINUOUS
 70
     0
  3
Solid line
 72
    65
 73
     0
 40
0.0
  0
LTYPE
  2
PHANTOM2
 70
     0
  3
___ _ _ ___ _ _ ___ _ _ ___ _ _
 72
    65
 73
     6
 40
1.25
 49
0.625
 49
-0.125
 49
0.125
 49
-0.125
 49
0.125
 49
-0.125
  0
ENDTAB
  0
TABLE
  2
LAYER
 70
     2
  0
LAYER
  2
0
 70
     0
 62
     7
  6
CONTINUOUS
  0
LAYER
  2
DEFPOINTS
 70
     0
 62
     7
  6
CONTINUOUS
  0
ENDTAB
  0
TABLE
  2
STYLE
 70
     1
  0
STYLE
  2
STANDARD
 70
     0
 40
0.0
 41
0.8
 50
0.0
 71
     0
 42
0.2
  3
txt
  4

  0
ENDTAB
  0
TABLE
  2
VIEW
 70
     0
  0
ENDTAB
  0
TABLE
  2
UCS
 70
     0
  0
ENDTAB
  0
TABLE
  2
APPID
 70
     9
  0
APPID
  2
ACAD
 70
     0
  0
APPID
  2
ACAD_MLEADERVER
 70
     0
  0
APPID
  2
ACAD_EXEMPT_FROM_CAD_STANDARDS
 70
     0
  0
APPID
  2
ACAD_NAV_VCDISPLAY
 70
     0
  0
APPID
  2
AEC_MEMBER_STYLE_AUTOTRIM_XDATA
 70
     0
  0
APPID
  2
ACDBATTR
 70
     0
  0
APPID
  2
MANULPOINTSASSOCIATIVE
 70
     0
  0
APPID
  2
ACAD_DSTYLE_DIMJAG
 70
     0
  0
APPID
  2
ACAD_DSTYLE_DIMTALN
 70
     0
  0
ENDTAB
  0
TABLE
  2
DIMSTYLE
 70
     2
  0
DIMSTYLE
  2
STANDARD
 70
     0
  3

  4

  5
CLOSED
  6
CLOSED
  7
CLOSED
 40
1.0
 41
0.1875
 42
0.0625
 43
0.38
 44
0.125
 45
0.0
 46
0.0
 47
1.5
 48
1.5
140
0.15625
141
0.09
142
0.0
143
25.399999999999999
144
1.0
145
0.0
146
1.0
147
0.09
 71
     0
 72
     0
 73
     1
 74
     1
 75
     0
 76
     0
 77
     0
 78
     4
170
     0
171
     2
172
     0
173
     0
174
     0
175
     0
176
     0
177
     0
178
     0
  0
ENDTAB
  0
ENDSEC
  0
SECTION
  2
BLOCKS
  0
BLOCK
  8
0
  2
$MODEL_SPACE
 70
     0
 10
0.0
 20
0.0
 30
0.0
  3
$MODEL_SPACE
  1

  0
ENDBLK
  5
21
  8
0
  0
BLOCK
 67
     1
  8
0
  2
$PAPER_SPACE
 70
     0
 10
0.0
 20
0.0
 30
0.0
  3
$PAPER_SPACE
  1

  0
ENDBLK
  5
1D
 67
     1
  8
0
  0
BLOCK
  8
0
  2
_CLOSED
 70
     0
 10
0.0
 20
0.0
 30
0.0
  3
_CLOSED
  1

  0
LINE
  5
22F
  8
0
  6
BYBLOCK
 62
     0
 10
0.0
 20
0.0
 30
0.0
 11
-1.0
 21
0.1666666667
 31
0.0
  0
LINE
  5
230
  8
0
  6
BYBLOCK
 62
     0
 10
-1.0
 20
0.1666666667
 30
0.0
 11
-1.0
 21
-0.1666666667
 31
0.0
  0
LINE
  5
231
  8
0
  6
BYBLOCK
 62
     0
 10
-1.0
 20
-0.1666666667
 30
0.0
 11
0.0
 21
0.0
 31
0.0
  0
LINE
  5
232
  8
0
  6
BYBLOCK
 62
     0
 10
-1.0
 20
0.0
 30
0.0
 11
0.0
 21
0.0
 31
0.0
  0
ENDBLK
  5
233
  8
0
  6
BYBLOCK
 62
     0
  0
BLOCK
  8
0
  2
*D3
 70
     1
 10
0.0
 20
0.0
 30
0.0
  3
*D3
  1

  0
LINE
  5
16B4
  8
0
 62
     0
 10
108.11713493769869
 20
72.425692775207821
 30
0.0
 11
98.573390575425691
 21
72.425692775207821
 31
0.0
  0
LINE
  5
16B5
  8
0
 62
     0
 10
108.03641001604529
 20
56.008588080377912
 30
0.0
 11
98.573390575425691
 21
56.008588080377912
 31
0.0
  0
LINE
  5
16B6
  8
0
 62
     0
 10
98.698390575425705
 20
72.238192775207821
 30
0.0
 11
98.698390575425705
 21
64.385265427792874
 31
0.0
  0
LINE
  5
16B7
  8
0
 62
     0
 10
98.698390575425705
 20
56.196088080377919
 30
0.0
 11
98.698390575425705
 21
64.049015427792867
 31
0.0
  0
INSERT
  5
16B8
  8
0
 62
     0
  2
_CLOSED
 10
98.698390575425705
 20
72.425692775207821
 30
0.0
 41
0.1875
 42
0.1875
 43
0.1875
 50
90.0
  0
INSERT
  5
16B9
  8
0
 62
     0
  2
_CLOSED
 10
98.698390575425705
 20
56.008588080377912
 30
0.0
 41
0.1875
 42
0.1875
 43
0.1875
 50
270.0
  0
INSERT
  5
16BA
  8
0
  2
*U9
 10
0.0
 20
0.0
 30
0.0
  0
POINT
  5
16BB
  8
DEFPOINTS
 62
     0
 10
108.17963493769869
 20
72.425692775207821
 30
0.0
  0
POINT
  5
16BC
  8
DEFPOINTS
 62
     0
 10
108.09891001604529
 20
56.008588080377912
 30
0.0
  0
POINT
  5
16BD
  8
DEFPOINTS
 62
     0
 10
98.698390575425705
 20
56.008588080377912
 30
0.0
  0
ENDBLK
  5
16B3
  8
0
  0
BLOCK
  8
0
  2
*D4
 70
     1
 10
0.0
 20
0.0
 30
0.0
  3
*D4
  1

  0
LINE
  5
16C2
  8
0
 62
     0
 10
111.52201786190589
 20
72.764133148264861
 30
0.0
 11
124.2952836859951
 21
72.764133148264861
 31
0.0
  0
LINE
  5
16C3
  8
0
 62
     0
 10
111.3575695653214
 20
55.495551393892661
 30
0.0
 11
124.2952836859951
 21
55.495551393892647
 31
0.0
  0
LINE
  5
16C4
  8
0
 62
     0
 10
124.1702836859951
 20
72.576633148264861
 30
0.0
 11
124.1702836859951
 21
64.297967271078761
 31
0.0
  0
LINE
  5
16C5
  8
0
 62
     0
 10
124.1702836859951
 20
55.683051393892647
 30
0.0
 11
124.1702836859951
 21
63.961717271078747
 31
0.0
  0
INSERT
  5
16C6
  8
0
 62
     0
  2
_CLOSED
 10
124.1702836859951
 20
72.764133148264861
 30
0.0
 41
0.1875
 42
0.1875
 43
0.1875
 50
90.0
  0
INSERT
  5
16C7
  8
0
 62
     0
  2
_CLOSED
 10
124.1702836859951
 20
55.495551393892647
 30
0.0
 41
0.1875
 42
0.1875
 43
0.1875
 50
270.0
  0
INSERT
  5
16C8
  8
0
  2
*U10
 10
0.0
 20
0.0
 30
0.0
  0
POINT
  5
16C9
  8
DEFPOINTS
 62
     0
 10
111.45951786190589
 20
72.764133148264861
 30
0.0
  0
POINT
  5
16CA
  8
DEFPOINTS
 62
     0
 10
111.2950695653214
 20
55.495551393892661
 30
0.0
  0
POINT
  5
16CB
  8
DEFPOINTS
 62
     0
 10
124.1702836859951
 20
55.495551393892647
 30
0.0
  0
ENDBLK
  5
16C1
  8
0
  0
BLOCK
  8
0
  2
*D5
 70
     1
 10
0.0
 20
0.0
 30
0.0
  3
*D5
  1

  0
LINE
  5
16D0
  8
0
 62
     0
 10
101.5254441341652
 20
64.360340626122252
 30
0.0
 11
101.5254441341652
 21
61.045617913457853
 31
0.0
  0
LINE
  5
16D1
  8
0
 62
     0
 10
121.24500875254201
 20
64.360340626122252
 30
0.0
 11
121.24500875254201
 21
61.045617913457853
 31
0.0
  0
LINE
  5
16D2
  8
0
 62
     0
 10
101.7129441341652
 20
61.170617913457853
 30
0.0
 11
110.5035597766869
 21
61.170617913457853
 31
0.0
  0
LINE
  5
16D3
  8
0
 62
     0
 10
121.05750875254201
 20
61.170617913457853
 30
0.0
 11
112.26689311002031
 21
61.170617913457853
 31
0.0
  0
INSERT
  5
16D4
  8
0
 62
     0
  2
_CLOSED
 10
101.5254441341652
 20
61.170617913457853
 30
0.0
 41
0.1875
 42
0.1875
 43
0.1875
 50
180.0
  0
INSERT
  5
16D5
  8
0
 62
     0
  2
_CLOSED
 10
121.24500875254201
 20
61.170617913457853
 30
0.0
 41
0.1875
 42
0.1875
 43
0.1875
  0
INSERT
  5
16D6
  8
0
  2
*U11
 10
0.0
 20
0.0
 30
0.0
  0
POINT
  5
16D7
  8
DEFPOINTS
 62
     0
 10
101.5254441341652
 20
64.422840626122252
 30
0.0
  0
POINT
  5
16D8
  8
DEFPOINTS
 62
     0
 10
121.24500875254201
 20
64.422840626122252
 30
0.0
  0
POINT
  5
16D9
  8
DEFPOINTS
 62
     0
 10
121.24500875254201
 20
61.170617913457853
 30
0.0
  0
ENDBLK
  5
16CF
  8
0
  0
BLOCK
  8
0
  2
*D6
 70
     1
 10
0.0
 20
0.0
 30
0.0
  3
*D6
  1

  0
LINE
  5
16DE
  8
0
 62
     0
 10
119.9877381342037
 20
64.370642371940377
 30
0.0
 11
119.9877381342037
 21
59.5888960040973
 31
0.0
  0
LINE
  5
16DF
  8
0
 62
     0
 10
121.244832398863
 20
64.3824321792478
 30
0.0
 11
121.244832398863
 21
59.5888960040973
 31
0.0
  0
LINE
  5
16E0
  8
0
 62
     0
 10
120.1752381342037
 20
59.7138960040973
 30
0.0
 11
121.057332398863
 21
59.7138960040973
 31
0.0
  0
LINE
  5
16E1
  8
0
 62
     0
 10
121.244832398863
 20
59.7138960040973
 30
0.0
 11
121.4323323988629
 21
59.7138960040973
 31
0.0
  0
INSERT
  5
16E2
  8
0
 62
     0
  2
_CLOSED
 10
119.9877381342037
 20
59.7138960040973
 30
0.0
 41
0.1875
 42
0.1875
 43
0.1875
 50
180.0
  0
INSERT
  5
16E3
  8
0
 62
     0
  2
_CLOSED
 10
121.244832398863
 20
59.7138960040973
 30
0.0
 41
0.1875
 42
0.1875
 43
0.1875
  0
INSERT
  5
16E4
  8
0
  2
*U12
 10
0.0
 20
0.0
 30
0.0
  0
POINT
  5
16E5
  8
DEFPOINTS
 62
     0
 10
119.9877381342037
 20
64.433142371940363
 30
0.0
  0
POINT
  5
16E6
  8
DEFPOINTS
 62
     0
 10
121.244832398863
 20
64.4449321792478
 30
0.0
  0
POINT
  5
16E7
  8
DEFPOINTS
 62
     0
 10
121.244832398863
 20
59.7138960040973
 30
0.0
  0
ENDBLK
  5
16DD
  8
0
  0
BLOCK
  8
0
  2
*U7
 70
     1
 10
0.0
 20
0.0
 30
0.0
  3
*U7
  1

  0
TEXT
  5
17CB
  8
0
 62
     0
 10
111.0519489089059
 20
75.095662238487762
 30
0.0
 40
0.15625
  1
19.7195
 41
0.8
  0
ENDBLK
  5
17CD
  8
0
  0
BLOCK
  8
0
  2
*U8
 70
     1
 10
0.0
 20
0.0
 30
0.0
  3
*U8
  1

  0
TEXT
  5
17CF
  8
0
 62
     0
 10
110.5935596117485
 20
81.962273406174873
 30
0.0
 40
0.15625
  1
19.7196 [500.88]
 41
0.8
  0
ENDBLK
  5
17D1
  8
0
  0
BLOCK
  8
0
  2
*U9
 70
     1
 10
0.0
 20
0.0
 30
0.0
  3
*U9
  1

  0
TEXT
  5
17D3
  8
0
 62
     0
 10
97.927557242092362
 20
64.139015427792899
 30
0.0
 40
0.15625
  1
16.4171 [416.99]
 41
0.8
  0
ENDBLK
  5
17D5
  8
0
  0
BLOCK
  8
0
  2
*U10
 70
     1
 10
0.0
 20
0.0
 30
0.0
  3
*U10
  1

  0
TEXT
  5
17D7
  8
0
 62
     0
 10
123.3369503526618
 20
64.051717271078772
 30
0.0
 40
0.15625
  1
17.2686 [438.62]
 41
0.8
  0
ENDBLK
  5
17D9
  8
0
  0
BLOCK
  8
0
  2
*U11
 70
     1
 10
0.0
 20
0.0
 30
0.0
  3
*U11
  1

  0
TEXT
  5
17DB
  8
0
 62
     0
 10
110.5935597766869
 20
61.092492913457853
 30
0.0
 40
0.15625
  1
19.7196 [500.88]
 41
0.8
  0
ENDBLK
  5
17DD
  8
0
  0
BLOCK
  8
0
  2
*U12
 70
     1
 10
0.0
 20
0.0
 30
0.0
  3
*U12
  1

  0
TEXT
  5
17DF
  8
0
 62
     0
 10
121.5223323988629
 20
59.6357710040973
 30
0.0
 40
0.15625
  1
1.2571 [31.93]
 41
0.8
  0
ENDBLK
  5
17E1
  8
0
  0
ENDSEC
  0
SECTION
  2
ENTITIES
  0
ARC
  5
14F9
  8
0
 10
109.43966029237249
 20
64.370794119450892
 30
0.0
 40
7.9143872938899458
 50
151.0620263080896
 51
179.62320940913429
  0
ARC
  5
14FA
  8
0
 10
110.0786369811446
 20
64.367001826088966
 30
0.0
 40
7.2978066561688086
 50
153.61690172449099
 51
179.4863618356793
  0
ARC
  5
14FB
  8
0
 10
109.9477437854154
 20
64.169322699912726
 30
0.0
 40
8.4568037987198093
 50
125.7386512978532
 51
151.5330782220542
  0
ARC
  5
14FC
  8
0
 10
112.1941573221707
 20
62.213075364659197
 30
0.0
 40
10.198240591692009
 50
129.6927060298099
 51
148.0489084975778
  0
ARC
  5
14FD
  8
0
 10
110.21798825528749
 20
63.473312157925463
 30
0.0
 40
9.1815033063228935
 50
100.7446150522519
 51
124.5705182809086
  0
ARC
  5
14FE
  8
0
 10
111.4417614476028
 20
60.457005119291409
 30
0.0
 40
11.19883114815639
 50
104.2734751391028
 51
120.9587565863025
  0
ARC
  5
14FF
  8
0
 10
111.31102497008909
 20
58.076594569799298
 30
0.0
 40
14.68753820078242
 50
89.710510661430632
 51
101.008924020206
  0
ARC
  5
1500
  8
0
 10
113.3931991523415
 20
36.365506751242961
 30
0.0
 40
35.260946463764213
 50
93.264523592628294
 51
97.680380084423675
  0
ARC
  5
1501
  8
0
 10
110.63974751644921
 20
64.596361951553945
 30
0.0
 40
9.1159550127616367
 50
181.09068551412309
 51
195.7107732011757
  0
ARC
  5
1502
  8
0
 10
109.44130494298651
 20
64.372291361529903
 30
0.0
 40
6.6604528227311643
 50
179.48271376612939
 51
196.55630411292211
  0
ARC
  5
1503
  8
0
 10
109.57178674618361
 20
64.235044965616083
 30
0.0
 40
7.9902695513633182
 50
195.29031921607589
 51
216.89881475207741
  0
ARC
  5
1504
  8
0
 10
109.46783657525179
 20
64.171460631789415
 30
0.0
 40
6.6316747172771784
 50
194.82753975832969
 51
216.99872325222131
  0
ARC
  5
1505
  8
0
 10
110.5567383495344
 20
64.942319785531666
 30
0.0
 40
9.2026189399605638
 50
216.7384135721658
 51
245.36461371181679
  0
ARC
  5
1506
  8
0
 10
110.7395270277226
 20
65.118190316680199
 30
0.0
 40
8.2170611102957807
 50
216.95876008442721
 51
244.71459262773661
  0
ARC
  5
1507
  8
0
 10
111.2950695653214
 20
65.707922928076357
 30
0.0
 40
10.212371534183699
 50
243.38939823506459
 51
270.5056624355953
  0
ARC
  5
1508
  8
0
 10
111.5312382599912
 20
66.570556754912417
 30
0.0
 40
9.8689022146523389
 50
244.16006701157079
 51
269.15231453211811
  0
ARC
  5
1509
  8
0
 10
113.3305354779247
 20
64.370707009111584
 30
0.0
 40
7.9146449780551817
 50
0.3777713134956944
 51
28.9380361981707
  0
ARC
  5
150A
  8
0
 10
112.76866439331801
 20
64.382781969533895
 30
0.0
 40
7.219249396334753
 50
0.3996900167528384
 51
26.794200459516691
  0
ARC
  5
150B
  8
0
 10
112.82269382283179
 20
64.169330012182982
 30
0.0
 40
8.4568037987198093
 50
28.467213234992819
 51
54.261640159193483
  0
ARC
  5
150C
  8
0
 10
110.6463367687837
 20
62.263742102708029
 30
0.0
 40
10.112242425007789
 50
32.098353002356397
 51
50.541338395553467
  0
ARC
  5
150D
  8
0
 10
112.55245289348881
 20
63.473318095502151
 30
0.0
 40
9.1815033063228935
 50
55.429773176138191
 51
79.255676404794315
  0
ARC
  5
150E
  8
0
 10
111.4198378678973
 20
60.634845882427932
 30
0.0
 40
11.00010758032788
 50
59.07549932298798
 51
76.198385124901719
  0
ARC
  5
150F
  8
0
 10
111.45951786190589
 20
58.076594947482427
 30
0.0
 40
14.68753820078242
 50
78.991367436840918
 51
90.289780795615954
  0
ARC
  5
1510
  8
0
 10
109.3291812586717
 20
35.707183576711429
 30
0.0
 40
35.920941302134267
 50
82.457802406838724
 51
86.718694771825369
  0
ARC
  5
1511
  8
0
 10
112.1297096108991
 20
64.596574720827761
 30
0.0
 40
9.1169533602750281
 50
344.28991878668688
 51
358.90841116693031
  0
ARC
  5
1512
  8
0
 10
113.41451147717061
 20
64.356184623495295
 30
0.0
 40
6.5736771429525831
 50
343.36721888690238
 51
0.6707744863649139
  0
ARC
  5
1513
  8
0
 10
113.1986505277371
 20
64.235054190335745
 30
0.0
 40
7.9902695513633182
 50
323.10147670496963
 51
344.70997224097118
  0
ARC
  5
1514
  8
0
 10
113.5310961505168
 20
64.084588692928321
 30
0.0
 40
6.3882592382484464
 50
322.35343064936882
 51
345.40234717652282
  0
ARC
  5
1515
  8
0
 10
112.2136953265733
 20
64.942323999906549
 30
0.0
 40
9.2026189399605638
 50
294.63567774523079
 51
323.26187788488153
  0
ARC
  5
1516
  8
0
 10
112.0886196619057
 20
65.012075704305957
 30
0.0
 40
8.0982298030476141
 50
294.94358849365142
 51
323.39119582597749
  0
ARC
  5
1517
  8
0
 10
111.47535551519741
 20
65.707936421191803
 30
0.0
 40
10.21238529372094
 50
269.49416856476591
 51
296.61088404624252
  0
ARC
  5
1518
  8
0
 10
111.2351289040129
 20
66.601249505371001
 30
0.0
 40
9.8996529510697453
 50
270.868790673418
 51
295.5436901211105
  0
CIRCLE
  5
1519
  8
0
 10
111.3851341411652
 20
66.964947197708213
 30
0.0
 40
1.4487460542054611
  0
CIRCLE
  5
151A
  8
0
 10
111.3851341411652
 20
66.964947197708213
 30
0.0
 40
1.0298579812999999
  0
ARC
  5
151C
  8
0
 10
111.3852341411652
 20
66.074415888707733
 30
0.0
 40
8.8513475440995162
 50
265.2367766495974
 51
274.76322335040271
  0
ARC
  5
151D
  8
0
 10
112.17510279275101
 20
56.94668115201889
 30
0.0
 40
0.3118133648508564
 50
45.564843796231358
 51
100.1348970890558
  0
ARC
  5
151E
  8
0
 10
112.14166113826271
 20
57.26429048168999
 30
0.0
 40
0.3280172644664692
 50
266.2546139761443
 51
323.70381929208622
  0
ARC
  5
151F
  8
0
 10
112.3223110452832
 20
57.109870340473293
 30
0.0
 40
0.0926798841530842
 50
334.60060128754287
 51
39.90770311847524
  0
ARC
  5
1520
  8
0
 10
111.4060923294137
 20
65.383394155357252
 30
0.0
 40
8.4801774081262913
 50
264.88630587985438
 51
274.82863301146932
  0
ARC
  5
1521
  8
0
 10
110.59536890637391
 20
56.94667138758183
 30
0.0
 40
0.3118133648508564
 50
79.865811208763077
 51
134.43586450158759
  0
ARC
  5
1522
  8
0
 10
110.62879419834771
 20
57.264267086563343
 30
0.0
 40
0.3279989277546884
 50
216.29619776342111
 51
273.74786194635402
  0
ARC
  5
1523
  8
0
 10
110.44815863648719
 20
57.10985875621634
 30
0.0
 40
0.0926798841530842
 50
140.09300517934369
 51
205.400107010276
  0
ATTDEF
  5
153A
  8
DEFPOINTS
 10
111.3852261028908
 20
64.14162238479102
 30
0.0
 40
0.001
  1
442050
  3

  2
MODELNUMBER
 70
     0
1001
ACDBATTR
1070
     0
1070
     1
  0
ATTDEF
  5
153B
  8
DEFPOINTS
 10
111.3852261028908
 20
64.139955718124355
 30
0.0
 40
0.001
  1
WESCOTT
  3

  2
TRADENAME
 70
     0
1001
ACDBATTR
1070
     0
1070
     1
  0
ATTDEF
  5
153C
  8
DEFPOINTS
 10
111.3852261028908
 20
64.13828905145769
 30
0.0
 40
0.001
  1
BATHROOM SINK
  3

  2
PRODUCT
 70
     0
1001
ACDBATTR
1070
     0
1070
     1
  0
ATTDEF
  5
153D
  8
DEFPOINTS
 10
111.3852261028908
 20
64.136622384791025
 30
0.0
 40
0.001
  1
VITREOUS CHINA
  3

  2
MATERIAL
 70
     0
1001
ACDBATTR
1070
     0
1070
     1
  0
ENDSEC
  0
EOF
