  0
SECTION
  2
HEADER
  9
$ACADVER
  1
AC1009
  9
$INSBASE
 10
11.33627605222356
 20
29.84287410077221
 30
0.0
  9
$EXTMIN
 10
1.763012828462265
 20
22.16670445049537
 30
-0.0015258207003583
  9
$EXTMAX
 10
20.910985816589889
 20
37.526450345921774
 30
0.0000000349246037
  9
$LIMMIN
 10
0.0
 20
0.0
  9
$LIMMAX
 10
22.0
 20
17.0
  9
$ORTHOMODE
 70
     0
  9
$REGENMODE
 70
     1
  9
$FILLMODE
 70
     1
  9
$QTEXTMODE
 70
     0
  9
$MIRRTEXT
 70
     0
  9
$DRAGMODE
 70
     2
  9
$LTSCALE
 40
1.2099999999999991
  9
$OSMODE
 70
  3071
  9
$ATTMODE
 70
     1
  9
$TEXTSIZE
 40
0.2
  9
$TRACEWID
 40
0.05
  9
$TEXTSTYLE
  7
STANDARD
  9
$CLAYER
  8
0
  9
$CELTYPE
  6
BYLAYER
  9
$CECOLOR
 62
   256
  9
$DIMSCALE
 40
1.0
  9
$DIMASZ
 40
0.1875
  9
$DIMEXO
 40
0.0625
  9
$DIMDLI
 40
0.8359999999999999
  9
$DIMRND
 40
0.0
  9
$DIMDLE
 40
0.0
  9
$DIMEXE
 40
0.125
  9
$DIMTP
 40
0.01
  9
$DIMTM
 40
0.01
  9
$DIMTXT
 40
0.15625
  9
$DIMCEN
 40
0.198
  9
$DIMTSZ
 40
0.0
  9
$DIMTOL
 70
     1
  9
$DIMLIM
 70
     0
  9
$DIMTIH
 70
     1
  9
$DIMTOH
 70
     1
  9
$DIMSE1
 70
     0
  9
$DIMSE2
 70
     0
  9
$DIMTAD
 70
     0
  9
$DIMZIN
 70
     0
  9
$DIMBLK
  1

  9
$DIMASO
 70
     1
  9
$DIMSHO
 70
     1
  9
$DIMPOST
  1

  9
$DIMAPOST
  1

  9
$DIMALT
 70
     0
  9
$DIMALTD
 70
     2
  9
$DIMALTF
 40
25.399999999999999
  9
$DIMLFAC
 40
1.0
  9
$DIMTOFL
 70
     0
  9
$DIMTVP
 40
0.0
  9
$DIMTIX
 70
     0
  9
$DIMSOXD
 70
     0
  9
$DIMSAH
 70
     0
  9
$DIMBLK1
  1

  9
$DIMBLK2
  1

  9
$DIMSTYLE
  2
STANDARD
  9
$DIMCLRD
 70
     0
  9
$DIMCLRE
 70
     0
  9
$DIMCLRT
 70
     0
  9
$DIMTFAC
 40
1.0
  9
$DIMGAP
 40
0.09
  9
$LUNITS
 70
     2
  9
$LUPREC
 70
     4
  9
$SKETCHINC
 40
0.1
  9
$FILLETRAD
 40
0.0
  9
$AUNITS
 70
     0
  9
$AUPREC
 70
     0
  9
$MENU
  1
.
  9
$ELEVATION
 40
0.0
  9
$PELEVATION
 40
0.0
  9
$THICKNESS
 40
0.0
  9
$LIMCHECK
 70
     0
  9
$BLIPMODE
 70
     0
  9
$CHAMFERA
 40
0.0
  9
$CHAMFERB
 40
0.0
  9
$SKPOLY
 70
     0
  9
$TDCREATE
 40
2457972.645106806
  9
$TDUPDATE
 40
2457973.5625067479
  9
$TDINDWG
 40
0.9157038542
  9
$TDUSRTIMER
 40
0.9157038542
  9
$USRTIMER
 70
     1
  9
$ANGBASE
 50
0.0
  9
$ANGDIR
 70
     0
  9
$PDMODE
 70
     0
  9
$PDSIZE
 40
0.3125
  9
$PLINEWID
 40
0.0
  9
$COORDS
 70
     1
  9
$SPLFRAME
 70
     0
  9
$SPLINETYPE
 70
     6
  9
$SPLINESEGS
 70
     8
  9
$ATTDIA
 70
     1
  9
$ATTREQ
 70
     1
  9
$HANDLING
 70
     1
  9
$HANDSEED
  5
788
  9
$SURFTAB1
 70
     6
  9
$SURFTAB2
 70
     6
  9
$SURFTYPE
 70
     6
  9
$SURFU
 70
     6
  9
$SURFV
 70
     6
  9
$UCSNAME
  2

  9
$UCSORG
 10
0.0
 20
0.0
 30
0.0
  9
$UCSXDIR
 10
1.0
 20
0.0
 30
0.0
  9
$UCSYDIR
 10
0.0
 20
1.0
 30
0.0
  9
$PUCSNAME
  2

  9
$PUCSORG
 10
0.0
 20
0.0
 30
0.0
  9
$PUCSXDIR
 10
1.0
 20
0.0
 30
0.0
  9
$PUCSYDIR
 10
0.0
 20
1.0
 30
0.0
  9
$USERI1
 70
     0
  9
$USERI2
 70
     0
  9
$USERI3
 70
     0
  9
$USERI4
 70
     0
  9
$USERI5
 70
     0
  9
$USERR1
 40
0.0
  9
$USERR2
 40
0.0
  9
$USERR3
 40
0.0
  9
$USERR4
 40
0.0
  9
$USERR5
 40
0.0
  9
$WORLDVIEW
 70
     1
  9
$SHADEDGE
 70
     3
  9
$SHADEDIF
 70
    70
  9
$TILEMODE
 70
     1
  9
$MAXACTVP
 70
    64
  9
$PLIMCHECK
 70
     0
  9
$PEXTMIN
 10
1.0000000000000000E+020
 20
1.0000000000000000E+020
 30
1.0000000000000000E+020
  9
$PEXTMAX
 10
-1.0000000000000000E+020
 20
-1.0000000000000000E+020
 30
-1.0000000000000000E+020
  9
$PLIMMIN
 10
0.0
 20
0.0
  9
$PLIMMAX
 10
12.0
 20
9.0
  9
$UNITMODE
 70
     0
  9
$VISRETAIN
 70
     1
  9
$PLINEGEN
 70
     0
  9
$PSLTSCALE
 70
     1
  0
ENDSEC
  0
SECTION
  2
TABLES
  0
TABLE
  2
VPORT
 70
     1
  0
VPORT
  2
*ACTIVE
 70
     0
 10
0.0
 20
0.0
 11
1.0
 21
1.0
 12
-9.4793135342710997
 22
5.5771245666348293
 13
0.0
 23
0.0
 14
1.0
 24
1.0
 15
0.0
 25
0.0
 16
-0.0000000000000249
 26
0.0
 36
111.915085943845
 17
20.816312856797168
 27
24.269452831573751
 37
0.0
 40
15.453498159284541
 41
1.640529531568228
 42
50.0
 43
0.0
 44
0.0
 50
0.0
 51
0.0
 71
     0
 72
   100
 73
     1
 74
     1
 75
     0
 76
     0
 77
     0
 78
     0
  0
ENDTAB
  0
TABLE
  2
LTYPE
 70
     2
  0
LTYPE
  2
CONTINUOUS
 70
     0
  3
Solid line
 72
    65
 73
     0
 40
0.0
  0
LTYPE
  2
PHANTOM2
 70
     0
  3
___ _ _ ___ _ _ ___ _ _ ___ _ _
 72
    65
 73
     6
 40
1.25
 49
0.625
 49
-0.125
 49
0.125
 49
-0.125
 49
0.125
 49
-0.125
  0
ENDTAB
  0
TABLE
  2
LAYER
 70
     2
  0
LAYER
  2
0
 70
     0
 62
     7
  6
CONTINUOUS
  0
LAYER
  2
DEFPOINTS
 70
     0
 62
     7
  6
CONTINUOUS
  0
ENDTAB
  0
TABLE
  2
STYLE
 70
     1
  0
STYLE
  2
STANDARD
 70
     0
 40
0.0
 41
0.8
 50
0.0
 71
     0
 42
0.2
  3
txt
  4

  0
ENDTAB
  0
TABLE
  2
VIEW
 70
     0
  0
ENDTAB
  0
TABLE
  2
UCS
 70
     0
  0
ENDTAB
  0
TABLE
  2
APPID
 70
     5
  0
APPID
  2
ACAD
 70
     0
  0
APPID
  2
ACAD_NAV_VCDISPLAY
 70
     0
  0
APPID
  2
ACAD_EXEMPT_FROM_CAD_STANDARDS
 70
     0
  0
APPID
  2
ACAD_MLEADERVER
 70
     0
  0
APPID
  2
ACDBATTR
 70
     0
  0
ENDTAB
  0
TABLE
  2
DIMSTYLE
 70
     1
  0
DIMSTYLE
  2
STANDARD
 70
     0
  3

  4

  5

  6

  7

 40
1.0
 41
0.1875
 42
0.0625
 43
0.38
 44
0.125
 45
0.0
 46
0.0
 47
0.01
 48
0.01
140
0.15625
141
0.09
142
0.0
143
25.399999999999999
144
1.0
145
0.0
146
1.0
147
0.09
 71
     1
 72
     0
 73
     1
 74
     1
 75
     0
 76
     0
 77
     0
 78
     4
170
     0
171
     2
172
     0
173
     0
174
     0
175
     0
176
     0
177
     0
178
     0
  0
ENDTAB
  0
ENDSEC
  0
SECTION
  2
BLOCKS
  0
BLOCK
  8
0
  2
$MODEL_SPACE
 70
     0
 10
0.0
 20
0.0
 30
0.0
  3
$MODEL_SPACE
  1

  0
ENDBLK
  5
21
  8
0
  0
BLOCK
 67
     1
  8
0
  2
$PAPER_SPACE
 70
     0
 10
0.0
 20
0.0
 30
0.0
  3
$PAPER_SPACE
  1

  0
ENDBLK
  5
1D
 67
     1
  8
0
  0
ENDSEC
  0
SECTION
  2
ENTITIES
  0
CIRCLE
  5
355
  8
0
 10
11.3362754059
 20
33.357570169699997
 30
0.0
 40
1.0625
  0
CIRCLE
  5
357
  8
0
 10
11.3362754059
 20
33.357570169699997
 30
0.0
 40
0.7845
  0
ARC
  5
4C1
  8
0
 10
10.89847793246293
 20
23.729366097695369
 30
0.0
 40
12.677938979425299
 50
88.021055666029781
 51
110.10763259789231
  0
ARC
  5
4C2
  8
0
 10
8.4074723953638983
 20
30.533549925987302
 30
0.0
 40
5.4321107896979557
 50
110.10763259789221
 51
148.67554048648799
  0
ARC
  5
4C3
  8
0
 10
9.5118167753759142
 20
30.046658511655728
 30
0.0
 40
6.6304973541134871
 50
150.0428034991331
 51
217.61645466026761
  0
ARC
  5
4C4
  8
0
 10
9.7584335234386863
 20
30.7683674283629
 30
0.0
 40
7.2785517680317078
 50
220.93352680499621
 51
256.84705421426708
  0
ARC
  5
4C5
  8
0
 10
11.336276052224081
 20
36.709509117851567
 30
0.0
 40
13.42414263339648
 50
256.05941109737972
 51
283.94058890255099
  0
ARC
  5
4C9
  8
0
 10
10.89847793246293
 20
23.729366097695369
 30
0.0
 40
13.79593897942531
 50
88.021055666029781
 51
110.10763259789231
  0
ARC
  5
4CC
  8
0
 10
8.407472395566252
 20
30.533549925740871
 30
0.0
 40
6.5501107899989313
 50
110.1076325988133
 51
148.67554048556681
  0
ARC
  5
4CD
  8
0
 10
9.5110350375593651
 20
30.04636275822606
 30
0.0
 40
7.7476976123392971
 50
149.84074271351119
 51
217.61825081296811
  0
ARC
  5
4CE
  8
0
 10
9.7523115109162752
 20
30.75331434641782
 30
0.0
 40
8.3805008991940646
 50
220.44092771034849
 51
256.8643927464646
  0
ARC
  5
4CF
  8
0
 10
11.33627605222356
 20
36.707022570454171
 30
0.0
 40
14.539631188567361
 50
256.11761301961798
 51
283.88238698038191
  0
ARC
  5
4D0
  8
0
 10
11.336289833982701
 20
38.40921459113634
 30
0.0
 40
14.809604440934979
 50
267.15518878687072
 51
272.84481121312928
  0
ARC
  5
4D1
  8
0
 10
10.57611697995325
 20
23.111574092199369
 30
0.0
 40
0.5069117296150161
 50
87.155188786870895
 51
107.2687112773508
  0
ARC
  5
4D2
  8
0
 10
10.462421801297049
 20
23.477310617556679
 30
0.0
 40
0.1239106857129119
 50
107.2687112773507
 51
138.69302690376739
  0
ARC
  5
4D3
  8
0
 10
10.39482270025781
 20
23.53671245714505
 30
0.0
 40
0.0339205917703214
 50
138.69302690376659
 51
224.85271538295009
  0
ARC
  5
4D4
  8
0
 10
10.491561705047561
 20
23.63295538120536
 30
0.0
 40
0.1703798731673319
 50
224.8527153829499
 51
261.75415396787929
  0
ARC
  5
4D5
  8
0
 10
10.63084196866977
 20
24.122333315058238
 30
0.0
 40
0.6780577156142063
 50
256.02792826154052
 51
267.50083729312649
  0
ARC
  5
4D6
  8
0
 10
11.33628983398213
 20
38.450900749567012
 30
0.0
 40
15.023970467873969
 50
267.1958117159611
 51
272.80418828404407
  0
ARC
  5
4D7
  8
0
 10
12.096462688012149
 20
23.111574092199369
 30
0.0
 40
0.5069117296150161
 50
72.73128872264931
 51
92.844811213129034
  0
ARC
  5
4D8
  8
0
 10
12.21015786666835
 20
23.477310617556679
 30
0.0
 40
0.1239106857129119
 50
41.306973096232547
 51
72.73128872264931
  0
ARC
  5
4D9
  8
0
 10
12.277756967707591
 20
23.53671245714505
 30
0.0
 40
0.0339205917703214
 50
315.14728461704988
 51
41.306973096233399
  0
ARC
  5
4DA
  8
0
 10
12.18101796291784
 20
23.63295538120536
 30
0.0
 40
0.1703798731673319
 50
278.24584603212082
 51
315.14728461705022
  0
ARC
  5
4DB
  8
0
 10
12.04173769929562
 20
24.122333315058238
 30
0.0
 40
0.6780577156142063
 50
272.49916270687339
 51
283.97207173845959
  0
ARC
  5
4E4
  8
0
 10
11.77407386698588
 20
23.729364925613751
 30
0.0
 40
12.67794018492053
 50
69.892367928770554
 51
91.978948612803123
  0
ARC
  5
4E5
  8
0
 10
11.791478936837761
 20
23.796251069587971
 30
0.0
 40
13.72714886669911
 50
69.864610455675717
 51
91.739100159623646
  0
ARC
  5
4E6
  8
0
 10
14.265079709083221
 20
30.533549925987302
 30
0.0
 40
5.4321107896979557
 50
31.32445951351205
 51
69.892367402107695
  0
ARC
  5
4E7
  8
0
 10
14.265079708880871
 20
30.533549925740871
 30
0.0
 40
6.5501107899989313
 50
31.32445951443318
 51
69.892367401186647
  0
ARC
  5
4E8
  8
0
 10
13.160735329071199
 20
30.046658511655728
 30
0.0
 40
6.6304973541134871
 50
322.38354533973228
 51
29.957196500866861
  0
ARC
  5
4E9
  8
0
 10
13.16151706688775
 20
30.04636275822606
 30
0.0
 40
7.7476976123392971
 50
322.38174918703191
 51
30.159257286488788
  0
ARC
  5
4EA
  8
0
 10
12.914118581008429
 20
30.7683674283629
 30
0.0
 40
7.2785517680317078
 50
283.15294578573292
 51
319.06647319500382
  0
ARC
  5
4EB
  8
0
 10
12.92024059353084
 20
30.75331434641782
 30
0.0
 40
8.3805008991940646
 50
283.1356072535354
 51
319.55907228965151
  0
ATTDEF
  5
5DB
  8
DEFPOINTS
 10
11.341277673396821
 20
29.84496617570349
 30
0.0
 40
0.001
  1
442040
  3

  2
MODELNUMBER
 70
     0
1001
ACDBATTR
1070
     0
1070
     1
  0
ATTDEF
  5
5DC
  8
DEFPOINTS
 10
11.341277673396821
 20
29.843299509036829
 30
0.0
 40
0.001
  1
WESCOTT
  3

  2
TRADENAME
 70
     0
1001
ACDBATTR
1070
     0
1070
     1
  0
ATTDEF
  5
5DD
  8
DEFPOINTS
 10
11.341277673396821
 20
29.84163284237016
 30
0.0
 40
0.001
  1
BATHROOM SINK
  3

  2
PRODUCT
 70
     0
1001
ACDBATTR
1070
     0
1070
     1
  0
ATTDEF
  5
5DE
  8
DEFPOINTS
 10
11.341277673396821
 20
29.839966175703498
 30
0.0
 40
0.001
  1
VITREOUS CHINA
  3

  2
MATERIAL
 70
     0
1001
ACDBATTR
1070
     0
1070
     1
  0
ENDSEC
  0
EOF
