  0
SECTION
  2
HEADER
  9
$ACADVER
  1
AC1009
  9
$INSBASE
 10
11.33627605222356
 20
18.86360234419999
 30
0.0
  9
$EXTMIN
 10
1.763012828462265
 20
11.01263731558786
 30
-0.0015258207003583
  9
$EXTMAX
 10
20.907944041683692
 20
18.874307793580279
 30
0.0000000349246037
  9
$LIMMIN
 10
0.0
 20
0.0
  9
$LIMMAX
 10
22.0
 20
17.0
  9
$ORTHOMODE
 70
     0
  9
$REGENMODE
 70
     1
  9
$FILLMODE
 70
     1
  9
$QTEXTMODE
 70
     0
  9
$MIRRTEXT
 70
     0
  9
$DRAGMODE
 70
     2
  9
$LTSCALE
 40
1.2099999999999991
  9
$OSMODE
 70
  3071
  9
$ATTMODE
 70
     1
  9
$TEXTSIZE
 40
0.2
  9
$TRACEWID
 40
0.05
  9
$TEXTSTYLE
  7
STANDARD
  9
$CLAYER
  8
0
  9
$CELTYPE
  6
BYLAYER
  9
$CECOLOR
 62
   256
  9
$DIMSCALE
 40
1.0
  9
$DIMASZ
 40
0.1875
  9
$DIMEXO
 40
0.0625
  9
$DIMDLI
 40
0.8359999999999999
  9
$DIMRND
 40
0.0
  9
$DIMDLE
 40
0.0
  9
$DIMEXE
 40
0.125
  9
$DIMTP
 40
0.01
  9
$DIMTM
 40
0.01
  9
$DIMTXT
 40
0.15625
  9
$DIMCEN
 40
0.198
  9
$DIMTSZ
 40
0.0
  9
$DIMTOL
 70
     1
  9
$DIMLIM
 70
     0
  9
$DIMTIH
 70
     1
  9
$DIMTOH
 70
     1
  9
$DIMSE1
 70
     0
  9
$DIMSE2
 70
     0
  9
$DIMTAD
 70
     0
  9
$DIMZIN
 70
     0
  9
$DIMBLK
  1

  9
$DIMASO
 70
     1
  9
$DIMSHO
 70
     1
  9
$DIMPOST
  1

  9
$DIMAPOST
  1

  9
$DIMALT
 70
     0
  9
$DIMALTD
 70
     2
  9
$DIMALTF
 40
25.399999999999999
  9
$DIMLFAC
 40
1.0
  9
$DIMTOFL
 70
     0
  9
$DIMTVP
 40
0.0
  9
$DIMTIX
 70
     0
  9
$DIMSOXD
 70
     0
  9
$DIMSAH
 70
     0
  9
$DIMBLK1
  1

  9
$DIMBLK2
  1

  9
$DIMSTYLE
  2
STANDARD
  9
$DIMCLRD
 70
     0
  9
$DIMCLRE
 70
     0
  9
$DIMCLRT
 70
     0
  9
$DIMTFAC
 40
1.0
  9
$DIMGAP
 40
0.09
  9
$LUNITS
 70
     2
  9
$LUPREC
 70
     4
  9
$SKETCHINC
 40
0.1
  9
$FILLETRAD
 40
0.0
  9
$AUNITS
 70
     0
  9
$AUPREC
 70
     0
  9
$MENU
  1
.
  9
$ELEVATION
 40
0.0
  9
$PELEVATION
 40
0.0
  9
$THICKNESS
 40
0.0
  9
$LIMCHECK
 70
     0
  9
$BLIPMODE
 70
     0
  9
$CHAMFERA
 40
0.0
  9
$CHAMFERB
 40
0.0
  9
$SKPOLY
 70
     0
  9
$TDCREATE
 40
2457972.645106806
  9
$TDUPDATE
 40
2457973.5628679399
  9
$TDINDWG
 40
0.9157522569
  9
$TDUSRTIMER
 40
0.9157522569
  9
$USRTIMER
 70
     1
  9
$ANGBASE
 50
0.0
  9
$ANGDIR
 70
     0
  9
$PDMODE
 70
     0
  9
$PDSIZE
 40
0.3125
  9
$PLINEWID
 40
0.0
  9
$COORDS
 70
     1
  9
$SPLFRAME
 70
     0
  9
$SPLINETYPE
 70
     6
  9
$SPLINESEGS
 70
     8
  9
$ATTDIA
 70
     1
  9
$ATTREQ
 70
     1
  9
$HANDLING
 70
     1
  9
$HANDSEED
  5
730
  9
$SURFTAB1
 70
     6
  9
$SURFTAB2
 70
     6
  9
$SURFTYPE
 70
     6
  9
$SURFU
 70
     6
  9
$SURFV
 70
     6
  9
$UCSNAME
  2

  9
$UCSORG
 10
0.0
 20
0.0
 30
0.0
  9
$UCSXDIR
 10
1.0
 20
0.0
 30
0.0
  9
$UCSYDIR
 10
0.0
 20
1.0
 30
0.0
  9
$PUCSNAME
  2

  9
$PUCSORG
 10
0.0
 20
0.0
 30
0.0
  9
$PUCSXDIR
 10
1.0
 20
0.0
 30
0.0
  9
$PUCSYDIR
 10
0.0
 20
1.0
 30
0.0
  9
$USERI1
 70
     0
  9
$USERI2
 70
     0
  9
$USERI3
 70
     0
  9
$USERI4
 70
     0
  9
$USERI5
 70
     0
  9
$USERR1
 40
0.0
  9
$USERR2
 40
0.0
  9
$USERR3
 40
0.0
  9
$USERR4
 40
0.0
  9
$USERR5
 40
0.0
  9
$WORLDVIEW
 70
     1
  9
$SHADEDGE
 70
     3
  9
$SHADEDIF
 70
    70
  9
$TILEMODE
 70
     1
  9
$MAXACTVP
 70
    64
  9
$PLIMCHECK
 70
     0
  9
$PEXTMIN
 10
1.0000000000000000E+020
 20
1.0000000000000000E+020
 30
1.0000000000000000E+020
  9
$PEXTMAX
 10
-1.0000000000000000E+020
 20
-1.0000000000000000E+020
 30
-1.0000000000000000E+020
  9
$PLIMMIN
 10
0.0
 20
0.0
  9
$PLIMMAX
 10
12.0
 20
9.0
  9
$UNITMODE
 70
     0
  9
$VISRETAIN
 70
     1
  9
$PLINEGEN
 70
     0
  9
$PSLTSCALE
 70
     1
  0
ENDSEC
  0
SECTION
  2
TABLES
  0
TABLE
  2
VPORT
 70
     1
  0
VPORT
  2
*ACTIVE
 70
     0
 10
0.0
 20
0.0
 11
1.0
 21
1.0
 12
-9.4808344217241967
 22
-9.325980276989668
 13
0.0
 23
0.0
 14
1.0
 24
1.0
 15
0.0
 25
0.0
 16
-0.0000000000000249
 26
0.0
 36
111.915085943845
 17
20.816312856797168
 27
24.269452831573751
 37
0.0
 40
11.713389847019259
 41
1.640529531568228
 42
50.0
 43
0.0
 44
0.0
 50
0.0
 51
0.0
 71
     0
 72
   100
 73
     1
 74
     1
 75
     0
 76
     0
 77
     0
 78
     0
  0
ENDTAB
  0
TABLE
  2
LTYPE
 70
     2
  0
LTYPE
  2
CONTINUOUS
 70
     0
  3
Solid line
 72
    65
 73
     0
 40
0.0
  0
LTYPE
  2
PHANTOM2
 70
     0
  3
___ _ _ ___ _ _ ___ _ _ ___ _ _
 72
    65
 73
     6
 40
1.25
 49
0.625
 49
-0.125
 49
0.125
 49
-0.125
 49
0.125
 49
-0.125
  0
ENDTAB
  0
TABLE
  2
LAYER
 70
     2
  0
LAYER
  2
0
 70
     0
 62
     7
  6
CONTINUOUS
  0
LAYER
  2
DEFPOINTS
 70
     0
 62
     7
  6
CONTINUOUS
  0
ENDTAB
  0
TABLE
  2
STYLE
 70
     1
  0
STYLE
  2
STANDARD
 70
     0
 40
0.0
 41
0.8
 50
0.0
 71
     0
 42
0.2
  3
txt
  4

  0
ENDTAB
  0
TABLE
  2
VIEW
 70
     0
  0
ENDTAB
  0
TABLE
  2
UCS
 70
     0
  0
ENDTAB
  0
TABLE
  2
APPID
 70
     5
  0
APPID
  2
ACAD
 70
     0
  0
APPID
  2
ACAD_NAV_VCDISPLAY
 70
     0
  0
APPID
  2
ACAD_EXEMPT_FROM_CAD_STANDARDS
 70
     0
  0
APPID
  2
ACAD_MLEADERVER
 70
     0
  0
APPID
  2
ACDBATTR
 70
     0
  0
ENDTAB
  0
TABLE
  2
DIMSTYLE
 70
     1
  0
DIMSTYLE
  2
STANDARD
 70
     0
  3

  4

  5

  6

  7

 40
1.0
 41
0.1875
 42
0.0625
 43
0.38
 44
0.125
 45
0.0
 46
0.0
 47
0.01
 48
0.01
140
0.15625
141
0.09
142
0.0
143
25.399999999999999
144
1.0
145
0.0
146
1.0
147
0.09
 71
     1
 72
     0
 73
     1
 74
     1
 75
     0
 76
     0
 77
     0
 78
     4
170
     0
171
     2
172
     0
173
     0
174
     0
175
     0
176
     0
177
     0
178
     0
  0
ENDTAB
  0
ENDSEC
  0
SECTION
  2
BLOCKS
  0
BLOCK
  8
0
  2
$MODEL_SPACE
 70
     0
 10
0.0
 20
0.0
 30
0.0
  3
$MODEL_SPACE
  1

  0
ENDBLK
  5
21
  8
0
  0
BLOCK
 67
     1
  8
0
  2
$PAPER_SPACE
 70
     0
 10
0.0
 20
0.0
 30
0.0
  3
$PAPER_SPACE
  1

  0
ENDBLK
  5
1D
 67
     1
  8
0
  0
ENDSEC
  0
SECTION
  2
ENTITIES
  0
LINE
  5
4F8
  8
0
 10
20.781471738456649
 20
18.86360234419999
 30
0.0
 11
1.8910790877458701
 21
18.86360234419999
 31
0.0
  0
ARC
  5
505
  8
0
 10
1.890976668593181
 20
18.738601953864801
 30
0.0
 40
0.1250004322937905
 50
89.953054678439756
 51
179.99982108414119
  0
LINE
  5
506
  8
0
 10
1.7659762363
 20
18.7386023442
 30
0.0
 11
1.7659756429925431
 21
18.5486023439592
 31
0.0
  0
ARC
  5
507
  8
0
 10
1.891136405729962
 20
18.548763103827529
 30
0.0
 40
0.1251608659795375
 50
180.07359220816241
 51
269.92530763275141
  0
LINE
  5
508
  8
0
 10
1.890973242599999
 20
18.423602344199999
 30
0.0
 11
20.781577583616912
 21
18.42360234420002
 31
0.0
  0
ARC
  5
509
  8
0
 10
2.3347047865661388
 20
18.298599927409001
 30
0.0
 40
0.1250024801226696
 50
3.8199014235657152
 51
90.057675156735073
  0
ARC
  5
50A
  8
0
 10
10.3845215645986
 20
18.83607663448997
 30
0.0
 40
7.9427376849140989
 50
183.8199014235658
 51
204.2594154200863
  0
ARC
  5
50B
  8
0
 10
6.3050446418340007
 20
16.852896744311838
 30
0.0
 40
3.4112263325807981
 50
202.0430188125371
 51
251.16915484259101
  0
ARC
  5
50C
  8
0
 10
11.72703705902248
 20
34.40479372800484
 30
0.0
 40
21.78028998606278
 50
252.57282509599051
 51
265.22981597301731
  0
ARC
  5
50D
  8
0
 10
9.9140803651086156
 20
12.61408748142596
 30
0.0
 40
0.0858746228487244
 50
39.049392618011723
 51
88.849882833966333
  0
ARC
  5
50E
  8
0
 10
9.6798209868336134
 20
18.299030864545529
 30
0.0
 40
0.1245714380385175
 50
1.3688058690425009
 51
89.988790510927885
  0
ARC
  5
510
  8
0
 10
123.42779260265139
 20
19.0402704331438
 30
0.0
 40
113.62583411984809
 50
180.3722718423943
 51
183.21480664323869
  0
ARC
  5
511
  8
0
 10
13.679909017509649
 20
12.87596052510788
 30
0.0
 40
3.704968638993531
 50
183.21480664323869
 51
189.1415233093455
  0
ARC
  5
512
  8
0
 10
22.45155745865139
 20
14.287471796951021
 30
0.0
 40
12.58945964554672
 50
189.14152330934559
 51
190.78097532782019
  0
ARC
  5
513
  8
0
 10
10.228847376271769
 20
11.960071036528991
 30
0.0
 40
0.1471352623168193
 50
190.78097532782041
 51
209.84773855889401
  0
LINE
  5
514
  8
0
 10
10.10122944818761
 20
11.886842286378879
 30
0.0
 11
11.188864495400001
 21
11.403741784899999
 31
0.0
  0
ARC
  5
515
  8
0
 10
11.336275246513139
 20
11.73763855485751
 30
0.0
 40
0.3649890170016079
 50
246.1792126391077
 51
293.8162157076876
  0
LINE
  5
516
  8
0
 10
10.021275405900001
 20
12.29184348895355
 30
0.0
 11
10.021275405900001
 21
11.013602344200001
 31
0.0
  0
LINE
  5
517
  8
0
 10
10.021275405900001
 20
11.013602344200001
 30
0.0
 11
12.6512754059
 21
11.013602344200001
 31
0.0
  0
ARC
  5
518
  8
0
 10
-143.83059165480361
 20
16.923922764002391
 30
0.0
 40
155.16925543301889
 50
357.954568323638
 51
0.5537607825317318
  0
ARC
  5
519
  8
0
 10
20.781574157606808
 20
18.738601953864801
 30
0.0
 40
0.1250004322937905
 50
0.0001789158587845
 51
90.046945321560173
  0
LINE
  5
51A
  8
0
 10
20.9065745899
 20
18.7386023442
 30
0.0
 11
20.906575183207458
 21
18.5486023439592
 31
0.0
  0
ARC
  5
51B
  8
0
 10
20.781414420470028
 20
18.548763103827529
 30
0.0
 40
0.1251608659795375
 50
270.07469236724859
 51
359.92640779183751
  0
ARC
  5
525
  8
0
 10
20.337846033194548
 20
18.298599927409001
 30
0.0
 40
0.1250024801226696
 50
89.942324843264998
 51
176.18009857643429
  0
ARC
  5
526
  8
0
 10
12.28802925516209
 20
18.83607663448997
 30
0.0
 40
7.9427376849140989
 50
335.74058457991362
 51
356.1800985764342
  0
ARC
  5
527
  8
0
 10
16.367506177926689
 20
16.852896744311838
 30
0.0
 40
3.4112263325807981
 50
288.83084515740899
 51
337.95698118746287
  0
ARC
  5
528
  8
0
 10
10.94551376073821
 20
34.40479372800484
 30
0.0
 40
21.78028998606278
 50
274.7701840269828
 51
287.42717490400952
  0
ARC
  5
529
  8
0
 10
12.75847045465208
 20
12.61408748142596
 30
0.0
 40
0.0858746228487244
 50
91.150117166033723
 51
140.95060738198831
  0
ARC
  5
52B
  8
0
 10
-100.75524178289071
 20
19.0402704331438
 30
0.0
 40
113.62583411984809
 50
356.78519335676123
 51
359.05357400528248
  0
ARC
  5
52C
  8
0
 10
8.9926418022510433
 20
12.87596052510788
 30
0.0
 40
3.704968638993531
 50
350.85847669065441
 51
356.78519335676123
  0
ARC
  5
52D
  8
0
 10
0.2209933611093042
 20
14.287471796951021
 30
0.0
 40
12.58945964554672
 50
349.21902467217978
 51
350.8584766906543
  0
ARC
  5
52E
  8
0
 10
12.44370344348892
 20
11.960071036528991
 30
0.0
 40
0.1471352623168193
 50
330.15226144110602
 51
349.21902467217961
  0
LINE
  5
52F
  8
0
 10
12.571321371573079
 20
11.886842286378879
 30
0.0
 11
11.4836593554
 21
11.403730023999991
 31
0.0
  0
LINE
  5
530
  8
0
 10
12.65127541386069
 20
12.29184348895355
 30
0.0
 11
12.65127541386069
 21
11.013602344200001
 31
0.0
  0
ARC
  5
531
  8
0
 10
166.5031424745643
 20
16.923922764002391
 30
0.0
 40
155.16925543301889
 50
179.44623921746819
 51
182.045431676362
  0
LINE
  5
54A
  8
0
 10
13.72359940363885
 20
18.42360234420001
 30
0.0
 11
13.714619514800001
 21
17.6868016972
 31
0.0
  0
ARC
  5
54B
  8
0
 10
13.3678894796246
 20
17.691027531128949
 30
0.0
 40
0.3467557857702306
 50
266.70864505918451
 51
359.30173207593663
  0
ARC
  5
54C
  8
0
 10
13.26459353010161
 20
15.894834016792259
 30
0.0
 40
1.452405461626195
 50
86.708645059184363
 51
97.084964301239339
  0
ARC
  5
54D
  8
0
 10
13.12120887348523
 20
17.048462965617549
 30
0.0
 40
0.289900015909597
 50
97.084964301239381
 51
156.63020280282311
  0
ATTDEF
  5
5C3
  8
DEFPOINTS
 10
11.33167197883934
 20
18.872988623114459
 30
0.0
 40
0.001
  1
442040
  3

  2
MODELNUMBER
 70
     0
1001
ACDBATTR
1070
     0
1070
     1
  0
ATTDEF
  5
5C4
  8
DEFPOINTS
 10
11.33167197883934
 20
18.871321956447801
 30
0.0
 40
0.001
  1
WESCOTT
  3

  2
TRADENAME
 70
     0
1001
ACDBATTR
1070
     0
1070
     1
  0
ATTDEF
  5
5C5
  8
DEFPOINTS
 10
11.33167197883934
 20
18.869655289781129
 30
0.0
 40
0.001
  1
BATHROOM SINK
  3

  2
PRODUCT
 70
     0
1001
ACDBATTR
1070
     0
1070
     1
  0
ATTDEF
  5
5C6
  8
DEFPOINTS
 10
11.33167197883934
 20
18.867988623114471
 30
0.0
 40
0.001
  1
VITREOUS CHINA
  3

  2
MATERIAL
 70
     0
1001
ACDBATTR
1070
     0
1070
     1
  0
ENDSEC
  0
EOF
