  0
SECTION
  2
HEADER
  9
$ACADVER
  1
AC1009
  9
$INSBASE
 10
77.352028095413402
 20
10.363475620899999
 30
0.0
  9
$EXTMIN
 10
67.247028095413413
 20
3.8226495686000002
 30
0.0
  9
$EXTMAX
 10
87.457028095413406
 20
10.9134756209
 30
0.0
  9
$LIMMIN
 10
0.0
 20
0.0
  9
$LIMMAX
 10
11.692913385800001
 20
8.2677165353999982
  9
$ORTHOMODE
 70
     0
  9
$REGENMODE
 70
     1
  9
$FILLMODE
 70
     1
  9
$QTEXTMODE
 70
     0
  9
$MIRRTEXT
 70
     0
  9
$DRAGMODE
 70
     2
  9
$LTSCALE
 40
0.6431102362
  9
$OSMODE
 70
  3071
  9
$ATTMODE
 70
     1
  9
$TEXTSIZE
 40
0.2
  9
$TRACEWID
 40
0.05
  9
$TEXTSTYLE
  7
STANDARD
  9
$CLAYER
  8
0
  9
$CELTYPE
  6
BYLAYER
  9
$CECOLOR
 62
   256
  9
$DIMSCALE
 40
1.0
  9
$DIMASZ
 40
0.1875
  9
$DIMEXO
 40
0.0625
  9
$DIMDLI
 40
0.4443307087
  9
$DIMRND
 40
0.0
  9
$DIMDLE
 40
0.0
  9
$DIMEXE
 40
0.125
  9
$DIMTP
 40
0.01
  9
$DIMTM
 40
0.01
  9
$DIMTXT
 40
1.0
  9
$DIMCEN
 40
0.1052362205
  9
$DIMTSZ
 40
0.0
  9
$DIMTOL
 70
     1
  9
$DIMLIM
 70
     0
  9
$DIMTIH
 70
     1
  9
$DIMTOH
 70
     1
  9
$DIMSE1
 70
     0
  9
$DIMSE2
 70
     0
  9
$DIMTAD
 70
     0
  9
$DIMZIN
 70
     0
  9
$DIMBLK
  1

  9
$DIMASO
 70
     1
  9
$DIMSHO
 70
     1
  9
$DIMPOST
  1
\X
  9
$DIMAPOST
  1

  9
$DIMALT
 70
     1
  9
$DIMALTD
 70
     2
  9
$DIMALTF
 40
25.399999999999999
  9
$DIMLFAC
 40
1.0
  9
$DIMTOFL
 70
     0
  9
$DIMTVP
 40
0.0
  9
$DIMTIX
 70
     0
  9
$DIMSOXD
 70
     0
  9
$DIMSAH
 70
     0
  9
$DIMBLK1
  1

  9
$DIMBLK2
  1

  9
$DIMSTYLE
  2
STANDARD
  9
$DIMCLRD
 70
     0
  9
$DIMCLRE
 70
     0
  9
$DIMCLRT
 70
     0
  9
$DIMTFAC
 40
1.0
  9
$DIMGAP
 40
0.09
  9
$LUNITS
 70
     2
  9
$LUPREC
 70
     4
  9
$SKETCHINC
 40
0.1
  9
$FILLETRAD
 40
0.0
  9
$AUNITS
 70
     0
  9
$AUPREC
 70
     0
  9
$MENU
  1
.
  9
$ELEVATION
 40
0.0
  9
$PELEVATION
 40
0.0
  9
$THICKNESS
 40
0.0
  9
$LIMCHECK
 70
     0
  9
$BLIPMODE
 70
     0
  9
$CHAMFERA
 40
0.0
  9
$CHAMFERB
 40
0.0
  9
$SKPOLY
 70
     0
  9
$TDCREATE
 40
2458214.4629654982
  9
$TDUPDATE
 40
2458214.6861972222
  9
$TDINDWG
 40
0.0937685648
  9
$TDUSRTIMER
 40
0.0937685648
  9
$USRTIMER
 70
     1
  9
$ANGBASE
 50
0.0
  9
$ANGDIR
 70
     0
  9
$PDMODE
 70
     0
  9
$PDSIZE
 40
0.3125
  9
$PLINEWID
 40
0.0
  9
$COORDS
 70
     1
  9
$SPLFRAME
 70
     0
  9
$SPLINETYPE
 70
     6
  9
$SPLINESEGS
 70
     8
  9
$ATTDIA
 70
     1
  9
$ATTREQ
 70
     1
  9
$HANDLING
 70
     1
  9
$HANDSEED
  5
B46
  9
$SURFTAB1
 70
     6
  9
$SURFTAB2
 70
     6
  9
$SURFTYPE
 70
     6
  9
$SURFU
 70
     6
  9
$SURFV
 70
     6
  9
$UCSNAME
  2

  9
$UCSORG
 10
0.0
 20
0.0
 30
0.0
  9
$UCSXDIR
 10
1.0
 20
0.0
 30
0.0
  9
$UCSYDIR
 10
0.0
 20
1.0
 30
0.0
  9
$PUCSNAME
  2

  9
$PUCSORG
 10
0.0
 20
0.0
 30
0.0
  9
$PUCSXDIR
 10
1.0
 20
0.0
 30
0.0
  9
$PUCSYDIR
 10
0.0
 20
1.0
 30
0.0
  9
$USERI1
 70
     0
  9
$USERI2
 70
     0
  9
$USERI3
 70
     0
  9
$USERI4
 70
     0
  9
$USERI5
 70
     0
  9
$USERR1
 40
0.0
  9
$USERR2
 40
0.0
  9
$USERR3
 40
0.0
  9
$USERR4
 40
0.0
  9
$USERR5
 40
0.0
  9
$WORLDVIEW
 70
     1
  9
$SHADEDGE
 70
     3
  9
$SHADEDIF
 70
    70
  9
$TILEMODE
 70
     1
  9
$MAXACTVP
 70
    64
  9
$PLIMCHECK
 70
     0
  9
$PEXTMIN
 10
1.0000000000000000E+020
 20
1.0000000000000000E+020
 30
1.0000000000000000E+020
  9
$PEXTMAX
 10
-1.0000000000000000E+020
 20
-1.0000000000000000E+020
 30
-1.0000000000000000E+020
  9
$PLIMMIN
 10
0.0
 20
0.0
  9
$PLIMMAX
 10
12.0
 20
9.0
  9
$UNITMODE
 70
     0
  9
$VISRETAIN
 70
     1
  9
$PLINEGEN
 70
     0
  9
$PSLTSCALE
 70
     1
  0
ENDSEC
  0
SECTION
  2
TABLES
  0
TABLE
  2
VPORT
 70
     1
  0
VPORT
  2
*ACTIVE
 70
     0
 10
0.0
 20
0.0
 11
1.0
 21
1.0
 12
0.0
 22
0.0
 13
0.0
 23
0.0
 14
1.0
 24
1.0
 15
0.0
 25
0.0
 16
-0.0000000000000142
 26
0.0
 36
60.226654709967008
 17
77.352028095413402
 27
7.3680625947499996
 37
0.0
 40
21.419904999857291
 41
2.0983240223463682
 42
50.0
 43
0.0
 44
0.0
 50
0.0
 51
0.0
 71
     0
 72
   100
 73
     1
 74
     1
 75
     0
 76
     0
 77
     0
 78
     0
  0
ENDTAB
  0
TABLE
  2
LTYPE
 70
     2
  0
LTYPE
  2
CONTINUOUS
 70
     0
  3
Solid line
 72
    65
 73
     0
 40
0.0
  0
LTYPE
  2
PHANTOM2
 70
     0
  3
___ _ _ ___ _ _ ___ _ _ ___ _ _
 72
    65
 73
     6
 40
1.25
 49
0.625
 49
-0.125
 49
0.125
 49
-0.125
 49
0.125
 49
-0.125
  0
ENDTAB
  0
TABLE
  2
LAYER
 70
     2
  0
LAYER
  2
0
 70
     0
 62
   255
  6
CONTINUOUS
  0
LAYER
  2
DEFPOINTS
 70
     0
 62
     7
  6
CONTINUOUS
  0
ENDTAB
  0
TABLE
  2
STYLE
 70
     1
  0
STYLE
  2
STANDARD
 70
     0
 40
0.0
 41
0.8
 50
0.0
 71
     0
 42
0.2
  3
txt
  4

  0
ENDTAB
  0
TABLE
  2
VIEW
 70
     0
  0
ENDTAB
  0
TABLE
  2
UCS
 70
     0
  0
ENDTAB
  0
TABLE
  2
APPID
 70
     9
  0
APPID
  2
ACAD
 70
     0
  0
APPID
  2
ACAD_MLEADERVER
 70
     0
  0
APPID
  2
ACAD_EXEMPT_FROM_CAD_STANDARDS
 70
     0
  0
APPID
  2
ACAD_DSTYLE_DIMJAG
 70
     0
  0
APPID
  2
ACAD_DSTYLE_DIMTALN
 70
     0
  0
APPID
  2
ACAD_NAV_VCDISPLAY
 70
     0
  0
APPID
  2
ACAECLAYERSTANDARD
 70
     0
  0
APPID
  2
ACCMTRANSPARENCY
 70
     0
  0
APPID
  2
AcDbAttr
 70
     0
  0
ENDTAB
  0
TABLE
  2
DIMSTYLE
 70
     1
  0
DIMSTYLE
  2
STANDARD
 70
     0
  3

  4

  5

  6

  7

 40
1.0
 41
0.1875
 42
0.0625
 43
0.38
 44
0.125
 45
0.0
 46
0.0
 47
0.01
 48
0.01
140
0.15625
141
0.09
142
0.0
143
25.399999999999999
144
1.0
145
0.0
146
1.0
147
0.09
 71
     1
 72
     0
 73
     1
 74
     1
 75
     0
 76
     0
 77
     0
 78
     4
170
     0
171
     2
172
     0
173
     0
174
     0
175
     0
176
     0
177
     0
178
     0
  0
ENDTAB
  0
ENDSEC
  0
SECTION
  2
BLOCKS
  0
BLOCK
  8
0
  2
$MODEL_SPACE
 70
     0
 10
0.0
 20
0.0
 30
0.0
  3
$MODEL_SPACE
  1

  0
ENDBLK
  5
21
  8
0
  0
BLOCK
 67
     1
  8
0
  2
$PAPER_SPACE
 70
     0
 10
0.0
 20
0.0
 30
0.0
  3
$PAPER_SPACE
  1

  0
ENDBLK
  5
1D
 67
     1
  8
0
  0
ENDSEC
  0
SECTION
  2
ENTITIES
  0
LINE
  5
779
  8
0
 10
67.247028095413413
 20
10.363475620899999
 30
0.0
 11
67.247028095413413
 21
10.6634756209
 31
0.0
  0
LINE
  5
77A
  8
0
 10
75.997045154913408
 20
3.977581153
 30
0.0
 11
75.889641388813416
 21
5.2052118169999986
 31
0.0
  0
LINE
  5
77B
  8
0
 10
76.101998466213416
 20
3.865209464299999
 30
0.0
 11
76.101997906613406
 21
3.8226495686000002
 31
0.0
  0
LINE
  5
77C
  8
0
 10
76.101997906613406
 20
3.8226495686000002
 30
0.0
 11
78.601997906845654
 21
3.8226495686000002
 31
0.0
  0
LINE
  5
77D
  8
0
 10
78.601998466313418
 20
3.8651983475999989
 30
0.0
 11
78.601997906845654
 21
3.8226495686000002
 31
0.0
  0
LINE
  5
77E
  8
0
 10
78.707011035913411
 20
3.977581153
 30
0.0
 11
78.814414802013417
 21
5.2052118169999986
 31
0.0
  0
LINE
  5
77F
  8
0
 10
67.247028095413413
 20
10.363475620899999
 30
0.0
 11
87.457028095413406
 21
10.363475620899999
 31
0.0
  0
LINE
  5
780
  8
0
 10
87.207028095413406
 20
10.9134756209
 30
0.0
 11
67.497028095413413
 21
10.9134756209
 31
0.0
  0
LINE
  5
781
  8
0
 10
87.457028095413406
 20
10.6634756209
 30
0.0
 11
87.457028095413406
 21
10.363475620899999
 31
0.0
  0
ARC
  5
785
  8
0
 10
77.34971125831342
 20
-2.7920780848999991
 30
0.0
 40
7.0511813420999996
 50
89.981174078000322
 51
93.023322559900109
  0
ARC
  5
786
  8
0
 10
77.354347366253307
 20
-2.79189009644751
 30
0.0
 40
7.0509933544577317
 50
86.976616580587375
 51
90.018846200162173
  0
ARC
  5
787
  8
0
 10
67.497028095413413
 20
10.6634756209
 30
0.0
 40
0.25
 50
90.0
 51
180.0
  0
ARC
  5
788
  8
0
 10
87.207028095413406
 20
10.6634756209
 30
0.0
 40
0.25
 50
0.0
 51
90.0
  0
ARC
  5
789
  8
0
 10
76.121140691885714
 20
3.9882861673739209
 30
0.0
 40
0.1245564114898777
 50
184.9303744990662
 51
261.15956687702447
  0
ARC
  5
78A
  8
0
 10
78.582911373587805
 20
3.9882879248753791
 30
0.0
 40
0.1245606725357079
 50
278.81446408585748
 51
355.06898315636852
  0
ARC
  5
7B7
  8
0
 10
75.640605549883986
 20
5.1834360783785192
 30
0.0
 40
0.2499860633391204
 50
4.997243197182037
 51
87.591795563691349
  0
ARC
  5
7B8
  8
0
 10
79.063462547295316
 20
5.1834235432676996
 30
0.0
 40
0.2499990166025358
 50
92.429367642875107
 51
175.0001325708055
  0
ARC
  5
7B9
  8
0
 10
76.030881595332346
 20
15.7120485868989
 30
0.0
 40
10.28586054009989
 50
238.8560073682726
 51
267.8840587359299
  0
ARC
  5
7BA
  8
0
 10
74.266797589002493
 20
12.64124250035503
 30
0.0
 40
6.745736506205767
 50
201.22144796346461
 51
238.19038785844899
  0
ARC
  5
7BB
  8
0
 10
67.743646938129245
 20
10.11332247158219
 30
0.0
 40
0.2501531765285544
 50
20.142513127370002
 51
89.973275794729972
  0
ARC
  5
7BC
  8
0
 10
78.646457933348643
 20
15.80150644630403
 30
0.0
 40
10.376270523411449
 50
272.244679767175
 51
301.01450315106342
  0
ARC
  5
7BD
  8
0
 10
80.447577106268156
 20
12.63277401391877
 30
0.0
 40
6.7331034713222859
 50
301.7725549980903
 51
338.81375699662249
  0
ARC
  5
7BE
  8
0
 10
86.960356568245217
 20
10.113473205094181
 30
0.0
 40
0.2500024240038377
 50
90.014673039293086
 51
159.89103929722691
  0
ARC
  5
7BF
  8
0
 10
75.370401206911893
 20
10.14811748625592
 30
0.0
 40
0.2355745244088364
 50
352.72403733514079
 51
66.089890384439414
  0
ARC
  5
7C0
  8
0
 10
77.373866279243117
 20
9.0591825277908278
 30
0.0
 40
2.062483963621871
 50
149.10229184307721
 51
168.84623153404911
  0
ARC
  5
7C1
  8
0
 10
77.457849020567082
 20
9.0454341343252196
 30
0.0
 40
2.147541699275016
 50
168.91979138914161
 51
186.26381817038271
  0
ARC
  5
7C2
  8
0
 10
94.195341004564966
 20
9.9537243767824695
 30
0.0
 40
18.90677021979738
 50
183.4646924265935
 51
185.9450088228337
  0
ARC
  5
7C3
  8
0
 10
86.671973434351088
 20
8.9678484675179444
 30
0.0
 40
11.323544389587131
 50
184.9261525568306
 51
198.18663887290489
  0
ARC
  5
7C4
  8
0
 10
78.077585986372227
 20
6.3134988810274244
 30
0.0
 40
2.3355659065113921
 50
202.13134112200461
 51
215.70826513400459
  0
ARC
  5
7C5
  8
0
 10
76.963869537427698
 20
5.036675436880663
 30
0.0
 40
0.7875098571108472
 50
186.2950409419378
 51
271.01464090956182
  0
ARC
  5
7C6
  8
0
 10
77.738427100136292
 20
5.0386735677013128
 30
0.0
 40
0.7894786890482503
 50
269.11560523170709
 51
353.57322671752883
  0
ARC
  5
7C7
  8
0
 10
79.33366728662169
 20
10.14810048343657
 30
0.0
 40
0.2355963281530067
 50
113.9118675170895
 51
187.27305398321761
  0
ARC
  5
7C8
  8
0
 10
77.330533934114655
 20
9.05928266441075
 30
0.0
 40
2.0621239856055591
 50
11.15290467290647
 51
30.90019544177737
  0
ARC
  5
7C9
  8
0
 10
77.246204027840903
 20
9.0454341343252196
 30
0.0
 40
2.147541699275016
 50
353.73618182961718
 51
11.080208610858319
  0
ARC
  5
7CA
  8
0
 10
60.508712043843019
 20
9.9537243767824695
 30
0.0
 40
18.90677021979738
 50
354.0549911771663
 51
356.5353075734065
  0
ARC
  5
7CB
  8
0
 10
68.032079614056912
 20
8.9678484675179444
 30
0.0
 40
11.323544389587131
 50
341.81336112709499
 51
355.07384744316943
  0
ARC
  5
7CC
  8
0
 10
76.62567861602443
 20
6.3138753825318261
 30
0.0
 40
2.3364381023155021
 50
324.29508248756821
 51
337.8673903230478
  0
ATTDEF
  5
A7A
  8
DEFPOINTS
 10
77.346046060023355
 20
10.361718847749479
 30
0.0
 40
0.001
  1
442007
  3

  2
MODELNUMBER
 70
     0
1001
AcDbAttr
1070
     0
1070
     1
  0
ATTDEF
  5
A7B
  8
DEFPOINTS
 10
77.346046060023355
 20
10.360052181082811
 30
0.0
 40
0.001
  1
STINSON
  3

  2
TRADENAME
 70
     0
1001
AcDbAttr
1070
     0
1070
     1
  0
ATTDEF
  5
A7C
  8
DEFPOINTS
 10
77.346046060023355
 20
10.358385514416151
 30
0.0
 40
0.001
  1
BATHROOM SINK
  3

  2
PRODUCT
 70
     0
1001
AcDbAttr
1070
     0
1070
     1
  0
ATTDEF
  5
A7D
  8
DEFPOINTS
 10
77.346046060023355
 20
10.356718847749489
 30
0.0
 40
0.001
  1
VITREOUS CHINA
  3

  2
MATERIAL
 70
     0
1001
AcDbAttr
1070
     0
1070
     1
  0
ENDSEC
  0
EOF
