  0
SECTION
  2
HEADER
  9
$ACADVER
  1
AC1009
  9
$INSBASE
 10
111.0187339132634
 20
10.9134756209
 30
0.0
  9
$EXTMIN
 10
103.83125164321341
 20
3.8226495686000002
 30
0.0
  9
$EXTMAX
 10
118.2062161833134
 20
10.928037991898361
 30
0.0
  9
$LIMMIN
 10
0.0
 20
0.0
  9
$LIMMAX
 10
11.692913385800001
 20
8.2677165353999982
  9
$ORTHOMODE
 70
     1
  9
$REGENMODE
 70
     1
  9
$FILLMODE
 70
     1
  9
$QTEXTMODE
 70
     0
  9
$MIRRTEXT
 70
     0
  9
$DRAGMODE
 70
     2
  9
$LTSCALE
 40
0.6431102362
  9
$OSMODE
 70
  3071
  9
$ATTMODE
 70
     1
  9
$TEXTSIZE
 40
0.2
  9
$TRACEWID
 40
0.05
  9
$TEXTSTYLE
  7
STANDARD
  9
$CLAYER
  8
0
  9
$CELTYPE
  6
BYLAYER
  9
$CECOLOR
 62
   256
  9
$DIMSCALE
 40
1.0
  9
$DIMASZ
 40
0.1875
  9
$DIMEXO
 40
0.0625
  9
$DIMDLI
 40
0.4443307087
  9
$DIMRND
 40
0.0
  9
$DIMDLE
 40
0.0
  9
$DIMEXE
 40
0.125
  9
$DIMTP
 40
0.01
  9
$DIMTM
 40
0.01
  9
$DIMTXT
 40
1.0
  9
$DIMCEN
 40
0.1052362205
  9
$DIMTSZ
 40
0.0
  9
$DIMTOL
 70
     1
  9
$DIMLIM
 70
     0
  9
$DIMTIH
 70
     1
  9
$DIMTOH
 70
     1
  9
$DIMSE1
 70
     0
  9
$DIMSE2
 70
     0
  9
$DIMTAD
 70
     0
  9
$DIMZIN
 70
     0
  9
$DIMBLK
  1

  9
$DIMASO
 70
     1
  9
$DIMSHO
 70
     1
  9
$DIMPOST
  1
\X
  9
$DIMAPOST
  1

  9
$DIMALT
 70
     1
  9
$DIMALTD
 70
     2
  9
$DIMALTF
 40
25.399999999999999
  9
$DIMLFAC
 40
1.0
  9
$DIMTOFL
 70
     0
  9
$DIMTVP
 40
0.0
  9
$DIMTIX
 70
     0
  9
$DIMSOXD
 70
     0
  9
$DIMSAH
 70
     0
  9
$DIMBLK1
  1

  9
$DIMBLK2
  1

  9
$DIMSTYLE
  2
STANDARD
  9
$DIMCLRD
 70
     0
  9
$DIMCLRE
 70
     0
  9
$DIMCLRT
 70
     0
  9
$DIMTFAC
 40
1.0
  9
$DIMGAP
 40
0.09
  9
$LUNITS
 70
     2
  9
$LUPREC
 70
     4
  9
$SKETCHINC
 40
0.1
  9
$FILLETRAD
 40
0.0
  9
$AUNITS
 70
     0
  9
$AUPREC
 70
     0
  9
$MENU
  1
.
  9
$ELEVATION
 40
0.0
  9
$PELEVATION
 40
0.0
  9
$THICKNESS
 40
0.0
  9
$LIMCHECK
 70
     0
  9
$BLIPMODE
 70
     0
  9
$CHAMFERA
 40
0.0
  9
$CHAMFERB
 40
0.0
  9
$SKPOLY
 70
     0
  9
$TDCREATE
 40
2458214.4629654982
  9
$TDUPDATE
 40
2458214.719894005
  9
$TDINDWG
 40
0.0923860417
  9
$TDUSRTIMER
 40
0.0923860417
  9
$USRTIMER
 70
     1
  9
$ANGBASE
 50
0.0
  9
$ANGDIR
 70
     0
  9
$PDMODE
 70
     0
  9
$PDSIZE
 40
0.3125
  9
$PLINEWID
 40
0.0
  9
$COORDS
 70
     1
  9
$SPLFRAME
 70
     0
  9
$SPLINETYPE
 70
     6
  9
$SPLINESEGS
 70
     8
  9
$ATTDIA
 70
     1
  9
$ATTREQ
 70
     1
  9
$HANDLING
 70
     1
  9
$HANDSEED
  5
BFE
  9
$SURFTAB1
 70
     6
  9
$SURFTAB2
 70
     6
  9
$SURFTYPE
 70
     6
  9
$SURFU
 70
     6
  9
$SURFV
 70
     6
  9
$UCSNAME
  2

  9
$UCSORG
 10
0.0
 20
0.0
 30
0.0
  9
$UCSXDIR
 10
1.0
 20
0.0
 30
0.0
  9
$UCSYDIR
 10
0.0
 20
1.0
 30
0.0
  9
$PUCSNAME
  2

  9
$PUCSORG
 10
0.0
 20
0.0
 30
0.0
  9
$PUCSXDIR
 10
1.0
 20
0.0
 30
0.0
  9
$PUCSYDIR
 10
0.0
 20
1.0
 30
0.0
  9
$USERI1
 70
     0
  9
$USERI2
 70
     0
  9
$USERI3
 70
     0
  9
$USERI4
 70
     0
  9
$USERI5
 70
     0
  9
$USERR1
 40
0.0
  9
$USERR2
 40
0.0
  9
$USERR3
 40
0.0
  9
$USERR4
 40
0.0
  9
$USERR5
 40
0.0
  9
$WORLDVIEW
 70
     1
  9
$SHADEDGE
 70
     3
  9
$SHADEDIF
 70
    70
  9
$TILEMODE
 70
     1
  9
$MAXACTVP
 70
    64
  9
$PLIMCHECK
 70
     0
  9
$PEXTMIN
 10
1.0000000000000000E+020
 20
1.0000000000000000E+020
 30
1.0000000000000000E+020
  9
$PEXTMAX
 10
-1.0000000000000000E+020
 20
-1.0000000000000000E+020
 30
-1.0000000000000000E+020
  9
$PLIMMIN
 10
0.0
 20
0.0
  9
$PLIMMAX
 10
12.0
 20
9.0
  9
$UNITMODE
 70
     0
  9
$VISRETAIN
 70
     1
  9
$PLINEGEN
 70
     0
  9
$PSLTSCALE
 70
     1
  0
ENDSEC
  0
SECTION
  2
TABLES
  0
TABLE
  2
VPORT
 70
     1
  0
VPORT
  2
*ACTIVE
 70
     0
 10
0.0
 20
0.0
 11
1.0
 21
1.0
 12
0.0
 22
0.0
 13
0.0
 23
0.0
 14
1.0
 24
1.0
 15
0.0
 25
0.0
 16
-0.0000000000000142
 26
0.0
 36
45.090616581272918
 17
111.0187339132634
 27
7.3753437802491781
 37
0.0
 40
16.03669883720136
 41
2.0983240223463682
 42
50.0
 43
0.0
 44
0.0
 50
0.0
 51
0.0
 71
     0
 72
   100
 73
     1
 74
     1
 75
     0
 76
     0
 77
     0
 78
     0
  0
ENDTAB
  0
TABLE
  2
LTYPE
 70
     2
  0
LTYPE
  2
CONTINUOUS
 70
     0
  3
Solid line
 72
    65
 73
     0
 40
0.0
  0
LTYPE
  2
PHANTOM2
 70
     0
  3
___ _ _ ___ _ _ ___ _ _ ___ _ _
 72
    65
 73
     6
 40
1.25
 49
0.625
 49
-0.125
 49
0.125
 49
-0.125
 49
0.125
 49
-0.125
  0
ENDTAB
  0
TABLE
  2
LAYER
 70
     2
  0
LAYER
  2
0
 70
     0
 62
   255
  6
CONTINUOUS
  0
LAYER
  2
DEFPOINTS
 70
     0
 62
     7
  6
CONTINUOUS
  0
ENDTAB
  0
TABLE
  2
STYLE
 70
     1
  0
STYLE
  2
STANDARD
 70
     0
 40
0.0
 41
0.8
 50
0.0
 71
     0
 42
0.2
  3
txt
  4

  0
ENDTAB
  0
TABLE
  2
VIEW
 70
     0
  0
ENDTAB
  0
TABLE
  2
UCS
 70
     0
  0
ENDTAB
  0
TABLE
  2
APPID
 70
     9
  0
APPID
  2
ACAD
 70
     0
  0
APPID
  2
ACAD_MLEADERVER
 70
     0
  0
APPID
  2
ACAD_EXEMPT_FROM_CAD_STANDARDS
 70
     0
  0
APPID
  2
ACAD_DSTYLE_DIMJAG
 70
     0
  0
APPID
  2
ACAD_DSTYLE_DIMTALN
 70
     0
  0
APPID
  2
ACAD_NAV_VCDISPLAY
 70
     0
  0
APPID
  2
ACAECLAYERSTANDARD
 70
     0
  0
APPID
  2
ACCMTRANSPARENCY
 70
     0
  0
APPID
  2
AcDbAttr
 70
     0
  0
ENDTAB
  0
TABLE
  2
DIMSTYLE
 70
     1
  0
DIMSTYLE
  2
STANDARD
 70
     0
  3

  4

  5

  6

  7

 40
1.0
 41
0.1875
 42
0.0625
 43
0.38
 44
0.125
 45
0.0
 46
0.0
 47
0.01
 48
0.01
140
0.15625
141
0.09
142
0.0
143
25.399999999999999
144
1.0
145
0.0
146
1.0
147
0.09
 71
     1
 72
     0
 73
     1
 74
     1
 75
     0
 76
     0
 77
     0
 78
     4
170
     0
171
     2
172
     0
173
     0
174
     0
175
     0
176
     0
177
     0
178
     0
  0
ENDTAB
  0
ENDSEC
  0
SECTION
  2
BLOCKS
  0
BLOCK
  8
0
  2
$MODEL_SPACE
 70
     0
 10
0.0
 20
0.0
 30
0.0
  3
$MODEL_SPACE
  1

  0
ENDBLK
  5
21
  8
0
  0
BLOCK
 67
     1
  8
0
  2
$PAPER_SPACE
 70
     0
 10
0.0
 20
0.0
 30
0.0
  3
$PAPER_SPACE
  1

  0
ENDBLK
  5
1D
 67
     1
  8
0
  0
ENDSEC
  0
SECTION
  2
ENTITIES
  0
LINE
  5
784
  8
0
 10
104.60674719881339
 20
10.113475620599999
 30
0.0
 11
104.60674719881339
 21
9.4872284840999992
 31
0.0
  0
ARC
  5
795
  8
0
 10
115.4120443867873
 20
5.2210781452591277
 30
0.0
 40
0.2500627207537673
 50
101.71926094671549
 51
174.98931527354529
  0
LINE
  5
7CD
  8
0
 10
103.83125164321341
 20
10.363475620899999
 30
0.0
 11
103.83125164321341
 21
10.6634756209
 31
0.0
  0
LINE
  5
7CE
  8
0
 10
103.83125164321341
 20
10.363475620899999
 30
0.0
 11
118.2062161833134
 21
10.363475620899999
 31
0.0
  0
LINE
  5
7CF
  8
0
 10
117.9562161833134
 20
10.9134756209
 30
0.0
 11
104.08125164321341
 21
10.9134756209
 31
0.0
  0
LINE
  5
7D0
  8
0
 10
118.2062161833134
 20
10.6634756209
 30
0.0
 11
118.2062161833134
 21
10.363475620899999
 31
0.0
  0
ARC
  5
7D1
  8
0
 10
104.08125164321341
 20
10.6634756209
 30
0.0
 40
0.25
 50
90.0
 51
180.0
  0
ARC
  5
7D2
  8
0
 10
117.9562161833134
 20
10.6634756209
 30
0.0
 40
0.25
 50
0.0
 51
90.0
  0
ARC
  5
7D3
  8
0
 10
104.3569187190667
 20
10.113655265124869
 30
0.0
 40
0.2498285443353402
 50
359.95880024837641
 51
89.536103000494464
  0
ARC
  5
7D4
  8
0
 10
107.8584801341572
 20
9.4878613950089061
 30
0.0
 40
3.2517329969380988
 50
180.01115193779779
 51
212.86817819523969
  0
ARC
  5
7D5
  8
0
 10
111.5388522796044
 20
12.91411279908178
 30
0.0
 40
8.2495253510072448
 50
218.99462498968501
 51
264.14460516857878
  0
ARC
  5
7D6
  8
0
 10
58.001420506178
 20
-330.32333038629548
 30
0.0
 40
339.14981103910321
 50
80.815419089697357
 51
81.061381005224689
  0
ARC
  5
7D7
  8
0
 10
112.06847704714529
 20
4.2371797771615318
 30
0.0
 40
0.2501543854097385
 50
5.0264375848082716
 51
74.57856679895653
  0
LINE
  5
7D8
  8
0
 10
112.3422988916134
 20
3.97758115305
 30
0.0
 11
112.3176694329436
 21
4.259097153826259
 31
0.0
  0
LINE
  5
7D9
  8
0
 10
112.4472522029134
 20
3.865209464349999
 30
0.0
 11
112.44725164331339
 21
3.8226495686500002
 31
0.0
  0
LINE
  5
7DA
  8
0
 10
112.44725164331339
 20
3.8226495686500002
 30
0.0
 11
114.9472516431134
 21
3.8226495686000002
 31
0.0
  0
LINE
  5
7DB
  8
0
 10
114.94725220301341
 20
3.8651983476499989
 30
0.0
 11
114.9472516431134
 21
3.8226495686000002
 31
0.0
  0
LINE
  5
7DC
  8
0
 10
115.0522647726134
 20
3.97758115305
 30
0.0
 11
115.1629372988134
 21
5.242919002199999
 31
0.0
  0
ARC
  5
7DD
  8
0
 10
112.4663944285857
 20
3.9882861674239209
 30
0.0
 40
0.1245564114898777
 50
184.93037449906609
 51
261.15956687702447
  0
ARC
  5
7DE
  8
0
 10
114.92816511028779
 20
3.98828792492538
 30
0.0
 40
0.1245606725357079
 50
278.81446408585748
 51
355.06898315636852
  0
ARC
  5
7DF
  8
0
 10
114.9472535062167
 20
7.4634753908243647
 30
0.0
 40
2.0399975373993078
 50
281.70899031028682
 51
331.42493027163351
  0
ARC
  5
7E0
  8
0
 10
110.1880527093673
 20
9.3175429577583024
 30
0.0
 40
7.1358009783328367
 50
336.63630248715521
 51
6.307399923287794
  0
ARC
  5
7E1
  8
0
 10
117.5303695700221
 20
10.113478068809449
 30
0.0
 40
0.2499975520918125
 50
89.999817639194873
 51
182.7459740423551
  0
ARC
  5
7E2
  8
0
 10
104.52714207134611
 20
10.11351656906654
 30
0.0
 40
0.2499590524494776
 50
29.868229595318311
 51
90.004022555064907
  0
ARC
  5
7E3
  8
0
 10
110.9155094562156
 20
13.92781980547017
 30
0.0
 40
7.1905181357613968
 50
210.87394806341331
 51
223.98660645176071
  0
ARC
  5
7E4
  8
0
 10
113.7959635322121
 20
16.031455213189869
 30
0.0
 40
10.73501186686506
 50
221.38711575810291
 51
255.6500075832121
  0
ARC
  5
7E5
  8
0
 10
112.8221460353092
 20
12.70055337619651
 30
0.0
 40
7.267635648992953
 50
256.57944716039691
 51
269.21388496906923
  0
ARC
  5
7E6
  8
0
 10
113.3790311907555
 20
59.555375079753063
 30
0.0
 40
54.125756019464127
 50
269.30493145998599
 51
272.09878490426541
  0
ARC
  5
7E7
  8
0
 10
112.6019940812036
 20
5.1968621850016392
 30
0.0
 40
0.2656156229082118
 50
349.7705226577005
 51
63.035339580838517
  0
ARC
  5
7E8
  8
0
 10
112.02742254323221
 20
5.0494415574021048
 30
0.0
 40
0.8419545909672415
 50
290.16530639850009
 51
6.8383047786980686
  0
ATTDEF
  5
B32
  8
DEFPOINTS
 10
111.0148783742664
 20
10.927037991898359
 30
0.0
 40
0.001
  1
442007-U
  3

  2
MODELNUMBER
 70
     0
1001
AcDbAttr
1070
     0
1070
     1
  0
ATTDEF
  5
B33
  8
DEFPOINTS
 10
111.0148783742664
 20
10.925371325231691
 30
0.0
 40
0.001
  1
STINSON
  3

  2
TRADENAME
 70
     0
1001
AcDbAttr
1070
     0
1070
     1
  0
ATTDEF
  5
B34
  8
DEFPOINTS
 10
111.0148783742664
 20
10.92370465856502
 30
0.0
 40
0.001
  1
BATHROOM SINK
  3

  2
PRODUCT
 70
     0
1001
AcDbAttr
1070
     0
1070
     1
  0
ATTDEF
  5
B35
  8
DEFPOINTS
 10
111.0148783742664
 20
10.92203799189836
 30
0.0
 40
0.001
  1
VITREOUS CHINA
  3

  2
MATERIAL
 70
     0
1001
AcDbAttr
1070
     0
1070
     1
  0
ENDSEC
  0
EOF
