  0
SECTION
  2
HEADER
  9
$ACADVER
  1
AC1009
  9
$INSBASE
 10
77.352028095413402
 20
28.200413526430271
 30
0.0
  9
$EXTMIN
 10
67.247028095413413
 20
21.01293054227332
 30
0.0
  9
$EXTMAX
 10
87.457028095413406
 20
35.387896510875692
 30
0.0
  9
$LIMMIN
 10
0.0
 20
0.0
  9
$LIMMAX
 10
11.692913385800001
 20
8.2677165353999982
  9
$ORTHOMODE
 70
     1
  9
$REGENMODE
 70
     1
  9
$FILLMODE
 70
     1
  9
$QTEXTMODE
 70
     0
  9
$MIRRTEXT
 70
     0
  9
$DRAGMODE
 70
     2
  9
$LTSCALE
 40
0.6431102362
  9
$OSMODE
 70
  3071
  9
$ATTMODE
 70
     1
  9
$TEXTSIZE
 40
0.2
  9
$TRACEWID
 40
0.05
  9
$TEXTSTYLE
  7
STANDARD
  9
$CLAYER
  8
0
  9
$CELTYPE
  6
BYLAYER
  9
$CECOLOR
 62
   256
  9
$DIMSCALE
 40
1.0
  9
$DIMASZ
 40
0.1875
  9
$DIMEXO
 40
0.0625
  9
$DIMDLI
 40
0.4443307087
  9
$DIMRND
 40
0.0
  9
$DIMDLE
 40
0.0
  9
$DIMEXE
 40
0.125
  9
$DIMTP
 40
0.01
  9
$DIMTM
 40
0.01
  9
$DIMTXT
 40
1.0
  9
$DIMCEN
 40
0.1052362205
  9
$DIMTSZ
 40
0.0
  9
$DIMTOL
 70
     1
  9
$DIMLIM
 70
     0
  9
$DIMTIH
 70
     1
  9
$DIMTOH
 70
     1
  9
$DIMSE1
 70
     0
  9
$DIMSE2
 70
     0
  9
$DIMTAD
 70
     0
  9
$DIMZIN
 70
     0
  9
$DIMBLK
  1

  9
$DIMASO
 70
     1
  9
$DIMSHO
 70
     1
  9
$DIMPOST
  1
\X
  9
$DIMAPOST
  1

  9
$DIMALT
 70
     1
  9
$DIMALTD
 70
     2
  9
$DIMALTF
 40
25.399999999999999
  9
$DIMLFAC
 40
1.0
  9
$DIMTOFL
 70
     0
  9
$DIMTVP
 40
0.0
  9
$DIMTIX
 70
     0
  9
$DIMSOXD
 70
     0
  9
$DIMSAH
 70
     0
  9
$DIMBLK1
  1

  9
$DIMBLK2
  1

  9
$DIMSTYLE
  2
STANDARD
  9
$DIMCLRD
 70
     0
  9
$DIMCLRE
 70
     0
  9
$DIMCLRT
 70
     0
  9
$DIMTFAC
 40
1.0
  9
$DIMGAP
 40
0.09
  9
$LUNITS
 70
     2
  9
$LUPREC
 70
     4
  9
$SKETCHINC
 40
0.1
  9
$FILLETRAD
 40
0.0
  9
$AUNITS
 70
     0
  9
$AUPREC
 70
     0
  9
$MENU
  1
.
  9
$ELEVATION
 40
0.0
  9
$PELEVATION
 40
0.0
  9
$THICKNESS
 40
0.0
  9
$LIMCHECK
 70
     0
  9
$BLIPMODE
 70
     0
  9
$CHAMFERA
 40
0.0
  9
$CHAMFERB
 40
0.0
  9
$SKPOLY
 70
     0
  9
$TDCREATE
 40
2458214.4629654982
  9
$TDUPDATE
 40
2458214.7201031712
  9
$TDINDWG
 40
0.0925793287
  9
$TDUSRTIMER
 40
0.0925793287
  9
$USRTIMER
 70
     1
  9
$ANGBASE
 50
0.0
  9
$ANGDIR
 70
     0
  9
$PDMODE
 70
     0
  9
$PDSIZE
 40
0.3125
  9
$PLINEWID
 40
0.0
  9
$COORDS
 70
     1
  9
$SPLFRAME
 70
     0
  9
$SPLINETYPE
 70
     6
  9
$SPLINESEGS
 70
     8
  9
$ATTDIA
 70
     1
  9
$ATTREQ
 70
     1
  9
$HANDLING
 70
     1
  9
$HANDSEED
  5
BFE
  9
$SURFTAB1
 70
     6
  9
$SURFTAB2
 70
     6
  9
$SURFTYPE
 70
     6
  9
$SURFU
 70
     6
  9
$SURFV
 70
     6
  9
$UCSNAME
  2

  9
$UCSORG
 10
0.0
 20
0.0
 30
0.0
  9
$UCSXDIR
 10
1.0
 20
0.0
 30
0.0
  9
$UCSYDIR
 10
0.0
 20
1.0
 30
0.0
  9
$PUCSNAME
  2

  9
$PUCSORG
 10
0.0
 20
0.0
 30
0.0
  9
$PUCSXDIR
 10
1.0
 20
0.0
 30
0.0
  9
$PUCSYDIR
 10
0.0
 20
1.0
 30
0.0
  9
$USERI1
 70
     0
  9
$USERI2
 70
     0
  9
$USERI3
 70
     0
  9
$USERI4
 70
     0
  9
$USERI5
 70
     0
  9
$USERR1
 40
0.0
  9
$USERR2
 40
0.0
  9
$USERR3
 40
0.0
  9
$USERR4
 40
0.0
  9
$USERR5
 40
0.0
  9
$WORLDVIEW
 70
     1
  9
$SHADEDGE
 70
     3
  9
$SHADEDIF
 70
    70
  9
$TILEMODE
 70
     1
  9
$MAXACTVP
 70
    64
  9
$PLIMCHECK
 70
     0
  9
$PEXTMIN
 10
1.0000000000000000E+020
 20
1.0000000000000000E+020
 30
1.0000000000000000E+020
  9
$PEXTMAX
 10
-1.0000000000000000E+020
 20
-1.0000000000000000E+020
 30
-1.0000000000000000E+020
  9
$PLIMMIN
 10
0.0
 20
0.0
  9
$PLIMMAX
 10
12.0
 20
9.0
  9
$UNITMODE
 70
     0
  9
$VISRETAIN
 70
     1
  9
$PLINEGEN
 70
     0
  9
$PSLTSCALE
 70
     1
  0
ENDSEC
  0
SECTION
  2
TABLES
  0
TABLE
  2
VPORT
 70
     1
  0
VPORT
  2
*ACTIVE
 70
     0
 10
0.0
 20
0.0
 11
1.0
 21
1.0
 12
0.0
 22
0.0
 13
0.0
 23
0.0
 14
1.0
 24
1.0
 15
0.0
 25
0.0
 16
-0.0000000000000142
 26
0.0
 36
69.739716221128049
 17
77.352028095413402
 27
28.200413526574511
 37
0.0
 40
24.804407677781739
 41
2.0983240223463682
 42
50.0
 43
0.0
 44
0.0
 50
0.0
 51
0.0
 71
     0
 72
   100
 73
     1
 74
     1
 75
     0
 76
     0
 77
     0
 78
     0
  0
ENDTAB
  0
TABLE
  2
LTYPE
 70
     2
  0
LTYPE
  2
CONTINUOUS
 70
     0
  3
Solid line
 72
    65
 73
     0
 40
0.0
  0
LTYPE
  2
PHANTOM2
 70
     0
  3
___ _ _ ___ _ _ ___ _ _ ___ _ _
 72
    65
 73
     6
 40
1.25
 49
0.625
 49
-0.125
 49
0.125
 49
-0.125
 49
0.125
 49
-0.125
  0
ENDTAB
  0
TABLE
  2
LAYER
 70
     2
  0
LAYER
  2
0
 70
     0
 62
   255
  6
CONTINUOUS
  0
LAYER
  2
DEFPOINTS
 70
     0
 62
     7
  6
CONTINUOUS
  0
ENDTAB
  0
TABLE
  2
STYLE
 70
     1
  0
STYLE
  2
STANDARD
 70
     0
 40
0.0
 41
0.8
 50
0.0
 71
     0
 42
0.2
  3
txt
  4

  0
ENDTAB
  0
TABLE
  2
VIEW
 70
     0
  0
ENDTAB
  0
TABLE
  2
UCS
 70
     0
  0
ENDTAB
  0
TABLE
  2
APPID
 70
     9
  0
APPID
  2
ACAD
 70
     0
  0
APPID
  2
ACAD_MLEADERVER
 70
     0
  0
APPID
  2
ACAD_EXEMPT_FROM_CAD_STANDARDS
 70
     0
  0
APPID
  2
ACAD_DSTYLE_DIMJAG
 70
     0
  0
APPID
  2
ACAD_DSTYLE_DIMTALN
 70
     0
  0
APPID
  2
ACAD_NAV_VCDISPLAY
 70
     0
  0
APPID
  2
ACAECLAYERSTANDARD
 70
     0
  0
APPID
  2
ACCMTRANSPARENCY
 70
     0
  0
APPID
  2
AcDbAttr
 70
     0
  0
ENDTAB
  0
TABLE
  2
DIMSTYLE
 70
     1
  0
DIMSTYLE
  2
STANDARD
 70
     0
  3

  4

  5

  6

  7

 40
1.0
 41
0.1875
 42
0.0625
 43
0.38
 44
0.125
 45
0.0
 46
0.0
 47
0.01
 48
0.01
140
0.15625
141
0.09
142
0.0
143
25.399999999999999
144
1.0
145
0.0
146
1.0
147
0.09
 71
     1
 72
     0
 73
     1
 74
     1
 75
     0
 76
     0
 77
     0
 78
     4
170
     0
171
     2
172
     0
173
     0
174
     0
175
     0
176
     0
177
     0
178
     0
  0
ENDTAB
  0
ENDSEC
  0
SECTION
  2
BLOCKS
  0
BLOCK
  8
0
  2
$MODEL_SPACE
 70
     0
 10
0.0
 20
0.0
 30
0.0
  3
$MODEL_SPACE
  1

  0
ENDBLK
  5
21
  8
0
  0
BLOCK
 67
     1
  8
0
  2
$PAPER_SPACE
 70
     0
 10
0.0
 20
0.0
 30
0.0
  3
$PAPER_SPACE
  1

  0
ENDBLK
  5
1D
 67
     1
  8
0
  0
ENDSEC
  0
SECTION
  2
ENTITIES
  0
LINE
  5
782
  8
0
 10
67.247028095413413
 20
22.110682305400001
 30
0.0
 11
67.247028095413413
 21
34.285348268299998
 31
0.0
  0
LINE
  5
783
  8
0
 10
87.457028095413406
 20
34.285348268299998
 30
0.0
 11
87.457028095413406
 21
22.110682305400001
 31
0.0
  0
ARC
  5
78B
  8
0
 10
77.351816007432575
 20
98.977576300831544
 30
0.0
 40
77.964645758846672
 50
262.87755373231658
 51
270.00015586222042
  0
ARC
  5
78C
  8
0
 10
77.352240183194368
 20
98.977576304043509
 30
0.0
 40
77.964645762058652
 50
269.99984413785302
 51
277.12244626753647
  0
ARC
  5
78D
  8
0
 10
77.37891063331341
 20
-42.396787213499991
 30
0.0
 40
77.784688369700007
 50
90.01980152300024
 51
97.159306703299634
  0
ARC
  5
78E
  8
0
 10
77.325145557208813
 20
-42.396787215676248
 30
0.0
 40
77.784688371884812
 50
82.840693267749927
 51
89.980198458800345
  0
CIRCLE
  5
78F
  8
0
 10
77.352022495213419
 20
30.878931970699998
 30
0.0
 40
1.0625
  0
CIRCLE
  5
790
  8
0
 10
77.352026803613413
 20
30.878931970699998
 30
0.0
 40
0.7705397301000002
  0
ARC
  5
791
  8
0
 10
67.788937403648447
 20
34.248373562556289
 30
0.0
 40
0.5431692436216684
 50
101.06230058862781
 51
176.0967338374567
  0
ARC
  5
792
  8
0
 10
67.747028095413413
 20
22.110682305400001
 30
0.0
 40
0.5
 50
180.0
 51
262.86936544750029
  0
ARC
  5
793
  8
0
 10
86.957028095413406
 20
22.110682305400001
 30
0.0
 40
0.5
 50
277.13063455249971
 51
0.0
  0
ARC
  5
794
  8
0
 10
86.950817818535214
 20
34.279869181398617
 30
0.0
 40
0.5062399281075674
 50
0.6201302323978677
 51
82.220830843005857
  0
ARC
  5
796
  8
0
 10
76.994564765734083
 20
-36.581920478193773
 30
0.0
 40
70.565264385727914
 50
89.709754808707061
 51
92.594670257481511
  0
ARC
  5
797
  8
0
 10
74.155035785283275
 20
21.35969973058917
 30
0.0
 40
12.556318024960261
 50
91.619957527449102
 51
103.9598014239034
  0
ARC
  5
798
  8
0
 10
71.922362671187045
 20
29.975256899440051
 30
0.0
 40
3.657673086629023
 50
102.57640486890151
 51
142.08705265292269
  0
ARC
  5
799
  8
0
 10
72.689338286475675
 20
29.862518919388499
 30
0.0
 40
4.348887384434132
 50
147.13074884089821
 51
176.64215029638359
  0
ARC
  5
79A
  8
0
 10
88.808997259233195
 20
28.231839559529959
 30
0.0
 40
20.547762461833049
 50
174.7353022365271
 51
181.37526669824939
  0
ARC
  5
79B
  8
0
 10
80.897219736457075
 20
27.47575849418125
 30
0.0
 40
12.63280236630373
 50
178.8074378649404
 51
190.2996031498017
  0
ARC
  5
79C
  8
0
 10
71.587446303605745
 20
25.704497267219811
 30
0.0
 40
3.1573186403874121
 50
188.88081946649601
 51
233.33537038382241
  0
ARC
  5
79D
  8
0
 10
73.150083378207626
 20
28.97292714255244
 30
0.0
 40
6.7483864931137107
 50
239.2740665135378
 51
268.90847078875481
  0
ARC
  5
79E
  8
0
 10
76.615044406103124
 20
87.493460029299541
 30
0.0
 40
65.366546017602516
 50
266.84858506504833
 51
270.64600249035351
  0
ARC
  5
79F
  8
0
 10
77.709491457975005
 20
-36.581920478193773
 30
0.0
 40
70.565264385727914
 50
87.405329742518504
 51
90.290245191292954
  0
ARC
  5
7A0
  8
0
 10
80.549020438425842
 20
21.35969973058917
 30
0.0
 40
12.556318024960261
 50
76.0401985760966
 51
88.380042472550898
  0
ARC
  5
7A1
  8
0
 10
82.781693552522086
 20
29.975256899440051
 30
0.0
 40
3.657673086629023
 50
37.912947347077242
 51
77.42359513109848
  0
ARC
  5
7A2
  8
0
 10
82.014717937233442
 20
29.862518919388499
 30
0.0
 40
4.348887384434132
 50
3.3578497036163868
 51
32.869251159101772
  0
ARC
  5
7A3
  8
0
 10
65.895058964475922
 20
28.231839559529959
 30
0.0
 40
20.547762461833049
 50
358.62473330175061
 51
5.2646977634728822
  0
ARC
  5
7A4
  8
0
 10
73.806836487252014
 20
27.47575849418125
 30
0.0
 40
12.63280236630373
 50
349.70039685019827
 51
1.1925621350596241
  0
ARC
  5
7A5
  8
0
 10
83.116609920103357
 20
25.704497267219811
 30
0.0
 40
3.1573186403874121
 50
306.66462961617759
 51
351.11918053350399
  0
ARC
  5
7A6
  8
0
 10
81.553972845501491
 20
28.97292714255244
 30
0.0
 40
6.7483864931137107
 50
271.09152921124428
 51
300.72593348646222
  0
ARC
  5
7A7
  8
0
 10
78.089011830580489
 20
87.493459691875188
 30
0.0
 40
65.366545679975161
 50
269.35399752376111
 51
273.1514149398559
  0
ARC
  5
7A8
  8
0
 10
76.287883916418537
 20
22.854808050244401
 30
0.0
 40
0.4422444390664788
 50
47.606275480647419
 51
125.4010606724528
  0
ARC
  5
7A9
  8
0
 10
76.469209072758517
 20
23.06802744818291
 30
0.0
 40
0.1628201740454924
 50
314.71148050386728
 51
44.140385166626103
  0
ARC
  5
7AA
  8
0
 10
76.293138413062181
 20
23.294830353060171
 30
0.0
 40
0.4491939066289966
 50
229.33902671217629
 51
310.31449619605638
  0
ARC
  5
7AB
  8
0
 10
76.121664045582264
 20
23.072056116463528
 30
0.0
 40
0.1691460737875593
 50
122.134673509579
 51
224.22447486958669
  0
ARC
  5
7AC
  8
0
 10
76.291127085373688
 20
22.629619063159119
 30
0.0
 40
0.4356237400291299
 50
47.797410057176322
 51
131.85611285098241
  0
ARC
  5
7AD
  8
0
 10
77.346773789069772
 20
22.856125689184228
 30
0.0
 40
0.4422444390664788
 50
47.606275480647419
 51
125.4010606724528
  0
ARC
  5
7AE
  8
0
 10
77.528098945409752
 20
23.069345087122741
 30
0.0
 40
0.1628201740454924
 50
314.71148050386728
 51
44.140385166626103
  0
ARC
  5
7AF
  8
0
 10
77.352028285713416
 20
23.296147992000002
 30
0.0
 40
0.4491939066289966
 50
229.33902671217629
 51
310.31449619605638
  0
ARC
  5
7B0
  8
0
 10
77.180553918233485
 20
23.07337375540336
 30
0.0
 40
0.1691460737875593
 50
122.134673509579
 51
224.22447486958669
  0
ARC
  5
7B1
  8
0
 10
77.350016958024909
 20
22.63093670209895
 30
0.0
 40
0.4356237400291299
 50
47.797410057176322
 51
131.85611285098241
  0
ARC
  5
7B2
  8
0
 10
78.406774135169769
 20
22.857010773984229
 30
0.0
 40
0.4422444390664788
 50
47.606275480647419
 51
125.4010606724528
  0
ARC
  5
7B3
  8
0
 10
78.588099291509749
 20
23.070230171922741
 30
0.0
 40
0.1628201740454924
 50
314.71148050386728
 51
44.140385166626089
  0
ARC
  5
7B4
  8
0
 10
78.412028631813413
 20
23.297033076799998
 30
0.0
 40
0.4491939066289966
 50
229.33902671217629
 51
310.31449619605638
  0
ARC
  5
7B5
  8
0
 10
78.240554264333483
 20
23.07425884020336
 30
0.0
 40
0.1691460737875593
 50
122.134673509579
 51
224.22447486958669
  0
ARC
  5
7B6
  8
0
 10
78.410017304124906
 20
22.63182178689895
 30
0.0
 40
0.4356237400291299
 50
47.797410057176322
 51
131.85611285098241
  0
ATTDEF
  5
B32
  8
DEFPOINTS
 10
77.348187186782241
 20
28.205677648949941
 30
0.0
 40
0.001
  1
442007-U
  3

  2
MODELNUMBER
 70
     0
1001
AcDbAttr
1070
     0
1070
     1
  0
ATTDEF
  5
B33
  8
DEFPOINTS
 10
77.348187186782241
 20
28.204010982283268
 30
0.0
 40
0.001
  1
STINSON
  3

  2
TRADENAME
 70
     0
1001
AcDbAttr
1070
     0
1070
     1
  0
ATTDEF
  5
B34
  8
DEFPOINTS
 10
77.348187186782241
 20
28.2023443156166
 30
0.0
 40
0.001
  1
BATHROOM SINK
  3

  2
PRODUCT
 70
     0
1001
AcDbAttr
1070
     0
1070
     1
  0
ATTDEF
  5
B35
  8
DEFPOINTS
 10
77.348187186782241
 20
28.200677648949942
 30
0.0
 40
0.001
  1
VITREOUS CHINA
  3

  2
MATERIAL
 70
     0
1001
AcDbAttr
1070
     0
1070
     1
  0
ENDSEC
  0
EOF
