  0
SECTION
  2
HEADER
  9
$ACADVER
  1
AC1009
  9
$INSBASE
 10
5.5640447100353656
 20
58.194707484913899
 30
0.0
  9
$EXTMIN
 10
-1.8792856274320111
 20
28.467827604917549
 30
-0.0015258207003583
  9
$EXTMAX
 10
13.0138420482402
 20
58.207483819338329
 30
0.0000000349246037
  9
$LIMMIN
 10
0.0
 20
0.0
  9
$LIMMAX
 10
22.0
 20
17.0
  9
$ORTHOMODE
 70
     0
  9
$REGENMODE
 70
     1
  9
$FILLMODE
 70
     1
  9
$QTEXTMODE
 70
     0
  9
$MIRRTEXT
 70
     0
  9
$DRAGMODE
 70
     2
  9
$LTSCALE
 40
1.2099999999999991
  9
$OSMODE
 70
    39
  9
$ATTMODE
 70
     1
  9
$TEXTSIZE
 40
0.2
  9
$TRACEWID
 40
0.05
  9
$TEXTSTYLE
  7
STANDARD
  9
$CLAYER
  8
0
  9
$CELTYPE
  6
BYLAYER
  9
$CECOLOR
 62
   256
  9
$DIMSCALE
 40
1.0
  9
$DIMASZ
 40
0.1875
  9
$DIMEXO
 40
0.0625
  9
$DIMDLI
 40
0.8359999999999999
  9
$DIMRND
 40
0.0
  9
$DIMDLE
 40
0.0
  9
$DIMEXE
 40
0.125
  9
$DIMTP
 40
0.0
  9
$DIMTM
 40
0.0
  9
$DIMTXT
 40
0.15625
  9
$DIMCEN
 40
0.198
  9
$DIMTSZ
 40
0.0
  9
$DIMTOL
 70
     0
  9
$DIMLIM
 70
     0
  9
$DIMTIH
 70
     1
  9
$DIMTOH
 70
     1
  9
$DIMSE1
 70
     0
  9
$DIMSE2
 70
     0
  9
$DIMTAD
 70
     0
  9
$DIMZIN
 70
     0
  9
$DIMBLK
  1

  9
$DIMASO
 70
     1
  9
$DIMSHO
 70
     1
  9
$DIMPOST
  1

  9
$DIMAPOST
  1

  9
$DIMALT
 70
     0
  9
$DIMALTD
 70
     2
  9
$DIMALTF
 40
25.399999999999999
  9
$DIMLFAC
 40
1.0
  9
$DIMTOFL
 70
     0
  9
$DIMTVP
 40
0.0
  9
$DIMTIX
 70
     0
  9
$DIMSOXD
 70
     0
  9
$DIMSAH
 70
     0
  9
$DIMBLK1
  1

  9
$DIMBLK2
  1

  9
$DIMSTYLE
  2
STANDARD
  9
$DIMCLRD
 70
     0
  9
$DIMCLRE
 70
     0
  9
$DIMCLRT
 70
     0
  9
$DIMTFAC
 40
1.0
  9
$DIMGAP
 40
0.09
  9
$LUNITS
 70
     2
  9
$LUPREC
 70
     4
  9
$SKETCHINC
 40
0.1
  9
$FILLETRAD
 40
0.0
  9
$AUNITS
 70
     0
  9
$AUPREC
 70
     0
  9
$MENU
  1
.
  9
$ELEVATION
 40
0.0
  9
$PELEVATION
 40
0.0
  9
$THICKNESS
 40
0.0
  9
$LIMCHECK
 70
     0
  9
$BLIPMODE
 70
     0
  9
$CHAMFERA
 40
0.0
  9
$CHAMFERB
 40
0.0
  9
$SKPOLY
 70
     0
  9
$TDCREATE
 40
2457543.4574551159
  9
$TDUPDATE
 40
2457543.763378113
  9
$TDINDWG
 40
0.263986956
  9
$TDUSRTIMER
 40
0.263986956
  9
$USRTIMER
 70
     1
  9
$ANGBASE
 50
0.0
  9
$ANGDIR
 70
     0
  9
$PDMODE
 70
     0
  9
$PDSIZE
 40
0.3125
  9
$PLINEWID
 40
0.0
  9
$COORDS
 70
     1
  9
$SPLFRAME
 70
     0
  9
$SPLINETYPE
 70
     6
  9
$SPLINESEGS
 70
     8
  9
$ATTDIA
 70
     1
  9
$ATTREQ
 70
     1
  9
$HANDLING
 70
     1
  9
$HANDSEED
  5
1EC3
  9
$SURFTAB1
 70
     6
  9
$SURFTAB2
 70
     6
  9
$SURFTYPE
 70
     6
  9
$SURFU
 70
     6
  9
$SURFV
 70
     6
  9
$UCSNAME
  2

  9
$UCSORG
 10
0.0
 20
0.0
 30
0.0
  9
$UCSXDIR
 10
1.0
 20
0.0
 30
0.0
  9
$UCSYDIR
 10
0.0
 20
1.0
 30
0.0
  9
$PUCSNAME
  2

  9
$PUCSORG
 10
0.0
 20
0.0
 30
0.0
  9
$PUCSXDIR
 10
1.0
 20
0.0
 30
0.0
  9
$PUCSYDIR
 10
0.0
 20
1.0
 30
0.0
  9
$USERI1
 70
     0
  9
$USERI2
 70
     0
  9
$USERI3
 70
     0
  9
$USERI4
 70
     0
  9
$USERI5
 70
     0
  9
$USERR1
 40
0.0
  9
$USERR2
 40
0.0
  9
$USERR3
 40
0.0
  9
$USERR4
 40
0.0
  9
$USERR5
 40
0.0
  9
$WORLDVIEW
 70
     1
  9
$SHADEDGE
 70
     3
  9
$SHADEDIF
 70
    70
  9
$TILEMODE
 70
     1
  9
$MAXACTVP
 70
    48
  9
$PLIMCHECK
 70
     0
  9
$PEXTMIN
 10
1.0000000000000000E+020
 20
1.0000000000000000E+020
 30
1.0000000000000000E+020
  9
$PEXTMAX
 10
-1.0000000000000000E+020
 20
-1.0000000000000000E+020
 30
-1.0000000000000000E+020
  9
$PLIMMIN
 10
0.0
 20
0.0
  9
$PLIMMAX
 10
12.0
 20
9.0
  9
$UNITMODE
 70
     0
  9
$VISRETAIN
 70
     1
  9
$PLINEGEN
 70
     0
  9
$PSLTSCALE
 70
     1
  0
ENDSEC
  0
SECTION
  2
TABLES
  0
TABLE
  2
VPORT
 70
     1
  0
VPORT
  2
*ACTIVE
 70
     0
 10
0.0
 20
0.0
 11
1.0
 21
1.0
 12
-0.0000753361958985
 22
0.0003626690731551
 13
0.0
 23
0.0
 14
1.0
 24
1.0
 15
0.0
 25
0.0
 16
-0.0000000000000204
 26
0.0
 36
91.225941647341585
 17
5.567353546599997
 27
43.337293043054778
 37
0.0
 40
29.933006999888882
 41
1.798301486199575
 42
50.0
 43
0.0
 44
0.0
 50
0.0
 51
0.0
 71
     0
 72
   100
 73
     1
 74
     1
 75
     0
 76
     0
 77
     0
 78
     0
  0
ENDTAB
  0
TABLE
  2
LTYPE
 70
     1
  0
LTYPE
  2
CONTINUOUS
 70
     0
  3
Solid line
 72
    65
 73
     0
 40
0.0
  0
ENDTAB
  0
TABLE
  2
LAYER
 70
     2
  0
LAYER
  2
0
 70
     0
 62
     7
  6
CONTINUOUS
  0
LAYER
  2
DEFPOINTS
 70
     0
 62
     7
  6
CONTINUOUS
  0
ENDTAB
  0
TABLE
  2
STYLE
 70
     1
  0
STYLE
  2
STANDARD
 70
     0
 40
0.0
 41
0.8
 50
0.0
 71
     0
 42
0.2
  3
txt
  4

  0
ENDTAB
  0
TABLE
  2
VIEW
 70
     4
  0
ENDTAB
  0
TABLE
  2
UCS
 70
     0
  0
ENDTAB
  0
TABLE
  2
APPID
 70
     5
  0
APPID
  2
ACAD
 70
     0
  0
APPID
  2
ACAD_MLEADERVER
 70
     0
  0
APPID
  2
ACAD_NAV_VCDISPLAY
 70
     0
  0
APPID
  2
ACAD_EXEMPT_FROM_CAD_STANDARDS
 70
     0
  0
APPID
  2
ACDBATTR
 70
     0
  0
ENDTAB
  0
TABLE
  2
DIMSTYLE
 70
     1
  0
DIMSTYLE
  2
STANDARD
 70
     0
  3

  4

  5

  6

  7

 40
1.0
 41
0.1875
 42
0.0625
 43
0.38
 44
0.125
 45
0.0
 46
0.0
 47
1.5
 48
1.5
140
0.15625
141
0.09
142
0.0
143
25.399999999999999
144
1.0
145
0.0
146
1.0
147
0.09
 71
     0
 72
     0
 73
     1
 74
     1
 75
     0
 76
     0
 77
     0
 78
     4
170
     0
171
     2
172
     0
173
     0
174
     0
175
     0
176
     0
177
     0
178
     0
  0
ENDTAB
  0
ENDSEC
  0
SECTION
  2
BLOCKS
  0
BLOCK
  8
0
  2
$MODEL_SPACE
 70
     0
 10
0.0
 20
0.0
 30
0.0
  3
$MODEL_SPACE
  1

  0
ENDBLK
  5
21
  8
0
  0
BLOCK
 67
     1
  8
0
  2
$PAPER_SPACE
 70
     0
 10
0.0
 20
0.0
 30
0.0
  3
$PAPER_SPACE
  1

  0
ENDBLK
  5
1D
 67
     1
  8
0
  0
ENDSEC
  0
SECTION
  2
ENTITIES
  0
LINE
  5
119A
  8
0
 10
-1.1756390403000001
 20
49.703377687200003
 30
0.0
 11
-1.1381053234
 21
50.054662884700001
 31
0.0
  0
LINE
  5
11DA
  8
0
 10
1.1088241266000001
 20
49.199878322099998
 30
0.0
 11
1.1388371935494801
 21
49.302686162343143
 31
0.0
  0
LINE
  5
1243
  8
0
 10
2.1528885813435772
 20
46.509180978961588
 30
0.0
 11
2.167174122
 21
48.146141799600002
 31
0.0
  0
LINE
  5
1267
  8
0
 10
3.4818231733493259
 20
46.508646815346289
 30
0.0
 11
3.4675329710999998
 21
48.146141799600002
 31
0.0
  0
LINE
  5
1311
  8
0
 10
3.9836675169999989
 20
46.509153799300002
 30
0.0
 11
3.970251506299999
 21
46.522569809899991
 31
0.0
  0
LINE
  5
136E
  8
0
 10
3.4802581429486419
 20
46.687981536199999
 30
0.0
 11
2.15444895016708
 21
46.687981536199999
 31
0.0
  0
LINE
  5
1376
  8
0
 10
3.8682299945
 20
46.749973781899989
 30
0.0
 11
3.6001035046999998
 21
46.749973654099989
 31
0.0
  0
LINE
  5
137A
  8
0
 10
2.073443098899999
 20
46.7851913971
 30
0.0
 11
1.146076282399999
 21
46.7851913971
 31
0.0
  0
LINE
  5
155E
  8
0
 10
-0.4821700095000001
 20
57.21657884039999
 30
0.0
 11
11.631930000200001
 21
57.172757739099993
 31
0.0
  0
ARC
  5
15A0
  8
0
 10
5.6685534608736461
 20
83.448857866521806
 30
0.0
 40
34.445315726613217
 50
261.50594918669759
 51
269.82880881253902
  0
ARC
  5
15A2
  8
0
 10
31.5857792676
 20
53.245282683399992
 30
0.0
 40
33.4617837005
 50
174.78267484770001
 51
180.41587519079999
  0
ARC
  5
15A5
  8
0
 10
3.6001035466000002
 20
46.659971432900001
 30
0.0
 40
0.0899990987
 50
90.000026626600004
 51
179.0003778807
  0
ARC
  5
16D4
  8
0
 10
-0.4724066054825253
 20
55.785632154620821
 30
0.0
 40
1.4309799934312131
 50
90.390925230767877
 51
123.0739708943387
  0
ARC
  5
16D5
  8
0
 10
-0.5722779461156894
 20
55.875412313501442
 30
0.0
 40
1.3017077106563639
 50
121.546707808394
 51
135.3430116754152
  0
ARC
  5
16D6
  8
0
 10
-0.8728999337872224
 20
56.184515378763969
 30
0.0
 40
0.8706528771974063
 50
135.9075208941079
 51
173.1680039199469
  0
ARC
  5
16D7
  8
0
 10
3.813546597585034
 20
52.989557988651079
 30
0.0
 40
5.688684088930386
 50
179.87059522885829
 51
194.21836564588381
  0
ARC
  5
16D8
  8
0
 10
0.9227154642983964
 20
51.928125848309463
 30
0.0
 40
2.569616356033928
 50
226.7041690247122
 51
262.35234493594669
  0
ARC
  5
16D9
  8
0
 10
1.4082015771644909
 20
52.328765586748261
 30
0.0
 40
3.1951076144597601
 50
193.32612703457491
 51
225.29449186968199
  0
ARC
  5
16DA
  8
0
 10
-1.137201055792892
 20
50.053746853124487
 30
0.0
 40
0.0012871727749614
 50
94.728742423116998
 51
134.6297222110897
  0
ARC
  5
16DB
  8
0
 10
-0.9977622710069612
 20
48.784818381825012
 30
0.0
 40
1.277853446355655
 50
93.794981699018507
 51
96.269350039274855
  0
ARC
  5
16DC
  8
0
 10
-1.054326297567993
 20
49.160177214222522
 30
0.0
 40
0.9001286171031065
 50
89.799811181993348
 51
91.783372496100867
  0
ARC
  5
16DD
  8
0
 10
-1.514933687885994
 20
-0.1633180621558316
 30
0.0
 40
50.22575944067458
 50
89.229393060896427
 51
89.470960067951381
  0
ARC
  5
16E1
  8
0
 10
-1.0881149774385319
 20
49.697537820866458
 30
0.0
 40
0.087718673146439
 50
176.18271291343061
 51
233.73257515708269
  0
ARC
  5
16E2
  8
0
 10
-1.0696752351873551
 20
49.713406067212631
 30
0.0
 40
0.111555498329526
 50
230.91667788110229
 51
257.16461550911509
  0
ARC
  5
16E3
  8
0
 10
-4.0843145822296014
 20
33.832749073263003
 30
0.0
 40
16.052779478668111
 50
75.500820306186966
 51
79.265882927881862
  0
ARC
  5
16E8
  8
0
 10
1.018272188546018
 20
49.227924925335522
 30
0.0
 40
0.0947959146713752
 50
274.62039417931447
 51
342.79070645836492
  0
ARC
  5
16E9
  8
0
 10
1.0053026014146309
 20
49.388407144371122
 30
0.0
 40
0.2558013581102654
 50
262.00495976254308
 51
274.62039417931442
  0
ARC
  5
16EA
  8
0
 10
1.5210339709289391
 20
53.303461861217251
 30
0.0
 40
4.2046698936015554
 50
258.35458951571542
 51
262.46576769651767
  0
ARC
  5
16EB
  8
0
 10
2.2711632549206429
 20
57.433827817143431
 30
0.0
 40
8.402015199172018
 50
254.44920417977741
 51
259.03001183560428
  0
ARC
  5
16EC
  8
0
 10
0.1205829841742005
 20
49.711082911577947
 30
0.0
 40
0.3854237201192979
 50
242.08919011585431
 51
254.66381856569211
  0
ARC
  5
16ED
  8
0
 10
0.0023980181469969
 20
49.465444985875052
 30
0.0
 40
0.1135278643911946
 50
212.2190748279904
 51
236.75966362350979
  0
ARC
  5
16EE
  8
0
 10
-0.0163310155559852
 20
49.448569922359368
 30
0.0
 40
0.0887894827349106
 50
171.4049489078439
 51
209.44899414572211
  0
LINE
  5
16EF
  8
0
 10
-0.1041233296641977
 20
49.461839505165862
 30
0.0
 11
-0.0888589152782684
 21
49.565998524945797
 31
0.0
  0
ARC
  5
16FE
  8
0
 10
2.6495880401074841
 20
48.158482552676553
 30
0.0
 40
0.4825717382631432
 50
138.0893493643631
 51
181.4653783088701
  0
ARC
  5
16FF
  8
0
 10
2.6483889173203932
 20
48.099570208565801
 30
0.0
 40
0.5229401350232552
 50
101.70685600530349
 51
133.1921133177776
  0
ARC
  5
1700
  8
0
 10
2.8012682465927918
 20
47.467489243063831
 30
0.0
 40
1.1730888631180061
 50
89.214208736537529
 51
102.75443260726659
  0
LINE
  5
1702
  8
0
 10
3.5101181448414249
 20
46.661541540272196
 30
0.0
 11
3.507587875878305
 21
46.508636459255982
 31
0.0
  0
LINE
  5
1703
  8
0
 10
1.173617249944195
 20
46.509574595861842
 30
0.0
 11
5.5673535465999988
 21
46.507808538992663
 31
0.0
  0
ARC
  5
1704
  8
0
 10
1.2562754138047341
 20
45.33254713074259
 30
0.0
 40
1.179926279772529
 50
94.017069734855838
 51
106.3512712321596
  0
ARC
  5
1705
  8
0
 10
1.042948059267119
 20
46.083242176970941
 30
0.0
 40
0.3995921292515575
 50
107.30349900145281
 51
146.11176985604061
  0
ARC
  5
1706
  8
0
 10
2.9851576001392202
 20
48.158502530738453
 30
0.0
 40
0.4825337150747368
 50
358.53213323438899
 51
41.911515485376029
  0
ARC
  5
1707
  8
0
 10
2.9863235612796091
 20
48.099570208565801
 30
0.0
 40
0.5229401350232552
 50
46.807886682222332
 51
78.293143994696464
  0
ARC
  5
1708
  8
0
 10
2.83344423200721
 20
47.467489243063831
 30
0.0
 40
1.1730888631180061
 50
77.245567392733392
 51
90.7857912634625
  0
ARC
  5
1709
  8
0
 10
-11.37517686319339
 20
50.82448650054711
 30
0.0
 40
12.748297257458409
 50
339.2998290583709
 51
353.06656056965062
  0
ARC
  5
170A
  8
0
 10
3.8682246332489072
 20
46.659969238491229
 30
0.0
 40
0.0900045435684354
 50
1.0010947709724349
 51
89.996587093845406
  0
LINE
  5
170B
  8
0
 10
3.9582154386592241
 20
46.661541753853612
 30
0.0
 11
3.9607488713037742
 21
46.508454311754448
 31
0.0
  0
ARC
  5
170F
  8
0
 10
2.07343164455538
 20
46.745145947727721
 30
0.0
 40
0.0400454510104428
 50
9.208689189045252
 51
89.983611481549744
  0
ARC
  5
1710
  8
0
 10
0.2238876669725238
 20
46.445297332096537
 30
0.0
 40
1.913737559471419
 50
7.549993571053327
 51
9.2086891890452183
  0
ARC
  5
1712
  8
0
 10
0.3738044408453124
 20
46.614628934600908
 30
0.0
 40
1.7491584224017009
 50
359.91211198769372
 51
2.69082087351955
  0
LINE
  5
1713
  8
0
 10
2.1229608053999991
 20
46.61194583999999
 30
0.0
 11
2.1228031891895141
 21
46.509193071747752
 31
0.0
  0
ARC
  5
1728
  8
0
 10
1.139039076826255
 20
46.30264328005866
 30
0.0
 40
0.4825994276026752
 50
89.164490369991114
 51
143.92160538477839
  0
ARC
  5
1729
  8
0
 10
10.741858056694991
 20
39.748269256863253
 30
0.0
 40
12.10881337496823
 50
145.61437680046549
 51
159.39260675572589
  0
ARC
  5
172A
  8
0
 10
11.85210859500696
 20
39.088387549278842
 30
0.0
 40
13.382200724112611
 50
158.42112350106021
 51
177.6254792754745
  0
ARC
  5
1760
  8
0
 10
6.016167285098823
 20
39.633737119720131
 30
0.0
 40
7.8947417773579511
 50
147.57956474489191
 51
179.87927498927269
  0
ARC
  5
1761
  8
0
 10
11.353591509439299
 20
39.376095727170863
 30
0.0
 40
12.8749563607395
 50
178.8129010876265
 51
210.22215732842551
  0
ARC
  5
1762
  8
0
 10
15.20253964931249
 20
41.618230146474261
 30
0.0
 40
17.329343921073491
 50
210.22215732842551
 51
218.03840053927391
  0
ARC
  5
1763
  8
0
 10
5.6439908751579893
 20
34.139951235343027
 30
0.0
 40
5.193013745086982
 50
218.03840053927391
 51
243.11823604699779
  0
ARC
  5
1764
  8
0
 10
5.6266731164791768
 20
34.190897962562516
 30
0.0
 40
5.2307665608186493
 50
243.53975705226759
 51
269.35022260845199
  0
ARC
  5
1765
  8
0
 10
12.92217065620463
 20
39.529901742690072
 30
0.0
 40
14.80121789581198
 50
179.53365343247259
 51
211.9653912000766
  0
ARC
  5
1766
  8
0
 10
6.9462340725355993
 20
35.788085089818289
 30
0.0
 40
7.75048815911458
 50
211.88602871039001
 51
238.92819104109321
  0
ARC
  5
1767
  8
0
 10
5.5502973041992156
 20
33.79011805305754
 30
0.0
 40
5.321269988592042
 50
240.6994232136183
 51
270.19441935379911
  0
ARC
  5
1768
  8
0
 10
42.920339902691332
 20
19.042383137554399
 30
0.0
 40
50.24853924467223
 50
147.14081528839071
 51
147.49372801995921
  0
ARC
  5
1769
  8
0
 10
11.53081220048969
 20
39.548176196100712
 30
0.0
 40
12.764147096481819
 50
149.40059014811021
 51
156.85956390062421
  0
ARC
  5
176A
  8
0
 10
12.18464536229628
 20
39.180101125395289
 30
0.0
 40
13.5102700287299
 50
156.5138687616182
 51
178.02350284704681
  0
ARC
  5
176B
  8
0
 10
11.85842727214656
 20
39.635580521247782
 30
0.0
 40
13.176018292781309
 50
179.95441206318529
 51
209.8437857022235
  0
ARC
  5
176C
  8
0
 10
10.37536983678374
 20
38.54553552162141
 30
0.0
 40
11.349085645319461
 50
208.79634213017971
 51
223.54670850626189
  0
ARC
  5
176D
  8
0
 10
5.4661103760725576
 20
33.879210203576669
 30
0.0
 40
4.5759460168747976
 50
223.54670850626201
 51
254.13623427352721
  0
ARC
  5
176E
  8
0
 10
5.5616461108056736
 20
34.21539778819276
 30
0.0
 40
4.9254444698914011
 50
254.13623427352709
 51
270.0663924685378
  0
LINE
  5
17DA
  8
0
 10
8.9818185118564227
 20
46.509180978961588
 30
0.0
 11
8.9675329711999971
 21
48.146141799600002
 31
0.0
  0
LINE
  5
17DB
  8
0
 10
7.6528839198506731
 20
46.508646815346289
 30
0.0
 11
7.6671741220999978
 21
48.146141799600002
 31
0.0
  0
LINE
  5
17DC
  8
0
 10
7.1510395761999987
 20
46.509153799300002
 30
0.0
 11
7.1644555868999991
 21
46.522569809899991
 31
0.0
  0
LINE
  5
17DD
  8
0
 10
7.6544489502513571
 20
46.687981536199999
 30
0.0
 11
8.9802581430329198
 21
46.687981536199999
 31
0.0
  0
LINE
  5
17DE
  8
0
 10
7.2664770986999994
 20
46.749973781899989
 30
0.0
 11
7.5346035884999987
 21
46.749973654099989
 31
0.0
  0
LINE
  5
17DF
  8
0
 10
9.0612639942999991
 20
46.7851913971
 30
0.0
 11
9.9886308108000001
 21
46.7851913971
 31
0.0
  0
ARC
  5
17E0
  8
0
 10
5.4663665079586616
 20
83.446966537671187
 30
0.0
 40
34.443413700267861
 50
270.16513291250089
 51
278.4941652959144
  0
ARC
  5
17E1
  8
0
 10
-20.4510721744
 20
53.245282683399992
 30
0.0
 40
33.4617837005
 50
359.58412480919998
 51
5.2173251522999946
  0
ARC
  5
17E2
  8
0
 10
7.5346035465999988
 20
46.659971432900001
 30
0.0
 40
0.0899990987
 50
0.9996221193000129
 51
89.999973373400024
  0
ARC
  5
17E3
  8
0
 10
11.60391745556236
 20
55.711289445261009
 30
0.0
 40
1.461736732983645
 50
57.80597380337688
 51
88.901923443722637
  0
ARC
  5
17E4
  8
0
 10
11.61039828860878
 20
55.701079318089171
 30
0.0
 40
1.466964805638971
 50
46.229393872025412
 51
58.232649398075438
  0
ARC
  5
17E5
  8
0
 10
12.02147230908688
 20
56.144156158305812
 30
0.0
 40
0.8626965981826819
 50
9.6040357191653012
 51
45.587435145952931
  0
ARC
  5
17E6
  8
0
 10
7.3211604956149641
 20
52.989557988651079
 30
0.0
 40
5.688684088930386
 50
345.78163435411608
 51
0.1294047711416739
  0
ARC
  5
17E7
  8
0
 10
10.2119916289016
 20
51.928125848309463
 30
0.0
 40
2.569616356033928
 50
277.64765506405331
 51
313.29583097528791
  0
ARC
  5
17E8
  8
0
 10
9.7265055160355072
 20
52.328765586748261
 30
0.0
 40
3.1951076144597601
 50
314.70550813031792
 51
346.67387296542512
  0
ARC
  5
17F8
  8
0
 10
8.4851190530925145
 20
48.158482552676553
 30
0.0
 40
0.4825717382631432
 50
358.53462169112993
 51
41.910650635636877
  0
ARC
  5
17F9
  8
0
 10
8.4863181758796067
 20
48.099570208565801
 30
0.0
 40
0.5229401350232552
 50
46.807886682222382
 51
78.293143994696521
  0
ARC
  5
17FA
  8
0
 10
8.3334388466072067
 20
47.467489243063831
 30
0.0
 40
1.1730888631180061
 50
77.245567392733392
 51
90.785791263462443
  0
LINE
  5
17FB
  8
0
 10
7.624588948358574
 20
46.661541540272196
 30
0.0
 11
7.6271192173216944
 21
46.508636459255982
 31
0.0
  0
LINE
  5
17FC
  8
0
 10
9.9610898432558042
 20
46.509574595861842
 30
0.0
 11
5.5673535465999988
 21
46.507808538992663
 31
0.0
  0
ARC
  5
17FD
  8
0
 10
9.8784316793952645
 20
45.33254713074259
 30
0.0
 40
1.179926279772529
 50
73.64872876784041
 51
85.982930265144176
  0
ARC
  5
17FE
  8
0
 10
10.091759033932879
 20
46.083242176970941
 30
0.0
 40
0.3995921292515575
 50
33.888230143959341
 51
72.696500998547236
  0
ARC
  5
17FF
  8
0
 10
8.1495494930607784
 20
48.158502530738453
 30
0.0
 40
0.4825337150747368
 50
138.0884845146239
 51
181.46786676561101
  0
ARC
  5
1800
  8
0
 10
8.1483835319203912
 20
48.099570208565801
 30
0.0
 40
0.5229401350232552
 50
101.70685600530349
 51
133.1921133177776
  0
ARC
  5
1801
  8
0
 10
8.3012628611927894
 20
47.467489243063831
 30
0.0
 40
1.1730888631180061
 50
89.214208736537557
 51
102.75443260726659
  0
ARC
  5
1802
  8
0
 10
22.509883956393391
 20
50.82448650054711
 30
0.0
 40
12.748297257458409
 50
186.93343943034941
 51
200.70017094162921
  0
ARC
  5
1803
  8
0
 10
7.2664824599510922
 20
46.659969238491229
 30
0.0
 40
0.0900045435684354
 50
90.003412906154594
 51
178.99890522902751
  0
LINE
  5
1804
  8
0
 10
7.176491654540774
 20
46.661541753853612
 30
0.0
 11
7.1739582218962239
 21
46.508454311754448
 31
0.0
  0
ARC
  5
1805
  8
0
 10
9.0612754486446185
 20
46.745145947727721
 30
0.0
 40
0.0400454510104428
 50
90.016388518450199
 51
170.79131081095471
  0
ARC
  5
1806
  8
0
 10
10.910819426227469
 20
46.445297332096537
 30
0.0
 40
1.913737559471419
 50
170.79131081095471
 51
172.45000642894669
  0
ARC
  5
1807
  8
0
 10
10.76090265235468
 20
46.614628934600908
 30
0.0
 40
1.7491584224017009
 50
177.30917912648039
 51
180.08788801230631
  0
LINE
  5
1808
  8
0
 10
9.0117462877999994
 20
46.61194583999999
 30
0.0
 11
9.0119039040104845
 21
46.509193071747752
 31
0.0
  0
ARC
  5
1809
  8
0
 10
9.9956680163737435
 20
46.30264328005866
 30
0.0
 40
0.4825994276026752
 50
36.078394615221633
 51
90.835509630008858
  0
ARC
  5
180A
  8
0
 10
0.3928490365050052
 20
39.748269256863253
 30
0.0
 40
12.10881337496823
 50
20.607393244274022
 51
34.3856231995345
  0
ARC
  5
180B
  8
0
 10
-0.7174015018069629
 20
39.088387549278842
 30
0.0
 40
13.382200724112611
 50
2.3745207245255169
 51
21.57887649893982
  0
ARC
  5
180C
  8
0
 10
5.1185398081011746
 20
39.633737119720131
 30
0.0
 40
7.8947417773579511
 50
0.120725010727264
 51
32.42043525510811
  0
ARC
  5
180D
  8
0
 10
-0.2188844162393071
 20
39.376095727170863
 30
0.0
 40
12.8749563607395
 50
329.77784267157449
 51
1.187098912373469
  0
ARC
  5
180E
  8
0
 10
-4.0678325561124904
 20
41.618230146474261
 30
0.0
 40
17.329343921073491
 50
321.96159946072612
 51
329.77784267157449
  0
ARC
  5
180F
  8
0
 10
5.4907162180420102
 20
34.139951235343027
 30
0.0
 40
5.193013745086982
 50
296.88176395300218
 51
321.96159946072612
  0
ARC
  5
1810
  8
0
 10
5.5080339767208208
 20
34.190897962562516
 30
0.0
 40
5.2307665608186493
 50
270.64977739154801
 51
296.46024294773241
  0
ARC
  5
1811
  8
0
 10
-1.7874635630046261
 20
39.529901742690072
 30
0.0
 40
14.80121789581198
 50
328.03460879992338
 51
0.4663465675273199
  0
ARC
  5
1812
  8
0
 10
4.1884730206644001
 20
35.788085089818289
 30
0.0
 40
7.75048815911458
 50
301.07180895890679
 51
328.11397128960988
  0
ARC
  5
1813
  8
0
 10
5.5844465102604781
 20
33.790026829502843
 30
0.0
 40
5.3211724647349739
 50
269.82672035054441
 51
299.30071267996823
  0
ARC
  5
1814
  8
0
 10
-31.785632809491329
 20
19.042383137554399
 30
0.0
 40
50.24853924467223
 50
32.506271980040751
 51
32.859184711609302
  0
ARC
  5
1815
  8
0
 10
-0.3961051072896975
 20
39.548176196100712
 30
0.0
 40
12.764147096481819
 50
23.140436099375751
 51
30.599409851889749
  0
ARC
  5
1816
  8
0
 10
-1.0499382690962871
 20
39.180101125395289
 30
0.0
 40
13.5102700287299
 50
1.976497152953181
 51
23.48613123838178
  0
ARC
  5
1817
  8
0
 10
-0.7237201789465662
 20
39.635580521247782
 30
0.0
 40
13.176018292781309
 50
330.15621429777639
 51
0.0455879368146818
  0
ARC
  5
1818
  8
0
 10
0.7593372564162575
 20
38.54553552162141
 30
0.0
 40
11.349085645319461
 50
316.45329149373811
 51
331.2036578698204
  0
ARC
  5
1819
  8
0
 10
5.6685967171274401
 20
33.879210203576669
 30
0.0
 40
4.5759460168747976
 50
285.86376572647282
 51
316.45329149373799
  0
ARC
  5
181A
  8
0
 10
5.573060982394324
 20
34.21539778819276
 30
0.0
 40
4.9254444698914011
 50
269.93360753146209
 51
285.86376572647288
  0
ATTDEF
  5
1A3F
  8
DEFPOINTS
 10
5.5590447686897999
 20
58.20470738659305
 30
0.0
 40
0.001
  1
403081
  3

  2
MODELNUMBER
 70
     0
1001
ACDBATTR
1070
     0
1070
     1
  0
ATTDEF
  5
1A40
  8
DEFPOINTS
 10
5.5590447686897999
 20
58.203040719926371
 30
0.0
 40
0.001
  1
WINDHAM
  3

  2
TRADENAME
 70
     0
1001
ACDBATTR
1070
     0
1070
     1
  0
ATTDEF
  5
1A41
  8
DEFPOINTS
 10
5.5590447686897999
 20
58.201374053259713
 30
0.0
 40
0.001
  1
TOILET
  3

  2
PRODUCT
 70
     0
1001
ACDBATTR
1070
     0
1070
     1
  0
ATTDEF
  5
1A42
  8
DEFPOINTS
 10
5.5590447686897999
 20
58.19970738659304
 30
0.0
 40
0.001
  1
VITREOUS CHINA
  3

  2
MATERIAL
 70
     0
1001
ACDBATTR
1070
     0
1070
     1
  0
ENDSEC
  0
EOF
