  0
SECTION
  2
HEADER
  9
$ACADVER
  1
AC1009
  9
$INSBASE
 10
5.5640447100352981
 20
-5.9699592353999966
 30
0.0
  9
$EXTMIN
 10
-1.8805940887303121
 20
-5.9817338255074537
 30
-0.0000000349181948
  9
$EXTMAX
 10
13.01699343157213
 20
23.098280319574709
 30
0.0000000814935746
  9
$LIMMIN
 10
0.0
 20
0.0
  9
$LIMMAX
 10
22.0
 20
17.0
  9
$ORTHOMODE
 70
     0
  9
$REGENMODE
 70
     1
  9
$FILLMODE
 70
     1
  9
$QTEXTMODE
 70
     0
  9
$MIRRTEXT
 70
     0
  9
$DRAGMODE
 70
     2
  9
$LTSCALE
 40
1.2099999999999991
  9
$OSMODE
 70
    39
  9
$ATTMODE
 70
     1
  9
$TEXTSIZE
 40
0.2
  9
$TRACEWID
 40
0.05
  9
$TEXTSTYLE
  7
STANDARD
  9
$CLAYER
  8
0
  9
$CELTYPE
  6
BYLAYER
  9
$CECOLOR
 62
   256
  9
$DIMSCALE
 40
1.0
  9
$DIMASZ
 40
0.1875
  9
$DIMEXO
 40
0.0625
  9
$DIMDLI
 40
0.8359999999999999
  9
$DIMRND
 40
0.0
  9
$DIMDLE
 40
0.0
  9
$DIMEXE
 40
0.125
  9
$DIMTP
 40
0.0
  9
$DIMTM
 40
0.0
  9
$DIMTXT
 40
0.15625
  9
$DIMCEN
 40
0.198
  9
$DIMTSZ
 40
0.0
  9
$DIMTOL
 70
     0
  9
$DIMLIM
 70
     0
  9
$DIMTIH
 70
     1
  9
$DIMTOH
 70
     1
  9
$DIMSE1
 70
     0
  9
$DIMSE2
 70
     0
  9
$DIMTAD
 70
     0
  9
$DIMZIN
 70
     0
  9
$DIMBLK
  1

  9
$DIMASO
 70
     1
  9
$DIMSHO
 70
     1
  9
$DIMPOST
  1

  9
$DIMAPOST
  1

  9
$DIMALT
 70
     0
  9
$DIMALTD
 70
     2
  9
$DIMALTF
 40
25.399999999999999
  9
$DIMLFAC
 40
1.0
  9
$DIMTOFL
 70
     0
  9
$DIMTVP
 40
0.0
  9
$DIMTIX
 70
     0
  9
$DIMSOXD
 70
     0
  9
$DIMSAH
 70
     0
  9
$DIMBLK1
  1

  9
$DIMBLK2
  1

  9
$DIMSTYLE
  2
STANDARD
  9
$DIMCLRD
 70
     0
  9
$DIMCLRE
 70
     0
  9
$DIMCLRT
 70
     0
  9
$DIMTFAC
 40
1.0
  9
$DIMGAP
 40
0.09
  9
$LUNITS
 70
     2
  9
$LUPREC
 70
     4
  9
$SKETCHINC
 40
0.1
  9
$FILLETRAD
 40
0.0
  9
$AUNITS
 70
     0
  9
$AUPREC
 70
     0
  9
$MENU
  1
.
  9
$ELEVATION
 40
0.0
  9
$PELEVATION
 40
0.0
  9
$THICKNESS
 40
0.0
  9
$LIMCHECK
 70
     0
  9
$BLIPMODE
 70
     0
  9
$CHAMFERA
 40
0.0
  9
$CHAMFERB
 40
0.0
  9
$SKPOLY
 70
     0
  9
$TDCREATE
 40
2457543.4574551159
  9
$TDUPDATE
 40
2457543.7630327321
  9
$TDINDWG
 40
0.2636763426
  9
$TDUSRTIMER
 40
0.2636763426
  9
$USRTIMER
 70
     1
  9
$ANGBASE
 50
0.0
  9
$ANGDIR
 70
     0
  9
$PDMODE
 70
     0
  9
$PDSIZE
 40
0.3125
  9
$PLINEWID
 40
0.0
  9
$COORDS
 70
     1
  9
$SPLFRAME
 70
     0
  9
$SPLINETYPE
 70
     6
  9
$SPLINESEGS
 70
     8
  9
$ATTDIA
 70
     1
  9
$ATTREQ
 70
     1
  9
$HANDLING
 70
     1
  9
$HANDSEED
  5
1E3D
  9
$SURFTAB1
 70
     6
  9
$SURFTAB2
 70
     6
  9
$SURFTYPE
 70
     6
  9
$SURFU
 70
     6
  9
$SURFV
 70
     6
  9
$UCSNAME
  2

  9
$UCSORG
 10
0.0
 20
0.0
 30
0.0
  9
$UCSXDIR
 10
1.0
 20
0.0
 30
0.0
  9
$UCSYDIR
 10
0.0
 20
1.0
 30
0.0
  9
$PUCSNAME
  2

  9
$PUCSORG
 10
0.0
 20
0.0
 30
0.0
  9
$PUCSXDIR
 10
1.0
 20
0.0
 30
0.0
  9
$PUCSYDIR
 10
0.0
 20
1.0
 30
0.0
  9
$USERI1
 70
     0
  9
$USERI2
 70
     0
  9
$USERI3
 70
     0
  9
$USERI4
 70
     0
  9
$USERI5
 70
     0
  9
$USERR1
 40
0.0
  9
$USERR2
 40
0.0
  9
$USERR3
 40
0.0
  9
$USERR4
 40
0.0
  9
$USERR5
 40
0.0
  9
$WORLDVIEW
 70
     1
  9
$SHADEDGE
 70
     3
  9
$SHADEDIF
 70
    70
  9
$TILEMODE
 70
     1
  9
$MAXACTVP
 70
    48
  9
$PLIMCHECK
 70
     0
  9
$PEXTMIN
 10
1.0000000000000000E+020
 20
1.0000000000000000E+020
 30
1.0000000000000000E+020
  9
$PEXTMAX
 10
-1.0000000000000000E+020
 20
-1.0000000000000000E+020
 30
-1.0000000000000000E+020
  9
$PLIMMIN
 10
0.0
 20
0.0
  9
$PLIMMAX
 10
12.0
 20
9.0
  9
$UNITMODE
 70
     0
  9
$VISRETAIN
 70
     1
  9
$PLINEGEN
 70
     0
  9
$PSLTSCALE
 70
     1
  0
ENDSEC
  0
SECTION
  2
TABLES
  0
TABLE
  2
VPORT
 70
     1
  0
VPORT
  2
*ACTIVE
 70
     0
 10
0.0
 20
0.0
 11
1.0
 21
1.0
 12
-0.0001498881290871
 22
0.0271984372249783
 13
0.0
 23
0.0
 14
1.0
 24
1.0
 15
0.0
 25
0.0
 16
-0.0000000000000195
 26
0.0
 36
89.481119696461604
 17
5.5683495595499997
 27
8.5310748098086506
 37
0.0
 40
29.31394511892924
 41
1.798301486199575
 42
50.0
 43
0.0
 44
0.0
 50
0.0
 51
0.0
 71
     0
 72
   100
 73
     1
 74
     1
 75
     0
 76
     0
 77
     0
 78
     0
  0
ENDTAB
  0
TABLE
  2
LTYPE
 70
     2
  0
LTYPE
  2
CONTINUOUS
 70
     0
  3
Solid line
 72
    65
 73
     0
 40
0.0
  0
ENDTAB
  0
TABLE
  2
LAYER
 70
     2
  0
LAYER
  2
0
 70
     0
 62
     7
  6
CONTINUOUS
  0
LAYER
  2
DEFPOINTS
 70
     0
 62
     7
  6
CONTINUOUS
  0
ENDTAB
  0
TABLE
  2
STYLE
 70
     1
  0
STYLE
  2
STANDARD
 70
     0
 40
0.0
 41
0.8
 50
0.0
 71
     0
 42
0.2
  3
txt
  4

  0
ENDTAB
  0
TABLE
  2
VIEW
 70
     5
  0
ENDTAB
  0
TABLE
  2
UCS
 70
     0
  0
ENDTAB
  0
TABLE
  2
APPID
 70
     5
  0
APPID
  2
ACAD
 70
     0
  0
APPID
  2
ACAD_MLEADERVER
 70
     0
  0
APPID
  2
ACAD_NAV_VCDISPLAY
 70
     0
  0
APPID
  2
ACAD_EXEMPT_FROM_CAD_STANDARDS
 70
     0
  0
APPID
  2
ACDBATTR
 70
     0
  0
ENDTAB
  0
TABLE
  2
DIMSTYLE
 70
     2
  0
DIMSTYLE
  2
STANDARD
 70
     0
  3

  4

  5

  6

  7

 40
1.0
 41
0.1875
 42
0.0625
 43
0.38
 44
0.125
 45
0.0
 46
0.0
 47
1.5
 48
1.5
140
0.15625
141
0.09
142
0.0
143
25.399999999999999
144
1.0
145
0.0
146
1.0
147
0.09
 71
     0
 72
     0
 73
     1
 74
     1
 75
     0
 76
     0
 77
     0
 78
     4
170
     0
171
     2
172
     0
173
     0
174
     0
175
     0
176
     0
177
     0
178
     0
  0
ENDTAB
  0
ENDSEC
  0
SECTION
  2
BLOCKS
  0
BLOCK
  8
0
  2
$MODEL_SPACE
 70
     0
 10
0.0
 20
0.0
 30
0.0
  3
$MODEL_SPACE
  1

  0
ENDBLK
  5
21
  8
0
  0
BLOCK
 67
     1
  8
0
  2
$PAPER_SPACE
 70
     0
 10
0.0
 20
0.0
 30
0.0
  3
$PAPER_SPACE
  1

  0
ENDBLK
  5
1D
 67
     1
  8
0
  0
ENDSEC
  0
SECTION
  2
ENTITIES
  0
LINE
  5
27D
  8
0
 10
-1.1655567056
 20
20.147148405700001
 30
0.0
 11
-1.1276414250999991
 21
20.196447996500002
 31
0.0
  0
LINE
  5
2FB
  8
0
 10
-0.9822019340535556
 20
9.7671446483455036
 30
0.0
 11
-0.980964415930952
 21
9.7324084137718927
 31
0.0
  0
LINE
  5
2FE
  8
0
 10
-1.524307529099999
 20
9.2146407646000004
 30
0.0
 11
-1.524307529099999
 21
9.2000407646000006
 31
0.0
  0
LINE
  5
300
  8
0
 10
-1.3897687827
 20
9.9593242226999994
 30
0.0
 11
-1.3897687827
 21
9.9404952637000008
 31
0.0
  0
LINE
  5
309
  8
0
 10
-1.3204147123000001
 20
10.337009558
 30
0.0
 11
-1.3897687827
 21
9.9593242226999994
 31
0.0
  0
LINE
  5
30A
  8
0
 10
-1.457090624199999
 20
9.5768745427999988
 30
0.0
 11
-1.524307529099999
 21
9.2146407646000004
 31
0.0
  0
LINE
  5
375
  8
0
 10
1.6747508435
 20
9.7973398533000005
 30
0.0
 11
1.6770179821999991
 21
9.9270715333000012
 31
0.0
  0
LINE
  5
392
  8
0
 10
0.5683941591
 20
-5.9699592353999993
 30
0.0
 11
0.6403303913000001
 21
-5.4557480306999997
 31
0.0
  0
LINE
  5
394
  8
0
 10
1.8114348155
 20
1.4815347869
 30
0.0
 11
1.046170983199999
 21
-3.8468802169999989
 31
0.0
  0
LINE
  5
3B3
  8
0
 10
-1.1728330649000001
 20
20.098099059500001
 30
0.0
 11
-1.1527857583000001
 21
20.043342331400002
 31
0.0
  0
LINE
  5
43F
  8
0
 10
-0.9809644159309126
 20
9.7324084137719034
 30
0.0
 11
-1.268315195699999
 21
9.7322949965000003
 31
0.0
  0
LINE
  5
443
  8
0
 10
-1.4543041840999991
 20
9.1300407646000004
 30
0.0
 11
12.5890190115
 21
9.1300407646000004
 31
0.0
  0
LINE
  5
451
  8
0
 10
10.59758431321325
 20
9.7245457760974858
 30
0.0
 11
0.539114805886749
 21
9.7251430589474808
 31
0.0
  0
LINE
  5
567
  8
0
 10
-1.3297690835
 20
9.8806407646000007
 30
0.0
 11
-1.017860229399999
 21
9.8806407646000007
 31
0.0
  0
LINE
  5
730
  8
0
 10
-1.0798070054999991
 20
20.215531630099999
 30
0.0
 11
-0.3742671185
 21
20.102874244700001
 31
0.0
  0
LINE
  5
733
  8
0
 10
-1.1182902473
 20
20.165493267700001
 30
0.0
 11
-0.4814614543
 21
20.045303766
 31
0.0
  0
LINE
  5
799
  8
0
 10
-1.7660564802000001
 20
21.760040764599999
 30
0.0
 11
12.884422385600001
 21
21.760040764599999
 31
0.0
  0
LINE
  5
808
  8
0
 10
-1.0713082474999991
 20
23.041970312699998
 30
0.0
 11
-1.530768955099999
 21
23.034147625999999
 31
0.0
  0
ARC
  5
1770
  8
0
 10
5.5601389187523678
 20
-380.12124609042979
 30
0.0
 40
403.21775153387739
 50
89.032802111702125
 51
90.942347066168139
  0
ARC
  5
1771
  8
0
 10
5.5477964009320333
 20
4628.9248371795566
 30
0.0
 40
4605.8875078809433
 50
269.91774052588352
 51
270.08254183294002
  0
ARC
  5
1772
  8
0
 10
5.5644474032712781
 20
3841.0721352438381
 30
0.0
 40
3818.272084357448
 50
269.889491131635
 51
270.1104035756876
  0
ARC
  5
1773
  8
0
 10
-1.5232217868314091
 20
22.752016327794419
 30
0.0
 40
0.2822322256157875
 50
91.532328353580397
 51
170.8111723990742
  0
ARC
  5
1774
  8
0
 10
5.686811982659008
 20
21.73091497826589
 30
0.0
 40
7.5641597168897254
 50
171.89715977133571
 51
178.9201780438502
  0
ARC
  5
1775
  8
0
 10
-1.766057888813148
 20
21.870040585373971
 30
0.0
 40
0.1099998207829936
 50
178.2165080531463
 51
270.00073370654468
  0
LINE
  5
177D
  8
0
 10
12.36644890060003
 20
23.0390561424
 30
0.0
 11
12.652615909431169
 21
23.034288101971271
 31
0.0
  0
ARC
  5
177E
  8
0
 10
12.645069122453579
 20
22.752156793566201
 30
0.0
 40
0.2822322256157875
 50
9.1889050342508671
 51
88.467749079744678
  0
ARC
  5
177F
  8
0
 10
5.435036732953983
 20
21.73104569991969
 30
0.0
 40
7.5641597168897272
 50
1.0798993894749229
 51
8.1029176619893448
  0
ARC
  5
1780
  8
0
 10
12.887595962066859
 20
21.870301562846741
 30
0.0
 40
0.1103064604526813
 50
268.35134196812197
 51
1.7161544599062259
  0
LINE
  5
179F
  8
0
 10
-1.410301568952032
 20
21.760040764599999
 30
0.0
 11
-1.0106028835589449
 21
10.56351386924487
 31
0.0
  0
ARC
  5
17A0
  8
0
 10
-1.06622081169759
 20
10.28853947249007
 30
0.0
 40
0.258773816860995
 50
105.1302918130046
 51
169.2043485910753
  0
ARC
  5
17A1
  8
0
 10
-0.9463624101205731
 20
9.8452564334010155
 30
0.0
 40
0.7179751770208114
 50
95.124371826485799
 51
105.1302918130046
  0
ARC
  5
17A2
  8
0
 10
-0.1784559694549379
 20
2.1215692054363871
 30
0.0
 40
8.4797113720493051
 50
92.01670583918208
 51
95.630957606782005
  0
ARC
  5
17A3
  8
0
 10
5.5620369307519804
 20
-68.713977670992051
 30
0.0
 40
79.496866018188385
 50
87.286883436331735
 51
92.70400698423532
  0
ARC
  5
17A4
  8
0
 10
18.09135975186269
 20
-394.81212162249801
 30
0.0
 40
405.83315166825668
 50
92.298993929269315
 51
92.622389063209425
  0
CIRCLE
  5
17A5
  8
0
 10
0.4841214146219281
 20
20.28787832431993
 30
0.0
 40
0.0075049452056142
  0
CIRCLE
  5
17A6
  8
0
 10
0.4794438387311399
 20
20.288205830683619
 30
0.0
 40
0.2319289923276229
  0
CIRCLE
  5
17A7
  8
0
 10
0.4796998346289636
 20
20.288684492679849
 30
0.0
 40
0.1915010620522886
  0
CIRCLE
  5
17A8
  8
0
 10
0.4824058120473794
 20
20.290326282152211
 30
0.0
 40
0.1493867589122624
  0
CIRCLE
  5
17A9
  8
0
 10
0.4831883353904169
 20
20.288600464227439
 30
0.0
 40
0.1109061811684192
  0
CIRCLE
  5
17AA
  8
0
 10
0.483768680921576
 20
20.288360207493572
 30
0.0
 40
0.0712634786719781
  0
CIRCLE
  5
17AB
  8
0
 10
0.4846259417223508
 20
20.28741947283946
 30
0.0
 40
0.0320181277076424
  0
ARC
  5
17AC
  8
0
 10
-1.12472742983563
 20
20.116027086409598
 30
0.0
 40
0.0513377665448927
 50
142.68424500587031
 51
200.4394380750544
  0
ARC
  5
17AD
  8
0
 10
-1.087686732566189
 20
20.165790777073639
 30
0.0
 40
0.0503611214969175
 50
80.998258392120817
 51
142.50098784842041
  0
ARC
  5
17AE
  8
0
 10
-1.057508849576501
 20
20.079003968853741
 30
0.0
 40
0.1017322059221539
 50
200.52060605558449
 51
247.50603467002
  0
ARC
  5
17AF
  8
0
 10
0.5375481392697534
 20
23.930959645853999
 30
0.0
 40
4.2708771224778053
 50
247.5060346700198
 51
270.96702586908879
  0
ARC
  5
17B0
  8
0
 10
0.6079299900200876
 20
20.315839784497751
 30
0.0
 40
0.6551511748752059
 50
270.1484690763084
 51
127.86585728587519
  0
ARC
  5
17B1
  8
0
 10
0.5176924884797649
 20
20.29407816767452
 30
0.0
 40
0.6227146649671358
 50
269.12438383358023
 51
177.16976399215551
  0
ARC
  5
17B2
  8
0
 10
-0.4782726843602477
 20
20.379352983516501
 30
0.0
 40
0.3779639531139078
 50
321.4824047055896
 51
351.70525665411111
  0
ARC
  5
17B3
  8
0
 10
-0.3307378009437514
 20
20.420315590898529
 30
0.0
 40
0.3204119376103933
 50
262.19198115132878
 51
294.46609833943728
  0
ARC
  5
17B7
  8
0
 10
-0.4238092173413476
 20
20.37275473443399
 30
0.0
 40
0.3324874690224889
 50
260.01462936177722
 51
316.52104464542958
  0
ARC
  5
17BA
  8
0
 10
0.3775061739714581
 20
23.766923378306348
 30
0.0
 40
4.0975712014031851
 50
267.61204997139561
 51
271.82745229652897
  0
ARC
  5
17C5
  8
0
 10
-1.3297691834159879
 20
9.9406405397609614
 30
0.0
 40
0.059999775161044
 50
180.1387290747019
 51
270.00009541309788
  0
ARC
  5
17C6
  8
0
 10
5.1643550469976507
 20
-91.565374426771186
 30
0.0
 40
101.55234170988609
 50
89.772627735160341
 51
91.967940710777967
  0
ARC
  5
17C7
  8
0
 10
2.6044778563152771
 20
-51.45740714092706
 30
0.0
 40
61.391484783516447
 50
90.865617735013274
 51
91.753938995111895
  0
ARC
  5
17C8
  8
0
 10
4.2918082326940876
 20
-303.66616872078941
 30
0.0
 40
313.59176378960001
 50
90.651616019347159
 51
90.970166188117986
  0
ARC
  5
17C9
  8
0
 10
-1.201258431842781
 20
9.8298165527751422
 30
0.0
 40
0.0509407979908536
 50
4.9751662992441616
 51
86.122863129979109
  0
ARC
  5
17CA
  8
0
 10
-1.078013448280704
 20
9.8403712414267428
 30
0.0
 40
0.0727553962540782
 50
184.8386353804238
 51
270.05686071535303
  0
ARC
  5
17CB
  8
0
 10
-1.0188571819518131
 20
12.045787043841621
 30
0.0
 40
2.278937202678208
 50
268.51437467293232
 51
276.41641833886348
  0
ARC
  5
17CC
  8
0
 10
-0.7646206300282135
 20
9.8541263201380396
 30
0.0
 40
0.0730024163530504
 50
270.34777061218188
 51
356.7006268179012
  0
ARC
  5
17CD
  8
0
 10
-11.159496452514039
 20
10.05388653059596
 30
0.0
 40
10.46974411738152
 50
358.88374679838518
 51
359.08122127089251
  0
ARC
  5
17CE
  8
0
 10
-1.269967336252452
 20
9.5419471003781098
 30
0.0
 40
0.1903550659332056
 50
89.502708956805776
 51
169.4271387670909
  0
ARC
  5
17D2
  8
0
 10
-0.4180049637149067
 20
-31.50492330539144
 30
0.0
 40
41.241174215353688
 50
88.670167659422575
 51
90.782135888553668
  0
ARC
  5
17D3
  8
0
 10
-0.2796564963575827
 20
10.828163290806881
 30
0.0
 40
1.106175148484106
 50
278.8304149076576
 51
303.00294287455881
  0
ARC
  5
17D4
  8
0
 10
-1.4543190499070111
 20
9.2000292428625876
 30
0.0
 40
0.0699884798413618
 50
179.9905677772841
 51
270.01216983150931
  0
ARC
  5
1825
  8
0
 10
-1.373283043228148
 20
8.8773156110041338
 30
0.0
 40
0.2525779729587807
 50
98.104285818991187
 51
170.1049671897851
  0
ARC
  5
1826
  8
0
 10
15.44286405989004
 20
5.9439303564897328
 30
0.0
 40
17.32265566596044
 50
170.10496718978521
 51
179.50178399718999
  0
ARC
  5
1827
  8
0
 10
6.3739306694216946
 20
11.105367810505181
 30
0.0
 40
10.60025700782327
 50
235.35134556526211
 51
244.499733804779
  0
ARC
  5
1828
  8
0
 10
3.200971041282453
 20
6.2682501226416552
 30
0.0
 40
4.8190508694442959
 50
206.46287660914419
 51
233.6882605932168
  0
ARC
  5
182C
  8
0
 10
9.7454693876236682
 20
9.4728792320821125
 30
0.0
 40
12.105971253136881
 50
196.2181045650641
 51
206.2381278408655
  0
LINE
  5
182D
  8
0
 10
-1.878750561699998
 20
6.0917476830999986
 30
0.0
 11
-1.8791367108484669
 21
6.0945577775189532
 31
0.0
  0
ARC
  5
182E
  8
0
 10
1.6244706060038709
 20
1.5060728960636229
 30
0.0
 40
0.1885675858514344
 50
352.52295388521219
 51
9.6717945150446578
  0
ARC
  5
182F
  8
0
 10
-11.737150950329941
 20
-2.014244464945214
 30
0.0
 40
12.914018485970081
 50
346.18311150620428
 51
351.84158206238902
  0
LINE
  5
1831
  8
0
 10
0.8031865623150267
 20
-5.098366467221795
 30
0.0
 11
0.6403304008
 21
-5.4557480320000016
 31
0.0
  0
LINE
  5
1832
  8
0
 10
0.5683941591
 20
-5.9699592353999993
 30
0.0
 11
10.5683129341
 21
-5.9699592353999966
 31
0.0
  0
ARC
  5
185A
  8
0
 10
1.1011209920018139
 20
2.696109177012552
 30
0.0
 40
1.4011497586727071
 50
301.20751091737873
 51
313.0214924248811
  0
ARC
  5
185B
  8
0
 10
-20.329214766494861
 20
25.660054400924231
 30
0.0
 40
32.811372154713098
 50
313.0214924248811
 51
315.126415036548
  0
ARC
  5
185C
  8
0
 10
3.2193097141273901
 20
2.2152143031824458
 30
0.0
 40
0.4180354900696547
 50
94.838710144564445
 51
135.126415036548
  0
ARC
  5
185D
  8
0
 10
3.411822124031358
 20
1.2249705213157109
 30
0.0
 40
1.425109671812637
 50
87.965506853026213
 51
99.196983082285954
  0
ARC
  5
185E
  8
0
 10
3.3934140499074639
 20
0.287278972089064
 30
0.0
 40
2.362910573696638
 50
82.199406505631686
 51
88.326625767398667
  0
ARC
  5
185F
  8
0
 10
4.8868545830382226
 20
12.26470879371996
 30
0.0
 40
9.7074821472939785
 50
263.06131656200472
 51
268.95187081389412
  0
ARC
  5
1860
  8
0
 10
5.5710989877775994
 20
10.467512215873541
 30
0.0
 40
7.955479348902986
 50
263.78094833194871
 51
276.17921567756741
  0
ARC
  5
1862
  8
0
 10
-2206.3410773226578
 20
267.23252310897698
 30
0.0
 40
2225.0559129268422
 50
352.94716590243951
 51
353.16679501427882
  0
LINE
  5
18EA
  8
0
 10
12.118901053153561
 20
9.7665473654955033
 30
0.0
 11
12.11766353503095
 21
9.7318111309218924
 31
0.0
  0
LINE
  5
18EB
  8
0
 10
12.661006648200001
 20
9.2140434817500001
 30
0.0
 11
12.661006648200001
 21
9.1994434817500004
 31
0.0
  0
LINE
  5
18EC
  8
0
 10
12.5264679018
 20
9.9587269398499991
 30
0.0
 11
12.5264679018
 21
9.9398979808500005
 31
0.0
  0
LINE
  5
18ED
  8
0
 10
12.457113831399999
 20
10.33641227515
 30
0.0
 11
12.5264679018
 21
9.9587269398499991
 31
0.0
  0
LINE
  5
18EE
  8
0
 10
12.5937897433
 20
9.5762772599499986
 30
0.0
 11
12.661006648200001
 21
9.2140434817500001
 31
0.0
  0
LINE
  5
18EF
  8
0
 10
10.5683129341
 20
-5.9699592353999966
 30
0.0
 11
10.4963687278
 21
-5.45634531355
 31
0.0
  0
LINE
  5
18F0
  8
0
 10
9.3252643035999991
 20
1.480937504049999
 30
0.0
 11
10.0905281359
 21
-3.8474774998500001
 31
0.0
  0
LINE
  5
18F2
  8
0
 10
12.117663535030911
 20
9.7318111309219031
 30
0.0
 11
12.405014314800001
 21
9.73169771365
 31
0.0
  0
LINE
  5
18F4
  8
0
 10
12.4664682026
 20
9.8800434817500005
 30
0.0
 11
12.154559348499999
 21
9.8800434817500005
 31
0.0
  0
LINE
  5
18F7
  8
0
 10
12.532175146506001
 20
21.760040764599999
 30
0.0
 11
12.1324393494679
 21
10.561206006433011
 31
0.0
  0
ARC
  5
18F8
  8
0
 10
12.20291993079759
 20
10.28794218964007
 30
0.0
 40
0.258773816860995
 50
10.79565140892468
 51
74.869708186995524
  0
ARC
  5
18F9
  8
0
 10
12.08306152922057
 20
9.8446591505510153
 30
0.0
 40
0.7179751770208114
 50
74.869708186995524
 51
84.875628173514343
  0
ARC
  5
18FA
  8
0
 10
11.31515508855494
 20
2.1209719225863868
 30
0.0
 40
8.4797113720493051
 50
84.369042393217981
 51
87.983294160817834
  0
ARC
  5
18FB
  8
0
 10
-6.9546606327626854
 20
-394.81271890534799
 30
0.0
 40
405.83315166825668
 50
87.377610936790745
 51
87.701006070730784
  0
ARC
  5
190D
  8
0
 10
12.46646830251599
 20
9.9400432569109611
 30
0.0
 40
0.059999775161044
 50
269.99990458690218
 51
359.86127092529807
  0
ARC
  5
190E
  8
0
 10
5.9723440721023522
 20
-91.565971709621195
 30
0.0
 40
101.55234170988609
 50
88.032059289222076
 51
90.22737226483963
  0
ARC
  5
190F
  8
0
 10
8.5322212627847236
 20
-51.458004423777062
 30
0.0
 40
61.391484783516447
 50
88.246061004888233
 51
89.134382264986868
  0
ARC
  5
1910
  8
0
 10
6.8448908864059126
 20
-303.6667660036394
 30
0.0
 40
313.59176378960001
 50
89.029833811881943
 51
89.348383980652699
  0
ARC
  5
1911
  8
0
 10
12.337957550942781
 20
9.8292192699251402
 30
0.0
 40
0.0509407979908536
 50
93.877136870020763
 51
175.02483370075581
  0
ARC
  5
1912
  8
0
 10
12.21471256738071
 20
9.8397739585767425
 30
0.0
 40
0.0727553962540782
 50
269.94313928464669
 51
355.16136461957609
  0
ARC
  5
1913
  8
0
 10
12.15555630105181
 20
12.045189760991621
 30
0.0
 40
2.278937202678208
 50
263.5835816611368
 51
271.48562532706779
  0
ARC
  5
1914
  8
0
 10
11.901319749128209
 20
9.8535290372880393
 30
0.0
 40
0.0730024163530504
 50
183.2993731820988
 51
269.65222938781829
  0
ARC
  5
1915
  8
0
 10
22.296195571614049
 20
10.05328924774596
 30
0.0
 40
10.46974411738152
 50
180.9187787291076
 51
181.11625320161471
  0
ARC
  5
1916
  8
0
 10
12.40666645535245
 20
9.5413498175281095
 30
0.0
 40
0.1903550659332056
 50
10.572861232909091
 51
90.497291043194181
  0
ARC
  5
1917
  8
0
 10
11.55470408281491
 20
-31.505520588241438
 30
0.0
 40
41.241174215353688
 50
89.217864111446147
 51
91.329832340577411
  0
ARC
  5
1918
  8
0
 10
11.416355615457579
 20
10.82756600795687
 30
0.0
 40
1.106175148484106
 50
236.99705712544099
 51
261.16958509234252
  0
ARC
  5
1919
  8
0
 10
12.591018169007009
 20
9.1994319600125873
 30
0.0
 40
0.0699884798413618
 50
269.98783016849092
 51
0.0094322227158476
  0
ARC
  5
191A
  8
0
 10
12.50998216232815
 20
8.8767183281541335
 30
0.0
 40
0.2525779729587807
 50
9.8950328102149214
 51
81.895714181008913
  0
ARC
  5
191B
  8
0
 10
-4.3061649407900404
 20
5.9433330736397334
 30
0.0
 40
17.32265566596044
 50
0.4982160028099791
 51
9.8950328102148024
  0
ARC
  5
191C
  8
0
 10
4.7627684496783038
 20
11.10477052765517
 30
0.0
 40
10.60025700782327
 50
295.50026619522117
 51
304.64865443473792
  0
ARC
  5
191D
  8
0
 10
7.9357280778175499
 20
6.267652839791654
 30
0.0
 40
4.8190508694442959
 50
306.31173940678298
 51
333.53712339085581
  0
ARC
  5
191E
  8
0
 10
1.3912297314763289
 20
9.4722819492321122
 30
0.0
 40
12.105971253136881
 50
333.7618721591345
 51
343.78189543493579
  0
LINE
  5
191F
  8
0
 10
13.015449680799991
 20
6.0911504002499992
 30
0.0
 11
13.015835829948459
 21
6.0939604946689521
 31
0.0
  0
ARC
  5
1920
  8
0
 10
9.5122285130961242
 20
1.5054756132136231
 30
0.0
 40
0.1885675858514344
 50
170.3282054849553
 51
187.47704611478781
  0
ARC
  5
1921
  8
0
 10
22.873850069429938
 20
-2.0148417477952152
 30
0.0
 40
12.914018485970081
 50
188.15841793761109
 51
193.8168884937956
  0
LINE
  5
1922
  8
0
 10
10.333512556784971
 20
-5.0989637500717961
 30
0.0
 11
10.496368718299991
 21
-5.4563453148500018
 31
0.0
  0
ARC
  5
1923
  8
0
 10
10.03557812709818
 20
2.6955118941625522
 30
0.0
 40
1.4011497586727071
 50
226.9785075751189
 51
239.50046970628381
  0
ARC
  5
1924
  8
0
 10
31.465913885594851
 20
25.65945711807424
 30
0.0
 40
32.811372154713098
 50
224.8735849634518
 51
226.9785075751189
  0
ARC
  5
1925
  8
0
 10
7.9173894049726101
 20
2.214617020332446
 30
0.0
 40
0.4180354900696547
 50
44.87358496345179
 51
85.16128985543547
  0
ARC
  5
1926
  8
0
 10
7.72487699506864
 20
1.2243732384657109
 30
0.0
 40
1.425109671812637
 50
80.803016917713919
 51
92.034493146973645
  0
ARC
  5
1927
  8
0
 10
7.7432850691925381
 20
0.2866816892390637
 30
0.0
 40
2.362910573696638
 50
91.673374232601404
 51
97.800593494368428
  0
ARC
  5
1928
  8
0
 10
6.2498445360617794
 20
12.264111510869959
 30
0.0
 40
9.7074821472939785
 50
271.04812918610611
 51
276.93868343799522
  0
ARC
  5
192B
  8
0
 10
2217.4777764417581
 20
267.231925826127
 30
0.0
 40
2225.0559129268422
 50
186.83320498572121
 51
187.05281860010521
  0
ARC
  5
1946
  8
0
 10
-1.1262366080045749
 20
20.115274715132799
 30
0.0
 40
0.0508439310230141
 50
81.007973829668359
 51
136.81828900233481
  0
ARC
  5
1947
  8
0
 10
0.7289800886430404
 20
9.8161085050906944
 30
0.0
 40
0.0887673971226087
 50
0.5684497018188428
 51
87.778530899640984
  0
ARC
  5
1948
  8
0
 10
1.580612675141652
 20
9.8230174315826151
 30
0.0
 40
0.7628933756120617
 50
180.45274603477881
 51
182.64857654732739
  0
ARC
  5
1949
  8
0
 10
0.9065635201141201
 20
9.7888244043190156
 30
0.0
 40
0.0880356448824464
 50
180.690030434889
 51
226.34964578937161
  0
ARC
  5
194A
  8
0
 10
1.5841483866616759
 20
9.7989712785632701
 30
0.0
 40
0.090617143706528
 50
305.36851240122832
 51
358.96842000714292
  0
LINE
  5
194B
  8
0
 10
9.4619482756000028
 20
9.7973398533000005
 30
0.0
 11
9.4596915775317925
 21
9.9264740927013051
 31
0.0
  0
ARC
  5
194D
  8
0
 10
10.407926476585819
 20
9.8160231249032606
 30
0.0
 40
0.0889757191219065
 50
92.289334219876906
 51
179.37789786780041
  0
ARC
  5
194E
  8
0
 10
9.5560864439583515
 20
9.8230174315826151
 30
0.0
 40
0.7628933756120617
 50
357.35142345267252
 51
359.54725396522122
  0
ARC
  5
194F
  8
0
 10
10.23013559898588
 20
9.7888244043190156
 30
0.0
 40
0.0880356448824464
 50
313.11897538737122
 51
359.30996956511098
  0
ARC
  5
1950
  8
0
 10
9.5525507324383252
 20
9.7989712785632701
 30
0.0
 40
0.090617143706528
 50
181.03157999285699
 51
235.1448391415272
  0
ARC
  5
1981
  8
0
 10
12.91156381501429
 20
5.9667269868200057
 30
0.0
 40
0.1678781089949984
 50
51.618991963659838
 51
83.714912135973847
  0
ARC
  5
1982
  8
0
 10
10.24277144166653
 20
-16.001465507101049
 30
0.0
 40
22.29757471700994
 50
83.078229480605245
 51
88.717098730898726
  0
ARC
  5
1983
  8
0
 10
5.9897285841695069
 20
-135.1566799630379
 30
0.0
 40
141.5270093596084
 50
88.075732701160533
 51
90.170589677351288
  0
ARC
  5
1985
  8
0
 10
-1.774856720014234
 20
5.9667269868200057
 30
0.0
 40
0.1678781089949984
 50
96.285087864026124
 51
128.3868443680575
  0
ARC
  5
1986
  8
0
 10
0.8939356533335249
 20
-16.001465507101049
 30
0.0
 40
22.29757471700994
 50
91.282901269101259
 51
96.921770519394741
  0
ARC
  5
1987
  8
0
 10
5.1469785108305466
 20
-135.1566799630379
 30
0.0
 40
141.5270093596084
 50
89.829410322648712
 51
91.924267298839482
  0
ATTDEF
  5
1A2D
  8
DEFPOINTS
 10
5.5590447343052638
 20
-5.9799592201842851
 30
0.0
 40
0.001
  1
VITREOUS CHINA
  3

  2
MATERIAL
 70
     0
1001
ACDBATTR
1070
     0
1070
     1
  0
ATTDEF
  5
1A2E
  8
DEFPOINTS
 10
5.5590447343052638
 20
-5.9782925535176199
 30
0.0
 40
0.001
  1
TOILET
  3

  2
PRODUCT
 70
     0
1001
ACDBATTR
1070
     0
1070
     1
  0
ATTDEF
  5
1A2F
  8
DEFPOINTS
 10
5.5590447343052638
 20
-5.9766258868509547
 30
0.0
 40
0.001
  1
WINDHAM
  3

  2
TRADENAME
 70
     0
1001
ACDBATTR
1070
     0
1070
     1
  0
ATTDEF
  5
1A30
  8
DEFPOINTS
 10
5.5590447343052638
 20
-5.9749592201842834
 30
0.0
 40
0.001
  1
403081
  3

  2
MODELNUMBER
 70
     0
1001
ACDBATTR
1070
     0
1070
     1
  0
ENDSEC
  0
EOF
