  0
SECTION
  2
HEADER
  9
$ACADVER
  1
AC1009
  9
$INSBASE
 10
4366.1449462987993684
 20
275.074324704904825
 30
0.0
  9
$EXTMIN
 10
4335.805775246300982
 20
275.074324704904825
 30
0.0
  9
$EXTMAX
 10
4366.1507941813988509
 20
305.3799738997680038
 30
0.0
  9
$LIMMIN
 10
0.0
 20
0.0
  9
$LIMMAX
 10
11.6929133858000007
 20
8.2677165353999982
  9
$ORTHOMODE
 70
     1
  9
$REGENMODE
 70
     1
  9
$FILLMODE
 70
     1
  9
$QTEXTMODE
 70
     0
  9
$MIRRTEXT
 70
     0
  9
$DRAGMODE
 70
     2
  9
$LTSCALE
 40
0.6431102362
  9
$OSMODE
 70
  4095
  9
$ATTMODE
 70
     1
  9
$TEXTSIZE
 40
0.2
  9
$TRACEWID
 40
0.05
  9
$TEXTSTYLE
  7
STANDARD
  9
$CLAYER
  8
0
  9
$CELTYPE
  6
BYLAYER
  9
$CECOLOR
 62
   256
  9
$DIMSCALE
 40
1.0
  9
$DIMASZ
 40
0.1875
  9
$DIMEXO
 40
0.0625
  9
$DIMDLI
 40
0.4443307087
  9
$DIMRND
 40
0.0
  9
$DIMDLE
 40
0.0
  9
$DIMEXE
 40
0.125
  9
$DIMTP
 40
0.01
  9
$DIMTM
 40
0.01
  9
$DIMTXT
 40
2.0
  9
$DIMCEN
 40
0.1052362205
  9
$DIMTSZ
 40
0.0
  9
$DIMTOL
 70
     1
  9
$DIMLIM
 70
     0
  9
$DIMTIH
 70
     1
  9
$DIMTOH
 70
     1
  9
$DIMSE1
 70
     0
  9
$DIMSE2
 70
     0
  9
$DIMTAD
 70
     0
  9
$DIMZIN
 70
     0
  9
$DIMBLK
  1

  9
$DIMASO
 70
     1
  9
$DIMSHO
 70
     1
  9
$DIMPOST
  1
\X
  9
$DIMAPOST
  1

  9
$DIMALT
 70
     1
  9
$DIMALTD
 70
     2
  9
$DIMALTF
 40
25.3999999999999986
  9
$DIMLFAC
 40
1.0
  9
$DIMTOFL
 70
     0
  9
$DIMTVP
 40
0.0
  9
$DIMTIX
 70
     0
  9
$DIMSOXD
 70
     0
  9
$DIMSAH
 70
     0
  9
$DIMBLK1
  1

  9
$DIMBLK2
  1

  9
$DIMSTYLE
  2
STANDARD
  9
$DIMCLRD
 70
     0
  9
$DIMCLRE
 70
     0
  9
$DIMCLRT
 70
     0
  9
$DIMTFAC
 40
1.0
  9
$DIMGAP
 40
0.09
  9
$LUNITS
 70
     2
  9
$LUPREC
 70
     4
  9
$SKETCHINC
 40
0.1
  9
$FILLETRAD
 40
0.0
  9
$AUNITS
 70
     0
  9
$AUPREC
 70
     0
  9
$MENU
  1
.
  9
$ELEVATION
 40
0.0
  9
$PELEVATION
 40
0.0
  9
$THICKNESS
 40
0.0
  9
$LIMCHECK
 70
     0
  9
$BLIPMODE
 70
     0
  9
$CHAMFERA
 40
0.0
  9
$CHAMFERB
 40
0.0
  9
$SKPOLY
 70
     0
  9
$TDCREATE
 40
2458060.468368056230247
  9
$TDUPDATE
 40
2458994.0358680561184883
  9
$TDINDWG
 40
0.3071251157
  9
$TDUSRTIMER
 40
0.3071251157
  9
$USRTIMER
 70
     1
  9
$ANGBASE
 50
0.0
  9
$ANGDIR
 70
     0
  9
$PDMODE
 70
     0
  9
$PDSIZE
 40
0.3125
  9
$PLINEWID
 40
0.0
  9
$COORDS
 70
     1
  9
$SPLFRAME
 70
     0
  9
$SPLINETYPE
 70
     6
  9
$SPLINESEGS
 70
     8
  9
$ATTDIA
 70
     1
  9
$ATTREQ
 70
     1
  9
$HANDLING
 70
     1
  9
$HANDSEED
  5
7254
  9
$SURFTAB1
 70
     6
  9
$SURFTAB2
 70
     6
  9
$SURFTYPE
 70
     6
  9
$SURFU
 70
     6
  9
$SURFV
 70
     6
  9
$UCSNAME
  2

  9
$UCSORG
 10
0.0
 20
0.0
 30
0.0
  9
$UCSXDIR
 10
1.0
 20
0.0
 30
0.0
  9
$UCSYDIR
 10
0.0
 20
1.0
 30
0.0
  9
$PUCSNAME
  2

  9
$PUCSORG
 10
0.0
 20
0.0
 30
0.0
  9
$PUCSXDIR
 10
1.0
 20
0.0
 30
0.0
  9
$PUCSYDIR
 10
0.0
 20
1.0
 30
0.0
  9
$USERI1
 70
     0
  9
$USERI2
 70
     0
  9
$USERI3
 70
     0
  9
$USERI4
 70
     0
  9
$USERI5
 70
     0
  9
$USERR1
 40
0.0
  9
$USERR2
 40
0.0
  9
$USERR3
 40
0.0
  9
$USERR4
 40
0.0
  9
$USERR5
 40
0.0
  9
$WORLDVIEW
 70
     1
  9
$SHADEDGE
 70
     3
  9
$SHADEDIF
 70
    70
  9
$TILEMODE
 70
     1
  9
$MAXACTVP
 70
    64
  9
$PLIMCHECK
 70
     0
  9
$PEXTMIN
 10
1.0000000000000000E+20
 20
1.0000000000000000E+20
 30
1.0000000000000000E+20
  9
$PEXTMAX
 10
-1.0000000000000000E+20
 20
-1.0000000000000000E+20
 30
-1.0000000000000000E+20
  9
$PLIMMIN
 10
0.0
 20
0.0
  9
$PLIMMAX
 10
12.0
 20
9.0
  9
$UNITMODE
 70
     0
  9
$VISRETAIN
 70
     1
  9
$PLINEGEN
 70
     0
  9
$PSLTSCALE
 70
     1
  0
ENDSEC
  0
SECTION
  2
TABLES
  0
TABLE
  2
VPORT
 70
     1
  0
VPORT
  2
*ACTIVE
 70
     0
 10
0.0
 20
0.0
 11
1.0
 21
1.0
 12
0.0
 22
0.0
 13
0.0
 23
0.0
 14
1.0
 24
1.0
 15
0.0
 25
0.0
 16
0.0
 26
0.0
 36
160.5327679024505869
 17
4350.9782291221072228
 27
290.2267913818358807
 37
0.0
 40
42.9088458270182471
 41
2.9513274336283182
 42
50.0
 43
0.0
 44
0.0
 50
0.0
 51
0.0
 71
     0
 72
   100
 73
     1
 74
     1
 75
     0
 76
     0
 77
     0
 78
     0
  0
ENDTAB
  0
TABLE
  2
LTYPE
 70
     2
  0
LTYPE
  2
CONTINUOUS
 70
     0
  3
Solid line
 72
    65
 73
     0
 40
0.0
  0
LTYPE
  2
PHANTOM2
 70
     0
  3
___ _ _ ___ _ _ ___ _ _ ___ _ _
 72
    65
 73
     6
 40
1.25
 49
0.625
 49
-0.125
 49
0.125
 49
-0.125
 49
0.125
 49
-0.125
  0
ENDTAB
  0
TABLE
  2
LAYER
 70
     2
  0
LAYER
  2
0
 70
     0
 62
   255
  6
CONTINUOUS
  0
LAYER
  2
DEFPOINTS
 70
     0
 62
     7
  6
CONTINUOUS
  0
ENDTAB
  0
TABLE
  2
STYLE
 70
     1
  0
STYLE
  2
STANDARD
 70
     0
 40
0.0
 41
0.8
 50
0.0
 71
     0
 42
0.2
  3
txt
  4

  0
ENDTAB
  0
TABLE
  2
VIEW
 70
     0
  0
ENDTAB
  0
TABLE
  2
UCS
 70
     0
  0
ENDTAB
  0
TABLE
  2
APPID
 70
     9
  0
APPID
  2
ACAD
 70
     0
  0
APPID
  2
ACAD_MLEADERVER
 70
     0
  0
APPID
  2
ACAD_EXEMPT_FROM_CAD_STANDARDS
 70
     0
  0
APPID
  2
ACAD_NAV_VCDISPLAY
 70
     0
  0
APPID
  2
ACAECLAYERSTANDARD
 70
     0
  0
APPID
  2
ACCMTRANSPARENCY
 70
     0
  0
APPID
  2
ACAD_DSTYLE_DIMJAG
 70
     0
  0
APPID
  2
ACAD_DSTYLE_DIMTALN
 70
     0
  0
APPID
  2
ACDBATTR
 70
     0
  0
ENDTAB
  0
TABLE
  2
DIMSTYLE
 70
     1
  0
DIMSTYLE
  2
STANDARD
 70
     0
  3

  4

  5

  6

  7

 40
1.0
 41
0.1875
 42
0.0625
 43
0.38
 44
0.125
 45
0.0
 46
0.0
 47
0.01
 48
0.01
140
0.15625
141
0.09
142
0.0
143
25.3999999999999986
144
1.0
145
0.0
146
1.0
147
0.09
 71
     1
 72
     0
 73
     1
 74
     1
 75
     0
 76
     0
 77
     0
 78
     4
170
     0
171
     2
172
     0
173
     0
174
     0
175
     0
176
     0
177
     0
178
     0
  0
ENDTAB
  0
ENDSEC
  0
SECTION
  2
BLOCKS
  0
BLOCK
  8
0
  2
$MODEL_SPACE
 70
     0
 10
0.0
 20
0.0
 30
0.0
  3
$MODEL_SPACE
  1

  0
ENDBLK
  5
21
  8
0
  0
BLOCK
 67
     1
  8
0
  2
$PAPER_SPACE
 70
     0
 10
0.0
 20
0.0
 30
0.0
  3
$PAPER_SPACE
  1

  0
ENDBLK
  5
1D
 67
     1
  8
0
  0
ENDSEC
  0
SECTION
  2
ENTITIES
  0
ATTDEF
  5
3930
  8
DEFPOINTS
 10
4366.1401275147309207
 20
275.0876342198098996
 30
0.0
 40
0.001
  1
402325
  3

  2
MODELNUMBER
 70
     0
1001
ACDBATTR
1070
     0
1070
     1
  0
ATTDEF
  5
3931
  8
DEFPOINTS
 10
4366.1401275147309207
 20
275.0859675531431776
 30
0.0
 40
0.001
  1
WINDHAM
  3

  2
TRADENAME
 70
     0
1001
ACDBATTR
1070
     0
1070
     1
  0
ATTDEF
  5
3932
  8
DEFPOINTS
 10
4366.1401275147309207
 20
275.0843008864765125
 30
0.0
 40
0.001
  1
TOILET
  3

  2
PRODUCT
 70
     0
1001
ACDBATTR
1070
     0
1070
     1
  0
LINE
  5
70FA
  8
0
 10
4336.2134748113730893
 20
291.778870271104779
 30
0.0
 11
4336.2134748897733516
 21
291.7978906532047745
 31
0.0
  0
LINE
  5
70FB
  8
0
 10
4336.3164748574718033
 20
292.9491611198047849
 30
0.0
 11
4336.3164748574718033
 21
292.920952503304818
 31
0.0
  0
LINE
  5
70FC
  8
0
 10
4336.3564451598731466
 20
292.3314636320047839
 30
0.0
 11
4336.2134748897733516
 21
291.7978906532047745
 31
0.0
  0
LINE
  5
70FD
  8
0
 10
4363.3444329372741777
 20
276.2523895694047837
 30
0.0
 11
4349.9360390501733491
 21
276.0183451835047777
 31
0.0
  0
LINE
  5
70FE
  8
0
 10
4364.1613621163733114
 20
275.074324704904825
 30
0.0
 11
4338.5855466146722392
 21
275.074324704904825
 31
0.0
  0
LINE
  5
70FF
  8
0
 10
4339.6213112892728532
 20
292.5924008345048151
 30
0.0
 11
4339.6210065750728972
 21
292.5993799365047039
 31
0.0
  0
LINE
  5
7100
  8
0
 10
4340.7873189999718306
 20
292.5924008345048151
 30
0.0
 11
4340.7890044774730995
 21
292.6310046155048212
 31
0.0
  0
LINE
  5
7101
  8
0
 10
4340.4136447833743659
 20
291.5138222538047899
 30
0.0
 11
4340.4207634004733336
 21
291.5951885318048085
 31
0.0
  0
LINE
  5
7102
  8
0
 10
4336.3390521148094194
 20
292.9819424281470788
 30
0.0
 11
4336.7030285761729829
 21
293.1439943610047862
 31
0.0
  0
LINE
  5
7103
  8
0
 10
4357.0191440946728108
 20
287.4308233182047729
 30
0.0
 11
4359.3667931271911584
 21
287.9728208037657851
 31
0.0
  0
LINE
  5
7104
  8
0
 10
4360.3367991455734227
 20
288.1967643386047939
 30
0.0
 11
4361.5400274643734519
 21
288.4745514840047917
 31
0.0
  0
LINE
  5
7105
  8
0
 10
4350.6633529091732271
 20
279.5304654652048271
 30
0.0
 11
4350.8174110084728454
 21
276.8049121856047918
 31
0.0
  0
LINE
  5
7106
  8
0
 10
4363.5904363876734351
 20
290.7529073821048087
 30
0.0
 11
4362.5956127499730428
 21
290.6194253693047926
 31
0.0
  0
LINE
  5
7107
  8
0
 10
4353.1521798439725899
 20
279.853639931204782
 30
0.0
 11
4353.5851373982732184
 21
278.2378203409048183
 31
0.0
  0
LINE
  5
7108
  8
0
 10
4353.0206898975638978
 20
291.7265186041764196
 30
0.0
 11
4353.8356599931730671
 21
291.8582867528048155
 31
0.0
  0
LINE
  5
7109
  8
0
 10
4354.2083404301720293
 20
291.9186010874047952
 30
0.0
 11
4354.267644679973273
 21
291.9281988446048217
 31
0.0
  0
LINE
  5
710A
  8
0
 10
4353.8356599931730671
 20
291.8582867528048155
 30
0.0
 11
4354.2083404301720293
 21
291.9186010874047952
 31
0.0
  0
LINE
  5
710B
  8
0
 10
4352.2822756289733661
 20
290.6029073821047746
 30
0.0
 11
4358.1054821152729346
 21
290.6029128079047723
 31
0.0
  0
LINE
  5
710C
  8
0
 10
4359.1703477020728315
 20
290.7529073821048087
 30
0.0
 11
4364.2834549662729842
 21
290.7529073821048087
 31
0.0
  0
LINE
  5
710D
  8
0
 10
4348.9725600904730527
 20
291.4734093855047945
 30
0.0
 11
4349.4579057636728976
 21
291.4734093855047945
 31
0.0
  0
LINE
  5
710E
  8
0
 10
4354.6750532527730684
 20
278.5438724174048275
 30
0.0
 11
4354.2633314432732732
 21
280.080439129104775
 31
0.0
  0
LINE
  5
710F
  8
0
 10
4353.1947130981388909
 20
291.7546554831632761
 30
0.0
 11
4353.1842914843991821
 21
291.4129073821047768
 31
0.0
  0
LINE
  5
7110
  8
0
 10
4354.4133818028712994
 20
290.6029093677730089
 30
0.0
 11
4353.8373774559731828
 21
290.2097766284048248
 31
0.0
  0
LINE
  5
7111
  8
0
 10
4349.5939193695730864
 20
292.5758903855048061
 30
0.0
 11
4350.6864297221727611
 21
292.5758903855048061
 31
0.0
  0
LINE
  5
7112
  8
0
 10
4336.5416026166731172
 20
292.675890385504772
 30
0.0
 11
4352.467885993973141
 21
292.675890385504772
 31
0.0
  0
LINE
  5
7113
  8
0
 10
4354.267644679973273
 20
291.9281988446048217
 30
0.0
 11
4354.2583514736734287
 21
292.0027536181048049
 31
0.0
  0
LINE
  5
7114
  8
0
 10
4354.2583514736734287
 20
292.0027536181048049
 30
0.0
 11
4354.113451500273186
 21
293.1652138723047756
 31
0.0
  0
LINE
  5
7115
  8
0
 10
4354.3299016837718227
 20
291.4128903855047952
 30
0.0
 11
4354.2666495357279928
 21
291.9280377911746882
 31
0.0
  0
LINE
  5
7116
  8
0
 10
4354.2750438750717876
 20
291.9859670441048252
 30
0.0
 11
4354.3425107377734093
 21
291.4364935420048255
 31
0.0
  0
LINE
  5
7117
  8
0
 10
4356.9822943114131704
 20
290.6029117613692847
 30
0.0
 11
4356.9822948574728798
 21
290.0168565751047822
 31
0.0
  0
LINE
  5
7118
  8
0
 10
4357.2822948574730617
 20
290.0168565751047822
 30
0.0
 11
4357.2822943114133523
 21
290.6029120408957169
 31
0.0
  0
LINE
  5
7119
  8
0
 10
4359.7262240737727552
 20
287.401875786604819
 30
0.0
 11
4359.7262240629734151
 21
287.6787452031048247
 31
0.0
  0
LINE
  5
711A
  8
0
 10
4360.1133656485717438
 20
287.9064549572048008
 30
0.0
 11
4360.1133656309730213
 21
287.4326061472048082
 31
0.0
  0
LINE
  5
711B
  8
0
 10
4362.0799873920732352
 20
288.2951402313047993
 30
0.0
 11
4362.1268878725732066
 21
286.9889646347048142
 31
0.0
  0
LINE
  5
711C
  8
0
 10
4362.9419922646729901
 20
290.1755528290048005
 30
0.0
 11
4363.1049527514733199
 21
285.6371129487047824
 31
0.0
  0
LINE
  5
711D
  8
0
 10
4364.383454966273348
 20
290.8529073821047746
 30
0.0
 11
4364.383454966273348
 21
291.1129073821048223
 31
0.0
  0
ARC
  5
711E
  8
0
 10
4336.5476963175251512
 20
292.7483440050086188
 30
0.0
 40
0.0727094228368752
 50
236.3133612727112052
 51
265.1924612906490779
  0
ARC
  5
711F
  8
0
 10
4336.3516279124160064
 20
292.9491157828653058
 30
0.0
 40
0.0351530841781228
 50
110.9616990244691976
 51
179.9261056025999892
  0
ARC
  5
7120
  8
0
 10
4340.3040633665732457
 20
291.5234093855048059
 30
0.0
 40
0.11
 50
270.0
 51
355.0000000000017053
  0
ARC
  5
7121
  8
0
 10
4339.5412029778854048
 20
292.5960160107550223
 30
0.0
 40
0.0798744647849801
 50
2.4137347253327488
 51
90.0860280150415065
  0
ARC
  5
7122
  8
0
 10
4340.7159890095554147
 20
292.5925066641910917
 30
0.0
 40
0.0713300688519465
 50
275.9569581185800757
 51
359.9149924277976993
  0
ARC
  5
7123
  8
0
 10
4339.691778058518139
 20
292.5920044846708947
 30
0.0
 40
0.0704678839244865
 50
179.6777355614744067
 51
268.4686616129803269
  0
ARC
  5
7124
  8
0
 10
4349.6009247351839804
 20
292.6636512823085923
 30
0.0
 40
0.0880400485867429
 50
190.1670602789745033
 51
265.4361378732900221
  0
ARC
  5
7125
  8
0
 10
4350.6801779477000309
 20
292.6649830278287254
 30
0.0
 40
0.0893117215168402
 50
274.0139576133138917
 51
335.1898545982201085
  0
ARC
  5
7126
  8
0
 10
4352.4678860843550865
 20
292.1758907352228789
 30
0.0
 40
0.4999996502818627
 50
32.0376077327127931
 51
90.000010357008037
  0
ARC
  5
7127
  8
0
 10
4352.988559956899735
 20
291.8536050949376204
 30
0.0
 40
0.1310851220434914
 50
284.1881840773845056
 51
33.546913039379163
  0
ARC
  5
7128
  8
0
 10
4353.5517506400983621
 20
292.3191898982626071
 30
0.0
 40
0.5003407900415718
 50
222.4328692045619107
 51
279.1657411393917982
  0
ARC
  5
7129
  8
0
 10
4354.4034748574722471
 20
291.9528903855048156
 30
0.0
 40
0.1355
 50
99.7435708676040065
 51
159.0680707658011954
  0
ARC
  5
712A
  8
0
 10
4354.4154633093912707
 20
291.5344757442783248
 30
0.0
 40
0.1221580519693104
 50
233.3305023679766066
 51
264.3679922097277881
  0
ARC
  5
712B
  8
0
 10
4354.3068122163813314
 20
291.9898659921618105
 30
0.0
 40
0.0320067071946007
 50
159.0714115847069081
 51
186.9969549971021934
  0
ARC
  5
712C
  8
0
 10
4364.0835953949035684
 20
291.1130478107356794
 30
0.0
 40
0.2998596042514458
 50
359.9731675488930023
 51
90.0268324510890636
  0
ARC
  5
712D
  8
0
 10
4364.2834549662729842
 20
290.8529073821047746
 30
0.0
 40
0.1
 50
270.0
 51
0.0
  0
ARC
  5
712E
  8
0
 10
4478.2464310408731762
 20
279.6567408462047979
 30
0.0
 40
116.5280387340000061
 50
174.8801758379991043
 51
175.3758931991008865
  0
LINE
  5
712F
  8
0
 10
4336.3751472452950111
 20
291.4129073821047768
 30
0.0
 11
4364.2475698219732294
 21
291.4129073821047768
 31
0.0
  0
LINE
  5
7130
  8
0
 10
4336.5777362904436814
 20
292.5215617678048261
 30
0.0
 11
4352.4655527115601217
 21
292.5215617678048261
 31
0.0
  0
LINE
  5
7131
  8
0
 10
4336.2682273525442724
 20
291.7220044335048215
 30
0.0
 11
4352.9802374335158675
 21
291.7220044335048215
 31
0.0
  0
LINE
  5
7132
  8
0
 10
4336.3390521148094194
 20
292.9819424281470788
 30
0.0
 11
4354.1362961758541132
 21
292.9819424281470788
 31
0.0
  0
ARC
  5
7133
  8
0
 10
4340.3422109155790167
 20
289.6256292120336866
 30
0.0
 40
4.5364356692792676
 50
159.6118493771112128
 51
188.4313897966100058
  0
ARC
  5
7134
  8
0
 10
4336.3979201969232236
 20
291.0815155084374055
 30
0.0
 40
0.3321734204577937
 50
93.9311342131158682
 51
157.9861132152782091
  0
ARC
  5
7135
  8
0
 10
4341.9523722652611468
 20
291.8354930559038962
 30
0.0
 40
6.7413697948119182
 50
205.2439958274341052
 51
249.6288068403617899
  0
ARC
  5
7136
  8
0
 10
4339.483005714938372
 20
285.1878249087188237
 30
0.0
 40
0.3501235193922823
 50
354.0593647325981124
 51
69.4869406052671792
  0
ARC
  5
7137
  8
0
 10
4155.8133387788202526
 20
304.9159559928162935
 30
0.0
 40
185.0762586443667885
 50
350.7572092946314228
 51
353.8696708644935143
  0
ARC
  5
7138
  8
0
 10
4338.5969466818351066
 20
275.1841273851114806
 30
0.0
 40
0.1103928897704234
 50
177.3101058628961937
 51
264.0726047921324948
  0
ARC
  5
7139
  8
0
 10
4364.1515314562830099
 20
275.1827778956417774
 30
0.0
 40
0.1088978257764945
 50
275.1793796860828252
 51
3.4378981157512718
  0
ARC
  5
713A
  8
0
 10
4263.0232691176133812
 20
259.3416988630324909
 30
0.0
 40
102.4698474574498022
 50
8.896864349584904
 51
9.3126721712225642
  0
ARC
  5
713B
  8
0
 10
4363.746961748072863
 20
275.8589698498079201
 30
0.0
 40
0.4008390300794633
 50
9.2762265419042755
 51
44.6276965411200734
  0
ARC
  5
713C
  8
0
 10
4364.3525894173762936
 20
276.4009678362477871
 30
0.0
 40
0.4128451688148281
 50
163.6391261709968035
 51
219.10683988267769
  0
ARC
  5
713D
  8
0
 10
4340.2829129394203846
 20
279.2090448065044939
 30
0.0
 40
23.8260910803528212
 50
353.5130838606381189
 51
3.7418227146711192
  0
ARC
  5
713E
  8
0
 10
4349.2257028747017102
 20
280.80349221671122
 30
0.0
 40
14.8325625158827901
 50
359.8472643644238929
 51
14.6954046031077503
  0
ARC
  5
713F
  8
0
 10
4359.3781429404953087
 20
283.2613228221619011
 30
0.0
 40
4.3931908440653027
 50
17.2791654697900015
 51
31.2327976807058505
  0
ARC
  5
7140
  8
0
 10
4363.3069504488503298
 20
285.6449332048516112
 30
0.0
 40
0.2021490196672052
 50
182.2170748549154098
 51
211.5151637359296046
  0
ARC
  5
7141
  8
0
 10
4362.592167932502889
 20
290.1629741923035226
 30
0.0
 40
0.3500504041973435
 50
2.0592976789903878
 51
40.5119414989423419
  0
ARC
  5
7142
  8
0
 10
4363.0494743635126724
 20
290.5313963057072897
 30
0.0
 40
0.2375624338848174
 50
149.229020921671804
 51
216.4158991410598105
  0
ARC
  5
7143
  8
0
 10
4360.417085005034096
 20
290.6542731043709864
 30
0.0
 40
0.0987786421836388
 50
12.3454233228973607
 51
86.9019448708117039
  0
ARC
  5
7144
  8
0
 10
4360.6629712437670605
 20
290.6658157022075102
 30
0.0
 40
0.1496983609153702
 50
176.3320711623227908
 51
359.5548970161137277
  0
ARC
  5
7145
  8
0
 10
4360.9084561496365495
 20
290.656870737866484
 30
0.0
 40
0.096106647824017
 50
92.1869931548944663
 51
175.3555047053731073
  0
ARC
  5
7146
  8
0
 10
4362.9062143238043063
 20
290.717624263648986
 30
0.0
 40
0.3631345975457141
 50
174.4241937194991863
 51
189.6675711553305064
  0
ARC
  5
7147
  8
0
 10
4362.5881358872757119
 20
290.6586701304336202
 30
0.0
 40
0.0399506539602678
 50
182.9091427440806115
 51
280.7866507641567182
  0
ARC
  5
7148
  8
0
 10
4359.1947916176650324
 20
290.4919435353924086
 30
0.0
 40
0.2621061508250686
 50
95.3511576747416711
 51
102.2983950800860953
  0
ARC
  5
7149
  8
0
 10
4358.1002008087552895
 20
294.3930278752632148
 30
0.0
 40
3.7901187469545161
 50
270.0798383090241259
 51
285.9066559125857907
  0
LINE
  5
714A
  8
0
 10
4350.0426171590279409
 20
291.4129073821047768
 30
0.0
 11
4350.1748763377654541
 21
290.7337375859755184
 31
0.0
  0
ARC
  5
714B
  8
0
 10
4353.8703461613513355
 20
333.2216812337842953
 30
0.0
 40
42.6483511127499568
 50
265.0291001833235214
 51
267.8660188077615771
  0
ARC
  5
714C
  8
0
 10
4348.218934310433724
 20
289.5007647226416907
 30
0.0
 40
5.5795327431933028
 50
7.8610454392044531
 51
11.3927548290823708
  0
ARC
  5
714D
  8
0
 10
4353.8091882475873717
 20
290.2663436609666974
 30
0.0
 40
0.063201745564052
 50
182.2308771682789086
 51
296.4885819451969837
  0
ARC
  5
714E
  8
0
 10
4357.132294857467059
 20
289.9993164299805812
 30
0.0
 40
0.1510220404668203
 50
173.3304468380524099
 51
6.669553123750382
  0
ARC
  5
714F
  8
0
 10
4340.0645178512313578
 20
282.439468086096781
 30
0.0
 40
3.1103078311924861
 50
77.6622305399933026
 51
98.4830281322352619
  0
ARC
  5
7150
  8
0
 10
4350.112242499896638
 20
337.3717172319929887
 30
0.0
 40
52.7352533391153528
 50
259.7508462829576956
 51
268.4239062622536949
  0
ARC
  5
7151
  8
0
 10
4348.7972882501690037
 20
283.8118773403413115
 30
0.0
 40
0.8553392557044185
 50
4.8066871430422839
 51
99.1153779388678799
  0
ARC
  5
7152
  8
0
 10
4349.9132483063785912
 20
276.8454673301657749
 30
0.0
 40
0.8274360782149507
 50
184.9046002817748899
 51
271.578343843088021
  0
ARC
  5
7153
  8
0
 10
3844.8339844269858077
 20
279.0758357706108086
 30
0.0
 40
504.2601079201913876
 50
359.7385388160652155
 51
0.5731189331824846
  0
ARC
  5
7154
  8
0
 10
4349.7795396385781714
 20
283.8954834551593081
 30
0.0
 40
0.7452266645394812
 50
127.6482669093715998
 51
162.4844022483511026
  0
ARC
  5
7155
  8
0
 10
3814.1045410233077746
 20
245.5308907615211922
 30
0.0
 40
536.9166205044883782
 50
3.9485799234029679
 51
4.0962012224102171
  0
ARC
  5
7156
  8
0
 10
4350.0190954415757005
 20
282.4884422611388004
 30
0.0
 40
0.2728605302778685
 50
176.814661243045407
 51
253.1300415379394053
  0
ARC
  5
7157
  8
0
 10
4344.6278615532683034
 20
297.9642968373208873
 30
0.0
 40
16.6093402628598312
 50
288.6522232090384819
 51
290.4300289594252149
  0
ARC
  5
7158
  8
0
 10
4344.6459037560307479
 20
297.373109301239424
 30
0.0
 40
16.05015923234604
 50
291.1063584058558718
 51
302.6881367293597123
  0
ARC
  5
7159
  8
0
 10
4353.5066269528770135
 20
283.5736693825900261
 30
0.0
 40
0.3491702082466964
 50
123.4718261983556999
 51
169.9183752628397031
  0
ARC
  5
715A
  8
0
 10
4346.1115857508739282
 20
293.245063578420627
 30
0.0
 40
11.8263417345525195
 50
307.5185895610524085
 51
326.1168848370973024
  0
ARC
  5
715B
  8
0
 10
4357.6097097897063577
 20
285.4531804263567096
 30
0.0
 40
2.063937801346567
 50
106.6267296255240069
 51
144.4946416678951095
  0
ARC
  5
715C
  8
0
 10
4359.4261676818232445
 20
287.6786975403812221
 30
0.0
 40
0.3000563810381365
 50
0.0091010274112267
 51
101.4128972295234945
  0
ARC
  5
715D
  8
0
 10
4359.968611305176637
 20
288.3794946788746074
 30
0.0
 40
0.0902262757031275
 50
118.7605879692364965
 51
171.8308936979167072
  0
ARC
  5
715E
  8
0
 10
4362.5607989737864045
 20
287.5271447594969914
 30
0.0
 40
2.8176149496368001
 50
162.1179911027855098
 51
174.2430062525010896
  0
ARC
  5
715F
  8
0
 10
4359.4998787044105484
 20
287.8018142640905239
 30
0.0
 40
0.2576396971961991
 50
331.4660795395921014
 51
1.7713901485389441
  0
ARC
  5
7160
  8
0
 10
4359.4259753762389664
 20
287.4068048711444021
 30
0.0
 40
0.3002891543921867
 50
277.7841206313697739
 51
359.0594784377748283
  0
ARC
  5
7161
  8
0
 10
4358.6084412168438575
 20
287.122337745015102
 30
0.0
 40
1.1522065925600591
 50
4.4211998184703383
 51
14.0406975499805906
  0
ARC
  5
7162
  8
0
 10
4360.2537149490453885
 20
287.2343327102390731
 30
0.0
 40
0.4970362817420002
 50
182.6723172914228996
 51
211.5993383014483129
  0
ARC
  5
7163
  8
0
 10
4359.9474574133182614
 20
287.0407537924231747
 30
0.0
 40
0.1348279240972458
 50
209.7266837198860969
 51
255.8515213693119961
  0
ARC
  5
7164
  8
0
 10
4359.9144997170842544
 20
286.9772328148246743
 30
0.0
 40
0.067217014588989
 50
270.0008176092662211
 51
304.713092582700483
  0
ARC
  5
7165
  8
0
 10
4359.6561786942293111
 20
287.2183596728535235
 30
0.0
 40
0.4192995715126099
 50
315.0211353589551209
 51
348.2420977931162724
  0
ARC
  5
7166
  8
0
 10
4362.496759371342705
 20
286.9078424540289802
 30
0.0
 40
2.4404800049750719
 50
167.5830185088807127
 51
174.7083670636048112
  0
ARC
  5
7167
  8
0
 10
4360.4133606691248133
 20
287.9067032982350725
 30
0.0
 40
0.2999951233418109
 50
104.7859831868669005
 51
180.0474304194740114
  0
ARC
  5
7168
  8
0
 10
4359.8532987425660394
 20
288.3352748656589029
 30
0.0
 40
0.1427457882729044
 50
13.0267905283926098
 51
59.7553402763173835
  0
ARC
  5
7169
  8
0
 10
4357.6908115040669145
 20
287.5169983576532786
 30
0.0
 40
2.4536595171294491
 50
9.1328864167068406
 51
20.2798440301658083
  0
ARC
  5
716A
  8
0
 10
4359.9531975435957065
 20
283.0079572069827236
 30
0.0
 40
4.1300850905686772
 50
96.7655240668614169
 51
144.0792323200886926
  0
ARC
  5
716B
  8
0
 10
4352.6035042918883846
 20
287.3076981173317108
 30
0.0
 40
4.4229513935429017
 50
281.3690217197437278
 51
334.8921709745741282
  0
ARC
  5
716C
  8
0
 10
4353.4091028076109069
 20
283.2658266382762235
 30
0.0
 40
0.301665043049923
 50
173.2618068955650017
 51
282.6933920513520206
  0
ARC
  5
716D
  8
0
 10
4361.6169577961763935
 20
282.1122155865244281
 30
0.0
 40
8.5901227413773285
 50
169.7905341413357121
 51
172.0438308485182972
  0
ARC
  5
716E
  8
0
 10
4360.4138490952300344
 20
287.437749598643677
 30
0.0
 40
0.3005274819234793
 50
180.9806506907829089
 51
265.3732980634244996
  0
ARC
  5
716F
  8
0
 10
4360.1397164119553054
 20
283.5816799764647271
 30
0.0
 40
3.5652896544337538
 50
59.6806588713273669
 51
85.9808443102383961
  0
ARC
  5
7170
  8
0
 10
4355.0044894018710693
 20
278.062233852375698
 30
0.0
 40
11.0455867508431904
 50
42.6037978679642677
 51
51.1077798842495099
  0
ARC
  5
7171
  8
0
 10
4361.4827247713283214
 20
289.0879484993955089
 30
0.0
 40
0.6160677699087814
 50
275.3370023165198859
 51
356.5647880482962933
  0
ARC
  5
7172
  8
0
 10
4362.4786010035986692
 20
290.0359874875372839
 30
0.0
 40
0.2959398649913236
 50
112.3160782085795972
 51
176.2045715007739091
  0
ARC
  5
7173
  8
0
 10
4361.8944626994425562
 20
291.5488177297881975
 30
0.0
 40
1.3258282582620611
 50
290.8441275136460149
 51
314.4356851310076877
  0
ARC
  5
7174
  8
0
 10
4361.8438703218052979
 20
288.3858177607756943
 30
0.0
 40
0.2857097423971989
 50
11.5592113542089194
 51
73.394637163748385
  0
ARC
  5
7175
  8
0
 10
4362.3115226209865796
 20
288.3070361199144145
 30
0.0
 40
0.2318406228293346
 50
144.0733388295012105
 51
182.9411741325941136
  0
ARC
  5
7176
  8
0
 10
4362.4635311098600141
 20
287.0075167830082137
 30
0.0
 40
0.3371540470133346
 50
183.1543353869654993
 51
212.4923214425278957
  0
ARC
  5
7177
  8
0
 10
4354.3549105884867458
 20
279.7806551312291958
 30
0.0
 40
10.5290709951973103
 50
33.7946421301468121
 51
42.0031001597901223
  0
ARC
  5
7178
  8
0
 10
4351.6883428562059635
 20
276.9260797521221775
 30
0.0
 40
0.8793201139022594
 50
187.9203811497282004
 51
266.8498674589375241
  0
ARC
  5
7179
  8
0
 10
4350.9229963398292966
 20
280.2781091663385951
 30
0.0
 40
0.7914453960494123
 50
216.2642215539731865
 51
250.8487903008939952
  0
ARC
  5
717A
  8
0
 10
4351.6045098745307769
 20
280.7354815136027923
 30
0.0
 40
1.6118544111259061
 50
179.8770826893155004
 51
215.043333953785293
  0
ARC
  5
717B
  8
0
 10
4267.0400268215989854
 20
276.4464193148909885
 30
0.0
 40
83.063619852439146
 50
2.9622220508798129
 51
3.7948360799507852
  0
ARC
  5
717C
  8
0
 10
4350.259418469553566
 20
281.982752288767017
 30
0.0
 40
0.3401203976919783
 50
118.8729498939429021
 51
186.5593543613136944
  0
ARC
  5
717D
  8
0
 10
4351.0284158214590207
 20
279.5287300436352211
 30
0.0
 40
0.3650670371517053
 50
92.9782393962629357
 51
179.7276316512005963
  0
ARC
  5
717E
  8
0
 10
4351.5099218800505696
 20
287.8426148352085079
 30
0.0
 40
7.9650496998577269
 50
266.3975197052689055
 51
276.8539276444416828
  0
ARC
  5
717F
  8
0
 10
4352.4235037789621856
 20
280.4205812106637268
 30
0.0
 40
0.4874975751705365
 50
274.3475370035732794
 51
320.8019890457173915
  0
ARC
  5
7180
  8
0
 10
4353.0305169180492157
 20
279.8115246910447809
 30
0.0
 40
0.3783072054624765
 50
96.1628906156983305
 51
127.2941181485535935
  0
ARC
  5
7181
  8
0
 10
4355.0617083632723734
 20
272.2634437418220728
 30
0.0
 40
8.1905646514692378
 50
94.501490388791467
 51
104.6521574197554969
  0
ARC
  5
7182
  8
0
 10
4352.5078740620947428
 20
287.0244430984470227
 30
0.0
 40
6.8669624290623084
 50
286.158091676637298
 51
334.0986170400777269
  0
ARC
  5
7183
  8
0
 10
4354.5617970546991273
 20
280.1560361569326005
 30
0.0
 40
0.3078906166482596
 50
117.658997722568202
 51
194.2132810008575063
  0
ARC
  5
7184
  8
0
 10
4352.8490922733008119
 20
279.7508684603257052
 30
0.0
 40
0.3200375770473482
 50
18.7308610827786417
 51
109.2011254465923997
  0
ARC
  5
7185
  8
0
 10
4353.2912011575090219
 20
278.1500820331112891
 30
0.0
 40
0.3067515677033951
 50
313.3828440863127867
 51
16.6200671976478382
  0
ARC
  5
7186
  8
0
 10
4353.0361843518367095
 20
282.4912368523552004
 30
0.0
 40
4.5877948396096189
 50
275.8262322809403031
 51
294.5361903100213112
  0
ARC
  5
7187
  8
0
 10
4354.9780966298203566
 20
278.6308542530246086
 30
0.0
 40
0.3152794444611666
 50
196.014943974806414
 51
263.3065257162493253
  0
ARC
  5
7188
  8
0
 10
4355.7725773775464404
 20
351.2262971685617003
 30
0.0
 40
72.9133116508726857
 50
269.3468004354789969
 51
272.4459761361924848
  0
ARC
  5
7189
  8
0
 10
4358.9190549433906199
 20
281.1467392643713197
 30
0.0
 40
2.7675407733956492
 50
269.2809924001095965
 51
326.1030601754044937
  0
ARC
  5
718A
  8
0
 10
4359.0054095173618407
 20
280.6572930806739237
 30
0.0
 40
2.4492187662852301
 50
334.5104291061368258
 51
2.4975077678975319
  0
ARC
  5
718B
  8
0
 10
4354.4473081730366175
 20
281.3079073885833736
 30
0.0
 40
7.0260763828303503
 50
355.5603023889918859
 51
22.3333446483647187
  0
ARC
  5
718C
  8
0
 10
4359.8010355722954046
 20
283.2964129406958023
 30
0.0
 40
1.332667526351393
 50
30.7490715504609113
 51
146.8688298526516007
  0
ARC
  5
718D
  8
0
 10
4359.8083365627453531
 20
284.6594160381565075
 30
0.0
 40
1.431695132743207
 50
218.1779606781840926
 51
322.1074067031509003
  0
ARC
  5
718E
  8
0
 10
4358.8400969782069296
 20
283.8984139866482224
 30
0.0
 40
0.2001937420180808
 50
161.3151657492938114
 51
218.6690326396177966
  0
ARC
  5
718F
  8
0
 10
4360.7709726890707316
 20
283.8876761827476116
 30
0.0
 40
0.1988260441278221
 50
327.2419775754057127
 51
13.17828375477999
  0
ARC
  5
7190
  8
0
 10
4355.2602501394503633
 20
275.4108428536300153
 30
0.0
 40
3.0697806296746819
 50
124.9452593930894011
 51
163.3640097205860116
  0
ARC
  5
7191
  8
0
 10
4351.9974746749658152
 20
276.3914745494740828
 30
0.0
 40
0.3372145407663086
 50
272.5223025912966932
 51
342.4321156028826181
  0
ARC
  5
7192
  8
0
 10
4349.1349552629671962
 20
288.9598649594838093
 30
0.0
 40
4.4783358874570887
 50
272.4237853456529024
 51
320.6692786736762741
  0
ARC
  5
7193
  8
0
 10
4312.8667820967220905
 20
318.6759628718771182
 30
0.0
 40
51.3657207562144364
 50
320.6706129653687185
 51
323.9406848217619199
  0
ARC
  5
7194
  8
0
 10
4353.2808928869062584
 20
289.250472601176682
 30
0.0
 40
1.3741234461201699
 50
323.9052363177339089
 51
344.7940646778793052
  0
ARC
  5
7195
  8
0
 10
4350.9269161860420354
 20
289.7070856646807897
 30
0.0
 40
3.76962774521439
 50
347.4822285595033122
 51
13.7474421063927394
  0
ARC
  5
7196
  8
0
 10
4354.0823576563188908
 20
276.272282937873797
 30
0.0
 40
0.6953822404111457
 50
38.575619704120669
 51
149.1015539077191079
  0
ARC
  5
7197
  8
0
 10
4353.6628542475718859
 20
276.1035133707511022
 30
0.0
 40
1.1360011285861
 50
359.9855039212473002
 51
32.0228518534924191
  0
ARC
  5
7198
  8
0
 10
4355.1044609641758143
 20
275.9573793322264805
 30
0.0
 40
1.7527344094010799
 50
157.4556771184298043
 51
176.0525959492941865
  0
ARC
  5
7199
  8
0
 10
4363.3625882205942617
 20
274.1930337590709996
 30
0.0
 40
2.0594358372788188
 50
71.0247572164056464
 51
90.5051065759852662
  0
ARC
  5
719A
  8
0
 10
4336.2762577342100485
 20
291.7845281925511927
 30
0.0
 40
0.0630373498411975
 50
185.1495163340730983
 51
262.681154517754976
  0
ARC
  5
719B
  8
0
 10
4336.6126526300067781
 20
292.2570657016144082
 30
0.0
 40
0.2667907790733571
 50
97.5201790041790844
 51
163.807676071536207
  0
ARC
  5
719C
  8
0
 10
4336.7764899058784067
 20
293.1029437635621093
 30
0.0
 40
0.4947066439502228
 50
201.5847538176172975
 51
237.0434414832747052
  0
ARC
  5
719D
  8
0
 10
4336.8607284803001676
 20
292.6992536173315784
 30
0.0
 40
0.4718724285701743
 50
95.172697766031618
 51
109.5239155506079953
  0
ARC
  5
719E
  8
0
 10
4361.3196511952428409
 20
-329.0634716499574211
 30
0.0
 40
622.714882499923533
 50
90.7108703070934155
 51
92.2549534165908511
  0
ARC
  5
719F
  8
0
 10
4353.5634584918861947
 20
293.0403003382155021
 30
0.0
 40
0.5639997342843408
 50
12.7958579807021504
 51
86.9152742187509091
  0
ARC
  5
71A0
  8
0
 10
4352.9490667767950072
 20
292.1848402043835904
 30
0.0
 40
0.4638842103859205
 50
273.8528877342803867
 51
278.8819247168852939
  0
ARC
  5
71A1
  8
0
 10
4354.3048395496725789
 20
291.8617153668292872
 30
0.0
 40
0.0298164931426498
 50
193.1873147037223077
 51
248.0531797023847957
  0
ARC
  5
71A2
  8
0
 10
4354.3856246659015596
 20
292.0567118953566137
 30
0.0
 40
0.0301551707033406
 50
83.2654026737890547
 51
99.7016486215670028
  0
ARC
  5
71A3
  8
0
 10
4353.3920614246517289
 20
282.2731844114370006
 30
0.0
 40
9.8639997432745332
 50
75.8342485026148552
 51
84.1983637005327665
  0
ARC
  5
71A4
  8
0
 10
4355.7735380782942229
 20
291.7685379415224247
 30
0.0
 40
0.0760075158873047
 50
291.1782207164695819
 51
64.6696002064543336
  0
ARC
  5
71A5
  8
0
 10
4355.9051554044008299
 20
291.5243567203467023
 30
0.0
 40
0.2021986102050103
 50
121.0059825860624017
 51
172.899222108145608
  0
ARC
  5
71A6
  8
0
 10
4360.3958505135642554
 20
291.2655630845550832
 30
0.0
 40
4.6999185253888269
 50
176.538285814263304
 51
178.2034603682772911
  0
ARC
  5
71A7
  8
0
 10
4352.4246300353615879
 20
291.9928320460119266
 30
0.0
 40
0.5303110258465114
 50
30.6718839814149717
 51
85.5742388771085132
  0
ARC
  5
71A8
  8
0
 10
4354.730638750243088
 20
293.2152638831079798
 30
0.0
 40
2.0804355268429018
 50
207.2293063128379913
 51
218.2932718020416019
  0
ARC
  5
71A9
  8
0
 10
4356.3474628143903828
 20
294.3057105050630184
 30
0.0
 40
3.9266671928775949
 50
208.3496526913604043
 51
216.290491302300012
  0
ARC
  5
71AA
  8
0
 10
4339.0860779659860782
 20
291.4957102769528774
 30
0.0
 40
0.2392922815556649
 50
4.6414997807521479
 51
71.0285997611629938
  0
ARC
  5
71AB
  8
0
 10
4339.435356110828252
 20
291.5240347221786124
 30
0.0
 40
0.1111324591725851
 50
184.6248274418879021
 51
269.4500596458422024
  0
ARC
  5
71AC
  8
0
 10
4340.6310999447687209
 20
291.5785281135088098
 30
0.0
 40
0.2109953350293352
 50
137.1565450320773891
 51
175.4711492462280091
  0
ARC
  5
71AD
  8
0
 10
4373.1075154358395594
 20
1105.3899496948540673
 30
0.0
 40
814.3960701189059819
 50
267.7005707638709282
 51
268.1619393387821901
  0
ARC
  5
71AE
  8
0
 10
4348.9733573850398898
 20
291.5837363979504744
 30
0.0
 40
0.1103298932919391
 50
189.625040874654303
 51
269.5859507339416155
  0
ARC
  5
71AF
  8
0
 10
4348.5745327072336295
 20
291.4572441895708153
 30
0.0
 40
0.3095182075186135
 50
20.4307523486544902
 51
58.8033703821797218
  0
ARC
  5
71B0
  8
0
 10
4349.4569038834797539
 20
291.584093320985005
 30
0.0
 40
0.110688469757769
 50
270.5186112932207152
 51
347.236855694051485
  0
ARC
  5
71B1
  8
0
 10
4349.7753395159206775
 20
291.5153255947832918
 30
0.0
 40
0.2150964143969783
 50
106.0820399774110996
 51
168.1107478255059107
  0
ARC
  5
71B2
  8
0
 10
4351.3515801727144208
 20
291.3694986729720995
 30
0.0
 40
0.2043518455058851
 50
104.6523526776535959
 51
167.7357085171709059
  0
ARC
  5
71B3
  8
0
 10
4352.114238106340963
 20
289.1989982295791037
 30
0.0
 40
2.5043096453904332
 50
95.5819731650744444
 51
108.9764329860234966
  0
ARC
  5
71B4
  8
0
 10
4352.4848681776002195
 20
286.0865356581346077
 30
0.0
 40
5.638451928615213
 50
91.8638657189504499
 51
96.2539157076967768
  0
ARC
  5
71B5
  8
0
 10
4340.8380794306349344
 20
292.627901935897512
 30
0.0
 40
0.0491729361393228
 50
102.6012979190669938
 51
176.3823877287782977
  0
ARC
  5
71B6
  8
0
 10
4349.4773040578356813
 20
292.6429080967789105
 30
0.0
 40
0.037327419468799
 50
8.0115961591006144
 51
62.0790078766347335
  0
ARC
  5
71B7
  8
0
 10
4350.8377696910165469
 20
292.5920264374918247
 30
0.0
 40
0.08434838119749
 50
96.1436189451796963
 51
155.1250417884565991
  0
LINE
  5
71B8
  8
0
 10
4358.0211733195228589
 20
292.0036985766548128
 30
0.0
 11
4357.4534617919225639
 21
304.0429100423547766
 31
0.0
  0
LINE
  5
71B9
  8
0
 10
4357.262911305822854
 20
303.1949211769547787
 30
0.0
 11
4357.4927941890873626
 21
303.2088050015073009
 31
0.0
  0
LINE
  5
71BA
  8
0
 10
4357.3229720857234497
 20
301.9543100458548111
 30
0.0
 11
4357.5521171159398364
 21
301.9507694915425873
 31
0.0
  0
LINE
  5
71BB
  8
0
 10
4364.8674754019230022
 20
292.022087397954806
 30
0.0
 11
4365.0792011590219772
 21
304.1518478997547845
 31
0.0
  0
LINE
  5
71BC
  8
0
 10
4357.0948426279228443
 20
304.0429073820548069
 30
0.0
 11
4364.4865153518230727
 21
304.0429075434548167
 31
0.0
  0
LINE
  5
71BD
  8
0
 10
4365.0658756858219931
 20
304.2929073820548069
 30
0.0
 11
4364.9694022197227241
 21
304.2929073820548069
 31
0.0
  0
LINE
  5
71BE
  8
0
 10
4365.1299084092233898
 20
305.0554494855547887
 30
0.0
 11
4365.2049462987988591
 21
304.4106831571547787
 31
0.0
  0
ARC
  5
71BF
  8
0
 10
4357.1036228450439012
 20
304.1614257697092967
 30
0.0
 40
0.1188431757609017
 50
182.4571718379968956
 51
265.7630872423345068
  0
ARC
  5
71C0
  8
0
 10
4364.1083204537671918
 20
292.174608452591599
 30
0.0
 40
0.7743248074396841
 50
280.3600488664444015
 51
348.6399980727283037
  0
ARC
  5
71C1
  8
0
 10
4364.7909947328489579
 20
304.9806987682630961
 30
0.0
 40
0.3470592885499826
 50
12.4380059047268308
 51
78.7125735597642091
  0
ARC
  5
71C2
  8
0
 10
4364.9270610099356418
 20
304.1466867104912808
 30
0.0
 40
0.1522276677829501
 50
1.9429519619198301
 51
73.8505370221529631
  0
ARC
  5
71C3
  8
0
 10
4365.0456311672260199
 20
304.4578080325009068
 30
0.0
 40
0.1661386922146096
 50
276.9990636954794923
 51
343.5219616511499794
  0
ARC
  5
71C4
  8
0
 10
4364.4865154346880445
 20
304.4953363435345182
 30
0.0
 40
0.4524287977797285
 50
269.9999894932793154
 51
312.7718306617520057
  0
ARC
  5
71C5
  8
0
 10
4365.0868339791577455
 20
303.9500511768133038
 30
0.0
 40
0.3624094308878011
 50
108.9068568879835937
 51
143.969775548646993
  0
ARC
  5
71C6
  8
0
 10
4364.386972272022831
 20
304.0263324360150818
 30
0.0
 40
7.403224783305598
 50
171.7903525994250913
 51
178.9938530430559922
  0
ARC
  5
71C7
  8
0
 10
4357.3362698963883304
 20
305.0403332668090002
 30
0.0
 40
0.2800000234549043
 50
91.7950768349818134
 51
171.1356021033822969
  0
ARC
  5
71C8
  8
0
 10
4361.1066787207164452
 20
185.8897850857601952
 30
0.0
 40
119.4901888140076949
 50
88.2004947442770799
 51
91.8124263571606889
  0
ARC
  5
71C9
  8
0
 10
4358.6778573128631251
 20
292.0720799920100035
 30
0.0
 40
0.6602347196827888
 50
185.9448633951799934
 51
266.7496406231983883
  0
ARC
  5
71CA
  8
0
 10
4360.7385392376527307
 20
302.7228993699129092
 30
0.0
 40
3.628583304820153
 50
175.9106320971530977
 51
188.4043127251233898
  0
ARC
  5
71CB
  8
0
 10
4357.3413651897026284
 20
302.9869947958205216
 30
0.0
 40
0.2222349924460981
 50
110.6722776122379059
 51
181.3749658777975071
  0
ARC
  5
71CC
  8
0
 10
4357.4599328782232988
 20
302.2370655458695978
 30
0.0
 40
0.3141797757190238
 50
188.1446707421729059
 51
244.1554323694278992
  0
ENDSEC
  0
EOF
