  0
SECTION
  2
HEADER
  9
$ACADVER
  1
AC1009
  9
$INSBASE
 10
4341.7678516832747846
 20
273.5997183541908271
 30
0.0
  9
$EXTMIN
 10
4334.2046327229072631
 20
243.2605183541907934
 30
0.0
  9
$EXTMAX
 10
4349.3310706436441251
 20
273.6047564974552984
 30
0.0
  9
$LIMMIN
 10
0.0
 20
0.0
  9
$LIMMAX
 10
11.6929133858000007
 20
8.2677165353999982
  9
$ORTHOMODE
 70
     1
  9
$REGENMODE
 70
     1
  9
$FILLMODE
 70
     1
  9
$QTEXTMODE
 70
     0
  9
$MIRRTEXT
 70
     0
  9
$DRAGMODE
 70
     2
  9
$LTSCALE
 40
0.6431102362
  9
$OSMODE
 70
  4095
  9
$ATTMODE
 70
     1
  9
$TEXTSIZE
 40
0.2
  9
$TRACEWID
 40
0.05
  9
$TEXTSTYLE
  7
STANDARD
  9
$CLAYER
  8
0
  9
$CELTYPE
  6
BYLAYER
  9
$CECOLOR
 62
   256
  9
$DIMSCALE
 40
1.0
  9
$DIMASZ
 40
0.1875
  9
$DIMEXO
 40
0.0625
  9
$DIMDLI
 40
0.4443307087
  9
$DIMRND
 40
0.0
  9
$DIMDLE
 40
0.0
  9
$DIMEXE
 40
0.125
  9
$DIMTP
 40
0.01
  9
$DIMTM
 40
0.01
  9
$DIMTXT
 40
2.0
  9
$DIMCEN
 40
0.1052362205
  9
$DIMTSZ
 40
0.0
  9
$DIMTOL
 70
     1
  9
$DIMLIM
 70
     0
  9
$DIMTIH
 70
     1
  9
$DIMTOH
 70
     1
  9
$DIMSE1
 70
     0
  9
$DIMSE2
 70
     0
  9
$DIMTAD
 70
     0
  9
$DIMZIN
 70
     0
  9
$DIMBLK
  1

  9
$DIMASO
 70
     1
  9
$DIMSHO
 70
     1
  9
$DIMPOST
  1
\X
  9
$DIMAPOST
  1

  9
$DIMALT
 70
     1
  9
$DIMALTD
 70
     2
  9
$DIMALTF
 40
25.3999999999999986
  9
$DIMLFAC
 40
1.0
  9
$DIMTOFL
 70
     0
  9
$DIMTVP
 40
0.0
  9
$DIMTIX
 70
     0
  9
$DIMSOXD
 70
     0
  9
$DIMSAH
 70
     0
  9
$DIMBLK1
  1

  9
$DIMBLK2
  1

  9
$DIMSTYLE
  2
STANDARD
  9
$DIMCLRD
 70
     0
  9
$DIMCLRE
 70
     0
  9
$DIMCLRT
 70
     0
  9
$DIMTFAC
 40
1.0
  9
$DIMGAP
 40
0.09
  9
$LUNITS
 70
     2
  9
$LUPREC
 70
     4
  9
$SKETCHINC
 40
0.1
  9
$FILLETRAD
 40
0.0
  9
$AUNITS
 70
     0
  9
$AUPREC
 70
     0
  9
$MENU
  1
.
  9
$ELEVATION
 40
0.0
  9
$PELEVATION
 40
0.0
  9
$THICKNESS
 40
0.0
  9
$LIMCHECK
 70
     0
  9
$BLIPMODE
 70
     0
  9
$CHAMFERA
 40
0.0
  9
$CHAMFERB
 40
0.0
  9
$SKPOLY
 70
     0
  9
$TDCREATE
 40
2458060.468368056230247
  9
$TDUPDATE
 40
2458994.0356712960638106
  9
$TDINDWG
 40
0.3069630787
  9
$TDUSRTIMER
 40
0.3069630787
  9
$USRTIMER
 70
     1
  9
$ANGBASE
 50
0.0
  9
$ANGDIR
 70
     0
  9
$PDMODE
 70
     0
  9
$PDSIZE
 40
0.3125
  9
$PLINEWID
 40
0.0
  9
$COORDS
 70
     1
  9
$SPLFRAME
 70
     0
  9
$SPLINETYPE
 70
     6
  9
$SPLINESEGS
 70
     8
  9
$ATTDIA
 70
     1
  9
$ATTREQ
 70
     1
  9
$HANDLING
 70
     1
  9
$HANDSEED
  5
7216
  9
$SURFTAB1
 70
     6
  9
$SURFTAB2
 70
     6
  9
$SURFTYPE
 70
     6
  9
$SURFU
 70
     6
  9
$SURFV
 70
     6
  9
$UCSNAME
  2

  9
$UCSORG
 10
0.0
 20
0.0
 30
0.0
  9
$UCSXDIR
 10
1.0
 20
0.0
 30
0.0
  9
$UCSYDIR
 10
0.0
 20
1.0
 30
0.0
  9
$PUCSNAME
  2

  9
$PUCSORG
 10
0.0
 20
0.0
 30
0.0
  9
$PUCSXDIR
 10
1.0
 20
0.0
 30
0.0
  9
$PUCSYDIR
 10
0.0
 20
1.0
 30
0.0
  9
$USERI1
 70
     0
  9
$USERI2
 70
     0
  9
$USERI3
 70
     0
  9
$USERI4
 70
     0
  9
$USERI5
 70
     0
  9
$USERR1
 40
0.0
  9
$USERR2
 40
0.0
  9
$USERR3
 40
0.0
  9
$USERR4
 40
0.0
  9
$USERR5
 40
0.0
  9
$WORLDVIEW
 70
     1
  9
$SHADEDGE
 70
     3
  9
$SHADEDIF
 70
    70
  9
$TILEMODE
 70
     1
  9
$MAXACTVP
 70
    64
  9
$PLIMCHECK
 70
     0
  9
$PEXTMIN
 10
1.0000000000000000E+20
 20
1.0000000000000000E+20
 30
1.0000000000000000E+20
  9
$PEXTMAX
 10
-1.0000000000000000E+20
 20
-1.0000000000000000E+20
 30
-1.0000000000000000E+20
  9
$PLIMMIN
 10
0.0
 20
0.0
  9
$PLIMMAX
 10
12.0
 20
9.0
  9
$UNITMODE
 70
     0
  9
$VISRETAIN
 70
     1
  9
$PLINEGEN
 70
     0
  9
$PSLTSCALE
 70
     1
  0
ENDSEC
  0
SECTION
  2
TABLES
  0
TABLE
  2
VPORT
 70
     1
  0
VPORT
  2
*ACTIVE
 70
     0
 10
0.0
 20
0.0
 11
1.0
 21
1.0
 12
0.0
 22
0.0
 13
0.0
 23
0.0
 14
1.0
 24
1.0
 15
0.0
 25
0.0
 16
0.0
 26
0.0
 36
126.9162709611768065
 17
4341.767822265625
 27
258.4326349015597089
 37
0.0
 40
33.9176601948132728
 41
2.9513274336283182
 42
50.0
 43
0.0
 44
0.0
 50
0.0
 51
0.0
 71
     0
 72
   100
 73
     1
 74
     1
 75
     0
 76
     0
 77
     0
 78
     0
  0
ENDTAB
  0
TABLE
  2
LTYPE
 70
     2
  0
LTYPE
  2
CONTINUOUS
 70
     0
  3
Solid line
 72
    65
 73
     0
 40
0.0
  0
LTYPE
  2
PHANTOM2
 70
     0
  3
___ _ _ ___ _ _ ___ _ _ ___ _ _
 72
    65
 73
     6
 40
1.25
 49
0.625
 49
-0.125
 49
0.125
 49
-0.125
 49
0.125
 49
-0.125
  0
ENDTAB
  0
TABLE
  2
LAYER
 70
     2
  0
LAYER
  2
0
 70
     0
 62
   255
  6
CONTINUOUS
  0
LAYER
  2
DEFPOINTS
 70
     0
 62
     7
  6
CONTINUOUS
  0
ENDTAB
  0
TABLE
  2
STYLE
 70
     1
  0
STYLE
  2
STANDARD
 70
     0
 40
0.0
 41
0.8
 50
0.0
 71
     0
 42
0.2
  3
txt
  4

  0
ENDTAB
  0
TABLE
  2
VIEW
 70
     0
  0
ENDTAB
  0
TABLE
  2
UCS
 70
     0
  0
ENDTAB
  0
TABLE
  2
APPID
 70
     9
  0
APPID
  2
ACAD
 70
     0
  0
APPID
  2
ACAD_MLEADERVER
 70
     0
  0
APPID
  2
ACAD_EXEMPT_FROM_CAD_STANDARDS
 70
     0
  0
APPID
  2
ACAD_NAV_VCDISPLAY
 70
     0
  0
APPID
  2
ACAECLAYERSTANDARD
 70
     0
  0
APPID
  2
ACCMTRANSPARENCY
 70
     0
  0
APPID
  2
ACAD_DSTYLE_DIMJAG
 70
     0
  0
APPID
  2
ACAD_DSTYLE_DIMTALN
 70
     0
  0
APPID
  2
ACDBATTR
 70
     0
  0
ENDTAB
  0
TABLE
  2
DIMSTYLE
 70
     1
  0
DIMSTYLE
  2
STANDARD
 70
     0
  3

  4

  5

  6

  7

 40
1.0
 41
0.1875
 42
0.0625
 43
0.38
 44
0.125
 45
0.0
 46
0.0
 47
0.01
 48
0.01
140
0.15625
141
0.09
142
0.0
143
25.3999999999999986
144
1.0
145
0.0
146
1.0
147
0.09
 71
     1
 72
     0
 73
     1
 74
     1
 75
     0
 76
     0
 77
     0
 78
     4
170
     0
171
     2
172
     0
173
     0
174
     0
175
     0
176
     0
177
     0
178
     0
  0
ENDTAB
  0
ENDSEC
  0
SECTION
  2
BLOCKS
  0
BLOCK
  8
0
  2
$MODEL_SPACE
 70
     0
 10
0.0
 20
0.0
 30
0.0
  3
$MODEL_SPACE
  1

  0
ENDBLK
  5
21
  8
0
  0
BLOCK
 67
     1
  8
0
  2
$PAPER_SPACE
 70
     0
 10
0.0
 20
0.0
 30
0.0
  3
$PAPER_SPACE
  1

  0
ENDBLK
  5
1D
 67
     1
  8
0
  0
ENDSEC
  0
SECTION
  2
ENTITIES
  0
ATTDEF
  5
3930
  8
DEFPOINTS
 10
4341.7635468780108567
 20
273.6037564974552083
 30
0.0
 40
0.001
  1
402325
  3

  2
MODELNUMBER
 70
     0
1001
ACDBATTR
1070
     0
1070
     1
  0
ATTDEF
  5
3931
  8
DEFPOINTS
 10
4341.7635468780108567
 20
273.6020898307886
 30
0.0
 40
0.001
  1
WINDHAM
  3

  2
TRADENAME
 70
     0
1001
ACDBATTR
1070
     0
1070
     1
  0
ATTDEF
  5
3932
  8
DEFPOINTS
 10
4341.7635468780108567
 20
273.600423164121878
 30
0.0
 40
0.001
  1
TOILET
  3

  2
PRODUCT
 70
     0
1001
ACDBATTR
1070
     0
1070
     1
  0
LINE
  5
70DB
  8
0
 10
4335.044126135490842
 20
265.1440529815907894
 30
0.0
 11
4335.0807454979421891
 21
265.4952522252104927
 31
0.0
  0
LINE
  5
70DC
  8
0
 10
4336.1168891431680095
 20
264.9064033451708156
 30
0.0
 11
4336.1319888997386442
 21
265.0316177984780097
 31
0.0
  0
LINE
  5
70DD
  8
0
 10
4337.3307754376246521
 20
264.6488254520908185
 30
0.0
 11
4337.3604546128390211
 21
264.752034359518575
 31
0.0
  0
LINE
  5
70DE
  8
0
 10
4335.7073803747261991
 20
264.9264298866908121
 30
0.0
 11
4335.1384794923260415
 21
265.0428086426907157
 31
0.0
  0
LINE
  5
70DF
  8
0
 10
4335.7107925819263983
 20
272.6597183541907725
 30
0.0
 11
4341.7678516832747846
 21
272.6597183541907725
 31
0.0
  0
ARC
  5
70E0
  8
0
 10
4341.8392624880170843
 20
299.5815085108459925
 30
0.0
 40
35.1162638906923306
 50
261.7528497950033284
 51
269.8835301496480952
  0
ARC
  5
70E1
  8
0
 10
4367.7928975490249286
 20
268.8044488463908124
 30
0.0
 40
33.4618369466999965
 50
174.989955520700903
 51
180.6230111217996068
  0
ARC
  5
70E2
  8
0
 10
4346.1211584540196782
 20
253.5533086141255126
 30
0.0
 40
11.9193435710220896
 50
150.4945150593640903
 51
178.75411437436901
  0
ARC
  5
70E3
  8
0
 10
4305.7227530715517787
 20
273.8457815077854889
 30
0.0
 40
33.30903664981075
 50
334.34323434328752
 51
337.5996333951428028
  0
ARC
  5
70E4
  8
0
 10
4335.1547513804853224
 20
265.1525608860584953
 30
0.0
 40
0.1109519232303407
 50
184.3978147334327105
 51
261.5667495751109186
  0
ARC
  5
70E5
  8
0
 10
4335.8463910261752972
 20
270.8865960582252228
 30
0.0
 40
1.778299641380203
 50
94.3731477799405951
 51
125.8499731869107023
  0
ARC
  5
70E6
  8
0
 10
4335.3197069763346008
 20
271.6315817759743823
 30
0.0
 40
0.8660397454830757
 50
126.4723011410683
 51
173.6954838603842859
  0
ARC
  5
70E7
  8
0
 10
4339.9031097206679988
 20
268.7639588577368954
 30
0.0
 40
5.5794487027447177
 50
183.3224011906858948
 51
215.8051735906007025
  0
ARC
  5
70E8
  8
0
 10
4335.2761129487462313
 20
262.4510280644204272
 30
0.0
 40
3.0504867123086852
 50
88.0837800153959876
 51
93.6720031460537541
  0
ARC
  5
70E9
  8
0
 10
4337.3455104411841603
 20
267.8266423904789235
 30
0.0
 40
3.0470964870578241
 50
229.7846581102211019
 51
259.726438011649293
  0
ARC
  5
70EA
  8
0
 10
4337.2330702680455943
 20
264.6822286067691152
 30
0.0
 40
0.1032573043663869
 50
255.8742895327399935
 51
341.1256193599966764
  0
ARC
  5
70EB
  8
0
 10
4338.0285471280485581
 20
270.6817869821184104
 30
0.0
 40
6.154654385348552
 50
252.2873140178211884
 51
262.3372160544766984
  0
ARC
  5
70EC
  8
0
 10
4336.2050805747712729
 20
264.8933460191429958
 30
0.0
 40
0.0891528034961313
 50
171.5781621186606003
 51
236.6206916475171056
  0
ARC
  5
70ED
  8
0
 10
4334.6063202107370671
 20
259.3427571979792106
 30
0.0
 40
5.6911979564398836
 50
74.1988537035489486
 51
78.8448041071502246
  0
ARC
  5
70EE
  8
0
 10
4322.8870648271231403
 20
266.7844120492015918
 30
0.0
 40
14.7489668441525303
 50
337.5515855838413017
 51
352.0137117163858989
  0
ARC
  5
70EF
  8
0
 10
4377.0460625059167796
 20
260.2776074502684764
 30
0.0
 40
40.5370951669781192
 50
173.7907650365357881
 51
178.7633206109275932
  0
ARC
  5
70F0
  8
0
 10
4357.9016478809489854
 20
255.9983276335314031
 30
0.0
 40
23.7976152633861204
 50
185.2701531867259916
 51
196.8977073320205022
  0
ARC
  5
70F1
  8
0
 10
4344.7865550411906952
 20
252.4295313312271105
 30
0.0
 40
10.2191721865636005
 50
199.1262005305758009
 51
232.0916014029388066
  0
ARC
  5
70F2
  8
0
 10
4341.786608780307688
 20
248.672649776264393
 30
0.0
 40
5.4121639256849612
 50
232.7131294690007906
 51
269.801427920128674
  0
LINE
  5
70F3
  8
0
 10
4338.2841090728898052
 20
261.6542239459907933
 30
0.0
 11
4338.2783168713885971
 21
261.7451947748908196
 31
0.0
  0
LINE
  5
70F4
  8
0
 10
4337.7878787580893913
 20
261.611550667919289
 30
0.0
 11
4337.7878787580893913
 21
261.6920407183907855
 31
0.0
  0
LINE
  5
70F5
  8
0
 10
4338.2678787579898199
 20
261.5067071501907776
 30
0.0
 11
4338.2678787580898643
 21
261.4231807146907158
 31
0.0
  0
LINE
  5
70F6
  8
0
 10
4338.5878787580886637
 20
261.7951299599906747
 30
0.0
 11
4338.5878787580886637
 21
261.7899908349908173
 31
0.0
  0
LINE
  5
70F7
  8
0
 10
4338.3086576717896605
 20
261.7585114175906824
 30
0.0
 11
4338.318091382188868
 21
262.8395075510907759
 31
0.0
  0
LINE
  5
70F8
  8
0
 10
4338.3145196498808218
 20
261.6522496513628084
 30
0.0
 11
4338.3220721607904125
 21
261.7585113429908006
 31
0.0
  0
LINE
  5
70F9
  8
0
 10
4339.5878787580895732
 20
261.7899908349908173
 30
0.0
 11
4339.5878787580895732
 21
261.7951299599906747
 31
0.0
  0
LINE
  5
70FA
  8
0
 10
4339.8670998443885765
 20
261.7585114175906824
 30
0.0
 11
4339.8576661340894134
 21
262.8395075510907759
 31
0.0
  0
LINE
  5
70FB
  8
0
 10
4336.7669846413882624
 20
260.6120142666907782
 30
0.0
 11
4336.8102617041886333
 21
260.6120142666907782
 31
0.0
  0
LINE
  5
70FC
  8
0
 10
4338.437878758089937
 20
261.253180714590826
 30
0.0
 11
4341.7678516832747846
 21
261.253180714590826
 31
0.0
  0
LINE
  5
70FD
  8
0
 10
4338.3137263943226571
 20
261.5523506535673164
 30
0.0
 11
4338.2850135062635673
 21
261.5527953285068747
 31
0.0
  0
LINE
  5
70FE
  8
0
 10
4337.8309651826893969
 20
261.6070449832906775
 30
0.0
 11
4338.1682497486890497
 21
261.6070449823907893
 31
0.0
  0
LINE
  5
70FF
  8
0
 10
4337.7270618071888748
 20
261.7421656160908014
 30
0.0
 11
4337.4854792293899663
 21
261.7421656160908014
 31
0.0
  0
LINE
  5
7100
  8
0
 10
4338.2283188250894455
 20
261.7513285805907799
 30
0.0
 11
4337.8478880211887372
 21
261.7513285805907799
 31
0.0
  0
LINE
  5
7101
  8
0
 10
4338.3841905273893644
 20
261.7585109972907276
 30
0.0
 11
4338.3086576717896605
 21
261.7585114175906824
 31
0.0
  0
LINE
  5
7102
  8
0
 10
4339.791566988789782
 20
261.7585109972907276
 30
0.0
 11
4339.8670998443885765
 21
261.7585114175906824
 31
0.0
  0
LINE
  5
7103
  8
0
 10
4339.5364096905886981
 20
261.7618046420906808
 30
0.0
 11
4338.639347973788972
 21
261.7618046413908246
 31
0.0
  0
LINE
  5
7104
  8
0
 10
4338.5878787580886637
 20
261.7899908349908173
 30
0.0
 11
4339.5878787580895732
 21
261.7899908349908173
 31
0.0
  0
LINE
  5
7105
  8
0
 10
4339.8666190277890564
 20
261.8136075408908141
 30
0.0
 11
4341.7678516832747846
 21
261.8136075408908141
 31
0.0
  0
ARC
  5
7106
  8
0
 10
4302.0682716762894415
 20
282.8744400818907252
 30
0.0
 40
41.1682821939999997
 50
328.0742092292001075
 51
328.9963091400009034
  0
ARC
  5
7107
  8
0
 10
4338.4485934720878504
 20
261.4338954285502723
 30
0.0
 40
0.1810320770955374
 50
183.3931381478184051
 51
266.6068616401987015
  0
ARC
  5
7108
  8
0
 10
4339.2736220199158197
 20
262.7936087382576034
 30
0.0
 40
0.585844884179235
 50
4.4935206399361389
 51
48.0932295763740711
  0
ARC
  5
7109
  8
0
 10
4338.9362254618117731
 20
262.7767653320715908
 30
0.0
 40
0.6213101692693441
 50
133.209070607753489
 51
174.2041791130438071
  0
ARC
  5
710A
  8
0
 10
4339.3728787580903372
 20
261.8811807145906982
 30
0.0
 40
0.125
 50
287.2521954763647045
 51
313.1539116444786259
  0
ARC
  5
710B
  8
0
 10
4338.8028787580897188
 20
261.8811807145906982
 30
0.0
 40
0.125
 50
226.8460883555214025
 51
252.7478053004275864
  0
LINE
  5
710C
  8
0
 10
4337.7659653186892683
 20
261.6150764870906755
 30
0.0
 11
4337.7591632029889297
 21
261.7121668425908183
 31
0.0
  0
LINE
  5
710D
  8
0
 10
4338.8133607835889052
 20
263.3324750808906742
 30
0.0
 11
4339.3623965354618122
 21
263.3324750808906742
 31
0.0
  0
ARC
  5
710E
  8
0
 10
4339.3434658485930413
 20
262.7804959161942975
 30
0.0
 40
0.5523036928758746
 50
54.4069766836137703
 51
88.0357528517695016
  0
ARC
  5
710F
  8
0
 10
4338.830989910916287
 20
262.7843245142705086
 30
0.0
 40
0.5484339794510182
 50
91.8420605895779545
 51
125.715232579495094
  0
ARC
  5
7110
  8
0
 10
4338.3812436611169687
 20
261.7949427811605005
 30
0.0
 40
0.0365507714932021
 50
274.6244292447307203
 51
347.6358919396154192
  0
ARC
  5
7111
  8
0
 10
4338.4387442465831555
 20
261.7617095597690877
 30
0.0
 40
0.0334759750459906
 50
93.3019474896515817
 51
130.627617481412301
  0
LINE
  5
7112
  8
0
 10
4338.4368160986887233
 20
261.7951299599906747
 30
0.0
 11
4339.7389416374026041
 21
261.7951299599906747
 31
0.0
  0
ARC
  5
7113
  8
0
 10
4339.7379094630450709
 20
261.7639932523596826
 30
0.0
 40
0.0311538110992899
 50
47.5483472573309527
 51
88.1013539849561482
  0
ARC
  5
7114
  8
0
 10
4339.7936581013591422
 20
261.7938414675605259
 30
0.0
 40
0.035392299745272
 50
191.1786525672856101
 51
266.6127732904395771
  0
ARC
  5
7115
  8
0
 10
4338.6442386365315542
 20
261.8623686076883246
 30
0.0
 40
0.100682819991611
 50
221.8995280611410976
 51
267.2157648459145776
  0
ARC
  5
7116
  8
0
 10
4338.5222771575690786
 20
264.2110098073297877
 30
0.0
 40
2.452001535317629
 50
267.0821831645362749
 51
272.7366274624980065
  0
ARC
  5
7117
  8
0
 10
4339.53637641496789
 20
261.852156645125774
 30
0.0
 40
0.0903520133625079
 50
270.0211013863349763
 51
320.8641542145351195
  0
ARC
  5
7118
  8
0
 10
4339.6601279453952884
 20
264.4932121715610265
 30
0.0
 40
2.734207983789652
 50
267.4065780743728737
 51
272.4933646656518818
  0
ARC
  5
7119
  8
0
 10
4338.1533796127596361
 20
261.4926483815136748
 30
0.0
 40
0.115359018870465
 50
7.0000204121922831
 51
82.5937883393877286
  0
ARC
  5
711A
  8
0
 10
4337.7222846585345906
 20
261.7048785532826969
 30
0.0
 40
0.0375918369080123
 50
11.1792788317864602
 51
82.6991447049609008
  0
ARC
  5
711B
  8
0
 10
4337.8542920140689603
 20
261.6848330133981904
 30
0.0
 40
0.0668032303189831
 50
95.5010227743627951
 51
173.8060397722366019
  0
ARC
  5
711C
  8
0
 10
4337.8709617202594018
 20
262.197782819851227
 30
0.0
 40
0.5920902925751168
 50
259.7856204043275739
 51
266.1266393385686797
  0
LINE
  5
711D
  8
0
 10
4338.2867978602944277
 20
261.3526870980575723
 30
0.0
 11
4338.2841090728898052
 21
261.6542239459907933
 31
0.0
  0
ARC
  5
711E
  8
0
 10
4338.2092335768438716
 20
261.3889207481187213
 30
0.0
 40
0.3629100215449023
 50
79.0262472287322737
 51
86.9854542970975757
  0
LINE
  5
711F
  8
0
 10
4338.3118438321944268
 20
261.3152693398243969
 30
0.0
 11
4338.3145196498808218
 21
261.6522496513628084
 31
0.0
  0
ARC
  5
7120
  8
0
 10
4337.5049480884035802
 20
261.5546443095361155
 30
0.0
 40
0.1885292468325292
 50
95.9273330382810343
 51
142.6834577987837065
  0
ARC
  5
7121
  8
0
 10
4338.0289842559022873
 20
260.4051985303240144
 30
0.0
 40
1.2361461915413141
 50
145.5870247082411026
 51
170.3687291056236859
  0
ARC
  5
7122
  8
0
 10
4336.7780015063481187
 20
260.4930178667323162
 30
0.0
 40
0.1195052907474101
 50
95.2894509324024739
 51
137.7110507226952905
  0
ARC
  5
7123
  8
0
 10
4345.2244878855190109
 20
254.7467780099414085
 30
0.0
 40
10.3341299956151502
 50
145.6791924482789113
 51
150.7889397466263119
  0
ARC
  5
7124
  8
0
 10
4345.8902391826068197
 20
254.3714298668078015
 30
0.0
 40
11.0983970857575596
 50
150.7749547302869075
 51
160.1404686711969134
  0
ARC
  5
7125
  8
0
 10
4348.9849299716461246
 20
253.702082216455608
 30
0.0
 40
14.2426754648188307
 50
161.8374373512050965
 51
178.5639710354658121
  0
ARC
  5
7126
  8
0
 10
4335.8510457237416631
 20
260.5801763421762871
 30
0.0
 40
0.9597442110189058
 50
344.7837613778115156
 51
1.9010413648332101
  0
ARC
  5
7127
  8
0
 10
4335.3399306925666679
 20
260.8352979282112187
 30
0.0
 40
1.5240236664373961
 50
328.5257200955729786
 51
340.5682224611160791
  0
ARC
  5
7128
  8
0
 10
4346.0478894504012715
 20
254.3062886839134933
 30
0.0
 40
11.0174440179800897
 50
148.6420425632364015
 51
159.036581801804914
  0
ARC
  5
7129
  8
0
 10
4346.5182128160458888
 20
254.1584097109663958
 30
0.0
 40
11.5095827210686998
 50
159.1868094859854068
 51
173.8104143694012009
  0
ARC
  5
712A
  8
0
 10
4348.0221085332095754
 20
254.0192304992127958
 30
0.0
 40
13.01973942737831
 50
173.9150633099889092
 51
179.8249197911893873
  0
ARC
  5
712B
  8
0
 10
4330.8486172998418624
 20
257.122334645317892
 30
0.0
 40
7.9375516861882671
 50
33.3049933874654727
 51
34.9454448215426368
  0
ARC
  5
712C
  8
0
 10
4332.6559066836070997
 20
260.5943343564890142
 30
0.0
 40
4.9073269002773072
 50
355.258883212895114
 51
10.4072291758163704
  0
ARC
  5
712D
  8
0
 10
4324.1352188155869953
 20
261.0567963108500749
 30
0.0
 40
13.4392880299826096
 50
342.0874289756088729
 51
356.2965720125127973
  0
ARC
  5
712E
  8
0
 10
4350.3644770692271777
 20
252.458883665651399
 30
0.0
 40
14.1634366130157598
 50
161.6265259280029056
 51
177.7201218166540002
  0
ARC
  5
712F
  8
0
 10
4349.3109934368858376
 20
254.4394956876228093
 30
0.0
 40
14.5692347486439697
 50
181.4964687935554934
 51
208.095363631354104
  0
ARC
  5
7130
  8
0
 10
4345.984692176108183
 20
253.0389870562005115
 30
0.0
 40
10.9803224546264104
 50
209.8228509046853105
 51
229.1595384004509981
  0
ARC
  5
7131
  8
0
 10
4341.7942672479812245
 20
248.5493022201787028
 30
0.0
 40
4.8490327178515251
 50
231.9272482999602971
 51
251.092219981500989
  0
ARC
  5
7132
  8
0
 10
4341.8194865665745965
 20
248.6713347132807996
 30
0.0
 40
4.9726774597618411
 50
251.2729517188506918
 51
269.4050460582841993
  0
ARC
  5
7133
  8
0
 10
4347.1333573064257507
 20
254.1272692078445914
 30
0.0
 40
12.1311194272346103
 50
180.3223682311320886
 51
195.1702422588035972
  0
ARC
  5
7134
  8
0
 10
4349.3324653407980804
 20
254.7488890737774057
 30
0.0
 40
14.4162853316943007
 50
195.267526892692814
 51
210.0236186491316062
  0
ARC
  5
7135
  8
0
 10
4345.6457776389397623
 20
252.3602892194757885
 30
0.0
 40
10.0316163408702401
 50
208.7473548314040102
 51
228.073222694632193
  0
ARC
  5
7136
  8
0
 10
4341.9641578232940446
 20
248.4942053456053088
 30
0.0
 40
4.6978533695573486
 50
229.9747280477577078
 51
267.6051212719747809
  0
ARC
  5
7137
  8
0
 10
4347.2020003615944006
 20
252.9926665815366107
 30
0.0
 40
10.9897885180726398
 50
179.8454125583753864
 51
206.7481365486891036
  0
ARC
  5
7138
  8
0
 10
4345.4058557891512464
 20
251.7578938232441885
 30
0.0
 40
8.8350110159962156
 50
204.8395191129245063
 51
227.3920959515967013
  0
ARC
  5
7139
  8
0
 10
4341.8030439638632743
 20
247.8923608635519997
 30
0.0
 40
3.551112423451523
 50
227.9536531472998035
 51
269.4321773248926206
  0
LINE
  5
713A
  8
0
 10
4347.8249107846258994
 20
272.6597183541907725
 30
0.0
 11
4341.7678516832747846
 21
272.6597183541907725
 31
0.0
  0
ARC
  5
713B
  8
0
 10
4341.6964408785352134
 20
299.5815085108459925
 30
0.0
 40
35.1162638906923306
 50
270.1164698503517911
 51
278.2471502049966716
  0
ARC
  5
713C
  8
0
 10
4315.7428058175246406
 20
268.8044488463908124
 30
0.0
 40
33.4618369466999965
 50
359.3769888782002795
 51
5.010044479299113
  0
ARC
  5
713D
  8
0
 10
4337.414544912529891
 20
253.5533086141255126
 30
0.0
 40
11.9193435710220896
 50
1.2458856256309709
 51
29.5054849406359097
  0
ARC
  5
713E
  8
0
 10
4377.8129502949987
 20
273.8457815077854889
 30
0.0
 40
33.30903664981075
 50
202.400366604857112
 51
205.6567656567123947
  0
ARC
  5
713F
  8
0
 10
4347.689312340376091
 20
270.8865960582252228
 30
0.0
 40
1.778299641380203
 50
54.1500268130892906
 51
85.6268522200594191
  0
ARC
  5
7140
  8
0
 10
4348.2159963902167874
 20
271.6315817759743823
 30
0.0
 40
0.8660397454830757
 50
6.304516139615667
 51
53.5276988589316929
  0
ARC
  5
7141
  8
0
 10
4343.6325936458842989
 20
268.7639588577368954
 30
0.0
 40
5.5794487027447177
 50
324.1948264093992975
 51
356.6775988093140199
  0
ARC
  5
7142
  8
0
 10
4346.1901929253672279
 20
267.8266423904789235
 30
0.0
 40
3.0470964870578241
 50
280.2735619883505933
 51
310.2153418897788129
  0
ARC
  5
7143
  8
0
 10
4360.6486385394291574
 20
266.7844120492015918
 30
0.0
 40
14.7489668441525303
 50
187.9842883126783022
 51
202.4484144161586983
  0
ARC
  5
7144
  8
0
 10
4306.4896408606327896
 20
260.2776074502684764
 30
0.0
 40
40.5370951669781192
 50
1.2366793890723089
 51
6.4553715263843223
  0
ARC
  5
7145
  8
0
 10
4325.6340554856024028
 20
255.9983276335314031
 30
0.0
 40
23.7976152633861204
 50
343.1022926679794978
 51
354.7298468132740936
  0
ARC
  5
7146
  8
0
 10
4338.7491483253597835
 20
252.4295313312271105
 30
0.0
 40
10.2191721865636005
 50
307.9083985970611934
 51
340.8737994694241138
  0
ARC
  5
7147
  8
0
 10
4341.7490945862418812
 20
248.672649776264393
 30
0.0
 40
5.4121639256849621
 50
270.198572079871326
 51
307.2868705309991242
  0
LINE
  5
7148
  8
0
 10
4345.2515942936634019
 20
261.6542239459907933
 30
0.0
 11
4345.2573864951627911
 21
261.7451947748908196
 31
0.0
  0
LINE
  5
7149
  8
0
 10
4345.7478246084619968
 20
261.611550667919289
 30
0.0
 11
4345.7478246084619968
 21
261.6920407183907855
 31
0.0
  0
LINE
  5
714A
  8
0
 10
4345.2678246085615683
 20
261.5067071501907776
 30
0.0
 11
4345.2678246084624334
 21
261.4231807146907158
 31
0.0
  0
LINE
  5
714B
  8
0
 10
4344.9478246084627244
 20
261.7951299599906747
 30
0.0
 11
4344.9478246084627244
 21
261.7899908349908173
 31
0.0
  0
LINE
  5
714C
  8
0
 10
4345.2270456947626371
 20
261.7585114175906824
 30
0.0
 11
4345.2176119843616107
 21
262.8395075510907759
 31
0.0
  0
LINE
  5
714D
  8
0
 10
4345.2211837166696569
 20
261.6522496513628084
 30
0.0
 11
4345.2136312057618852
 21
261.7585113429908006
 31
0.0
  0
LINE
  5
714E
  8
0
 10
4343.9478246084618149
 20
261.7899908349908173
 30
0.0
 11
4343.9478246084618149
 21
261.7951299599906747
 31
0.0
  0
LINE
  5
714F
  8
0
 10
4343.6686035221619022
 20
261.7585114175906824
 30
0.0
 11
4343.6780372324628843
 21
262.8395075510907759
 31
0.0
  0
LINE
  5
7150
  8
0
 10
4346.7687187251622163
 20
260.6120142666907782
 30
0.0
 11
4346.7254416623618454
 21
260.6120142666907782
 31
0.0
  0
LINE
  5
7151
  8
0
 10
4345.0978246084623606
 20
261.253180714590826
 30
0.0
 11
4341.7678516832747846
 21
261.253180714590826
 31
0.0
  0
LINE
  5
7152
  8
0
 10
4345.2219769722278215
 20
261.5523506535673164
 30
0.0
 11
4345.2506898602869114
 21
261.5527953285068747
 31
0.0
  0
LINE
  5
7153
  8
0
 10
4345.7047381838619913
 20
261.6070449832906775
 30
0.0
 11
4345.3674536178623384
 21
261.6070449823907893
 31
0.0
  0
LINE
  5
7154
  8
0
 10
4345.8086415593616039
 20
261.7421656160908014
 30
0.0
 11
4346.0502241371623313
 21
261.7421656160908014
 31
0.0
  0
LINE
  5
7155
  8
0
 10
4345.3073845414619427
 20
261.7513285805907799
 30
0.0
 11
4345.687815345362651
 21
261.7513285805907799
 31
0.0
  0
LINE
  5
7156
  8
0
 10
4345.1515128391611142
 20
261.7585109972907276
 30
0.0
 11
4345.2270456947626371
 21
261.7585114175906824
 31
0.0
  0
LINE
  5
7157
  8
0
 10
4343.7441363777616061
 20
261.7585109972907276
 30
0.0
 11
4343.6686035221619022
 21
261.7585114175906824
 31
0.0
  0
LINE
  5
7158
  8
0
 10
4343.9992936759617805
 20
261.7618046420906808
 30
0.0
 11
4344.8963553927624162
 21
261.7618046413908246
 31
0.0
  0
LINE
  5
7159
  8
0
 10
4344.9478246084627244
 20
261.7899908349908173
 30
0.0
 11
4343.9478246084618149
 21
261.7899908349908173
 31
0.0
  0
LINE
  5
715A
  8
0
 10
4343.6690843387623318
 20
261.8136075408908141
 30
0.0
 11
4341.7678516832747846
 21
261.8136075408908141
 31
0.0
  0
ARC
  5
715B
  8
0
 10
4381.4674316902628561
 20
282.8744400818907252
 30
0.0
 40
41.1682821939999997
 50
211.0036908599990966
 51
211.9257907707998925
  0
ARC
  5
715C
  8
0
 10
4345.0871098944626283
 20
261.4338954285502723
 30
0.0
 40
0.1810320770955374
 50
273.3931383598012985
 51
356.6068618521815097
  0
ARC
  5
715D
  8
0
 10
4344.2620813466337495
 20
262.7936087382576034
 30
0.0
 40
0.585844884179235
 50
131.9067704236236978
 51
175.5064793600637927
  0
ARC
  5
715E
  8
0
 10
4344.599477904739615
 20
262.7767653320715908
 30
0.0
 40
0.6213101692693441
 50
5.795820886956192
 51
46.7909293922464897
  0
ARC
  5
715F
  8
0
 10
4344.1628246084619605
 20
261.8811807145906982
 30
0.0
 40
0.125
 50
226.8460883555214025
 51
252.7478045236352955
  0
ARC
  5
7160
  8
0
 10
4344.7328246084616694
 20
261.8811807145906982
 30
0.0
 40
0.125
 50
287.2521946995202029
 51
313.1539116444786259
  0
LINE
  5
7161
  8
0
 10
4345.7697380478621199
 20
261.6150764870906755
 30
0.0
 11
4345.776540163561549
 21
261.7121668425908183
 31
0.0
  0
LINE
  5
7162
  8
0
 10
4344.7223425829615735
 20
263.3324750808906742
 30
0.0
 11
4344.1733068310886665
 21
263.3324750808906742
 31
0.0
  0
ARC
  5
7163
  8
0
 10
4344.1922375179583469
 20
262.7804959161942975
 30
0.0
 40
0.5523036928758746
 50
91.9642471482304984
 51
125.5930233163861942
  0
ARC
  5
7164
  8
0
 10
4344.7047134556360106
 20
262.7843245142705086
 30
0.0
 40
0.5484339794510182
 50
54.2847674205048421
 51
88.1579394104220313
  0
ARC
  5
7165
  8
0
 10
4345.1544597054344194
 20
261.7949427811605005
 30
0.0
 40
0.0365507714932021
 50
192.3641080603846092
 51
265.3755707552693934
  0
ARC
  5
7166
  8
0
 10
4345.0969591199682327
 20
261.7617095597690877
 30
0.0
 40
0.0334759750459906
 50
49.3723825185876706
 51
86.6980525103484183
  0
LINE
  5
7167
  8
0
 10
4345.0988872678617554
 20
261.7951299599906747
 30
0.0
 11
4343.7967617291487841
 21
261.7951299599906747
 31
0.0
  0
ARC
  5
7168
  8
0
 10
4343.7977939035063173
 20
261.7639932523596826
 30
0.0
 40
0.0311538110992899
 50
91.8986460150438376
 51
132.4516527426690971
  0
ARC
  5
7169
  8
0
 10
4343.742045265194065
 20
261.7938414675605259
 30
0.0
 40
0.035392299745272
 50
273.3872267095084112
 51
348.8213474327142762
  0
ARC
  5
716A
  8
0
 10
4344.891464730019834
 20
261.8623686076883246
 30
0.0
 40
0.100682819991611
 50
272.7842351540854224
 51
318.1004719388589024
  0
ARC
  5
716B
  8
0
 10
4345.0134262089814001
 20
264.2110098073297877
 30
0.0
 40
2.452001535317629
 50
267.2633725375021072
 51
272.9178168354637251
  0
ARC
  5
716C
  8
0
 10
4343.9993269515853171
 20
261.852156645125774
 30
0.0
 40
0.0903520133625079
 50
219.1358457854649089
 51
269.97889861366491
  0
ARC
  5
716D
  8
0
 10
4343.8755754211551903
 20
264.4932121715610265
 30
0.0
 40
2.734207983789652
 50
267.5066353343481182
 51
272.5934219256270126
  0
ARC
  5
716E
  8
0
 10
4345.3823237537908426
 20
261.4926483815136748
 30
0.0
 40
0.115359018870465
 50
97.4062116606122714
 51
172.9999795878077009
  0
ARC
  5
716F
  8
0
 10
4345.8134187080167976
 20
261.7048785532826969
 30
0.0
 40
0.0375918369080123
 50
97.3008552950391135
 51
168.8207211682135096
  0
ARC
  5
7170
  8
0
 10
4345.6814113524833374
 20
261.6848330133981904
 30
0.0
 40
0.0668032303189831
 50
6.1939602277634069
 51
84.4989772256372333
  0
ARC
  5
7171
  8
0
 10
4345.6647416462919864
 20
262.197782819851227
 30
0.0
 40
0.5920902925751168
 50
273.8733606614313203
 51
280.2143795956724261
  0
LINE
  5
7172
  8
0
 10
4345.24890550625787
 20
261.3526870980575723
 30
0.0
 11
4345.2515942936634019
 21
261.6542239459907933
 31
0.0
  0
ARC
  5
7173
  8
0
 10
4345.3264697897084261
 20
261.3889207481187213
 30
0.0
 40
0.3629100215449023
 50
93.0145457029024243
 51
100.9737527712676979
  0
LINE
  5
7174
  8
0
 10
4345.2238595343569614
 20
261.3152693398243969
 30
0.0
 11
4345.2211837166696569
 21
261.6522496513628084
 31
0.0
  0
ARC
  5
7175
  8
0
 10
4346.030755278147808
 20
261.5546443095361155
 30
0.0
 40
0.1885292468325292
 50
37.3165422012162935
 51
84.0726669617189657
  0
ARC
  5
7176
  8
0
 10
4345.5067191106500104
 20
260.4051985303240144
 30
0.0
 40
1.2361461915413141
 50
9.6312708943763337
 51
34.4129752917588903
  0
ARC
  5
7177
  8
0
 10
4346.7577018602032695
 20
260.4930178667323162
 30
0.0
 40
0.1195052907474101
 50
42.2889492773046669
 51
84.7105490675975261
  0
ARC
  5
7178
  8
0
 10
4338.3112154810332868
 20
254.7467780099414085
 30
0.0
 40
10.3341299956151502
 50
29.211060253373649
 51
34.3208075517211171
  0
ARC
  5
7179
  8
0
 10
4337.6454641839427495
 20
254.3714298668078015
 30
0.0
 40
11.0983970857575596
 50
19.8595313288030901
 51
29.2250452697130392
  0
ARC
  5
717A
  8
0
 10
4334.5507733949052636
 20
253.702082216455608
 30
0.0
 40
14.2426754648188307
 50
1.4360289645341959
 51
18.1625626487949283
  0
ARC
  5
717B
  8
0
 10
4347.6846576428106346
 20
260.5801763421762871
 30
0.0
 40
0.9597442110189058
 50
178.0989586351668095
 51
195.2162386221885129
  0
ARC
  5
717C
  8
0
 10
4348.1957726739838108
 20
260.8352979282112187
 30
0.0
 40
1.5240236664373961
 50
199.4317775388838072
 51
211.474279904426993
  0
ARC
  5
717D
  8
0
 10
4337.4878139161501167
 20
254.3062886839134933
 30
0.0
 40
11.0174440179800897
 50
20.9634181981950505
 51
31.3579574367635594
  0
ARC
  5
717E
  8
0
 10
4337.0174905505045899
 20
254.1584097109663958
 30
0.0
 40
11.5095827210686998
 50
6.1895856305987849
 51
20.8131905140146003
  0
ARC
  5
717F
  8
0
 10
4335.5135948333418128
 20
254.0192304992127958
 30
0.0
 40
13.01973942737831
 50
0.1750802088106197
 51
6.0849366900110384
  0
ARC
  5
7180
  8
0
 10
4352.6870860667077068
 20
257.122334645317892
 30
0.0
 40
7.9375516861882671
 50
145.0545551784574059
 51
146.6950066125345131
  0
ARC
  5
7181
  8
0
 10
4350.8797966829442885
 20
260.5943343564890142
 30
0.0
 40
4.9073269002773072
 50
169.5927708241835887
 51
184.7411167871032944
  0
ARC
  5
7182
  8
0
 10
4359.4004845509625738
 20
261.0567963108500749
 30
0.0
 40
13.4392880299826096
 50
183.703427987487288
 51
197.9125710243910135
  0
ARC
  5
7183
  8
0
 10
4333.1712262973242105
 20
252.458883665651399
 30
0.0
 40
14.1634366130157598
 50
2.279878183345978
 51
18.3734740719970588
  0
ARC
  5
7184
  8
0
 10
4334.2247099296655506
 20
254.4394956876228093
 30
0.0
 40
14.5692347486439697
 50
331.9046363686459244
 51
358.5035312064445066
  0
ARC
  5
7185
  8
0
 10
4337.5510111904432051
 20
253.0389870562005115
 30
0.0
 40
10.9803224546264104
 50
310.8404615995489735
 51
330.1771490953146895
  0
ARC
  5
7186
  8
0
 10
4341.7414361185710732
 20
248.5493022201787028
 30
0.0
 40
4.8490327178515251
 50
288.907780018499011
 51
308.0727517000398166
  0
ARC
  5
7187
  8
0
 10
4341.7162167999758822
 20
248.6713347132807996
 30
0.0
 40
4.9726774597618411
 50
270.5949539417158007
 51
288.7270482811492798
  0
ARC
  5
7188
  8
0
 10
4336.402346060124728
 20
254.1272692078445914
 30
0.0
 40
12.1311194272346103
 50
344.8297577411963744
 51
359.6776317688679114
  0
ARC
  5
7189
  8
0
 10
4334.2032380257542172
 20
254.7488890737774057
 30
0.0
 40
14.4162853316943007
 50
329.9763813508682802
 51
344.7324731073072144
  0
ARC
  5
718A
  8
0
 10
4337.8899257276107164
 20
252.3602892194757885
 30
0.0
 40
10.0316163408702401
 50
311.9267773053679207
 51
331.2526451685959046
  0
ARC
  5
718B
  8
0
 10
4341.571545543256434
 20
248.4942053456053088
 30
0.0
 40
4.6978533695573486
 50
272.3948787280252191
 51
310.0252719522424059
  0
ARC
  5
718C
  8
0
 10
4336.3337030049578971
 20
252.9926665815366107
 30
0.0
 40
10.9897885180726398
 50
333.2518634513108964
 51
0.1545874416245999
  0
ARC
  5
718D
  8
0
 10
4338.1298475774010512
 20
251.7578938232441885
 30
0.0
 40
8.8350110159962156
 50
312.6079040484033271
 51
335.16048088707538
  0
ARC
  5
718E
  8
0
 10
4341.7326594026881139
 20
247.8923608635519997
 30
0.0
 40
3.551112423451523
 50
270.5678226751074931
 51
312.0463468527001965
  0
ENDSEC
  0
EOF
