  0
SECTION
  2
HEADER
  9
$ACADVER
  1
AC1009
  9
$INSBASE
 10
4295.158433002637139
 20
234.4981544992386944
 30
0.0
  9
$EXTMIN
 10
4287.5952140422696175
 20
234.4928333960993996
 30
0.0
  9
$EXTMAX
 10
4302.721651963007389
 20
264.8038036941018163
 30
0.0
  9
$LIMMIN
 10
0.0
 20
0.0
  9
$LIMMAX
 10
11.6929133858000007
 20
8.2677165353999982
  9
$ORTHOMODE
 70
     1
  9
$REGENMODE
 70
     1
  9
$FILLMODE
 70
     1
  9
$QTEXTMODE
 70
     0
  9
$MIRRTEXT
 70
     0
  9
$DRAGMODE
 70
     2
  9
$LTSCALE
 40
0.6431102362
  9
$OSMODE
 70
  4095
  9
$ATTMODE
 70
     1
  9
$TEXTSIZE
 40
0.2
  9
$TRACEWID
 40
0.05
  9
$TEXTSTYLE
  7
STANDARD
  9
$CLAYER
  8
0
  9
$CELTYPE
  6
BYLAYER
  9
$CECOLOR
 62
   256
  9
$DIMSCALE
 40
1.0
  9
$DIMASZ
 40
0.1875
  9
$DIMEXO
 40
0.0625
  9
$DIMDLI
 40
0.4443307087
  9
$DIMRND
 40
0.0
  9
$DIMDLE
 40
0.0
  9
$DIMEXE
 40
0.125
  9
$DIMTP
 40
0.01
  9
$DIMTM
 40
0.01
  9
$DIMTXT
 40
2.0
  9
$DIMCEN
 40
0.1052362205
  9
$DIMTSZ
 40
0.0
  9
$DIMTOL
 70
     1
  9
$DIMLIM
 70
     0
  9
$DIMTIH
 70
     1
  9
$DIMTOH
 70
     1
  9
$DIMSE1
 70
     0
  9
$DIMSE2
 70
     0
  9
$DIMTAD
 70
     0
  9
$DIMZIN
 70
     0
  9
$DIMBLK
  1

  9
$DIMASO
 70
     1
  9
$DIMSHO
 70
     1
  9
$DIMPOST
  1
\X
  9
$DIMAPOST
  1

  9
$DIMALT
 70
     1
  9
$DIMALTD
 70
     2
  9
$DIMALTF
 40
25.3999999999999986
  9
$DIMLFAC
 40
1.0
  9
$DIMTOFL
 70
     0
  9
$DIMTVP
 40
0.0
  9
$DIMTIX
 70
     0
  9
$DIMSOXD
 70
     0
  9
$DIMSAH
 70
     0
  9
$DIMBLK1
  1

  9
$DIMBLK2
  1

  9
$DIMSTYLE
  2
STANDARD
  9
$DIMCLRD
 70
     0
  9
$DIMCLRE
 70
     0
  9
$DIMCLRT
 70
     0
  9
$DIMTFAC
 40
1.0
  9
$DIMGAP
 40
0.09
  9
$LUNITS
 70
     2
  9
$LUPREC
 70
     4
  9
$SKETCHINC
 40
0.1
  9
$FILLETRAD
 40
0.0
  9
$AUNITS
 70
     0
  9
$AUPREC
 70
     0
  9
$MENU
  1
.
  9
$ELEVATION
 40
0.0
  9
$PELEVATION
 40
0.0
  9
$THICKNESS
 40
0.0
  9
$LIMCHECK
 70
     0
  9
$BLIPMODE
 70
     0
  9
$CHAMFERA
 40
0.0
  9
$CHAMFERB
 40
0.0
  9
$SKPOLY
 70
     0
  9
$TDCREATE
 40
2458060.468368056230247
  9
$TDUPDATE
 40
2458994.0360069437883794
  9
$TDINDWG
 40
0.3061760417
  9
$TDUSRTIMER
 40
0.3061760417
  9
$USRTIMER
 70
     1
  9
$ANGBASE
 50
0.0
  9
$ANGDIR
 70
     0
  9
$PDMODE
 70
     0
  9
$PDSIZE
 40
0.3125
  9
$PLINEWID
 40
0.0
  9
$COORDS
 70
     1
  9
$SPLFRAME
 70
     0
  9
$SPLINETYPE
 70
     6
  9
$SPLINESEGS
 70
     8
  9
$ATTDIA
 70
     1
  9
$ATTREQ
 70
     1
  9
$HANDLING
 70
     1
  9
$HANDSEED
  5
70A4
  9
$SURFTAB1
 70
     6
  9
$SURFTAB2
 70
     6
  9
$SURFTYPE
 70
     6
  9
$SURFU
 70
     6
  9
$SURFV
 70
     6
  9
$UCSNAME
  2

  9
$UCSORG
 10
0.0
 20
0.0
 30
0.0
  9
$UCSXDIR
 10
1.0
 20
0.0
 30
0.0
  9
$UCSYDIR
 10
0.0
 20
1.0
 30
0.0
  9
$PUCSNAME
  2

  9
$PUCSORG
 10
0.0
 20
0.0
 30
0.0
  9
$PUCSXDIR
 10
1.0
 20
0.0
 30
0.0
  9
$PUCSYDIR
 10
0.0
 20
1.0
 30
0.0
  9
$USERI1
 70
     0
  9
$USERI2
 70
     0
  9
$USERI3
 70
     0
  9
$USERI4
 70
     0
  9
$USERI5
 70
     0
  9
$USERR1
 40
0.0
  9
$USERR2
 40
0.0
  9
$USERR3
 40
0.0
  9
$USERR4
 40
0.0
  9
$USERR5
 40
0.0
  9
$WORLDVIEW
 70
     1
  9
$SHADEDGE
 70
     3
  9
$SHADEDIF
 70
    70
  9
$TILEMODE
 70
     1
  9
$MAXACTVP
 70
    64
  9
$PLIMCHECK
 70
     0
  9
$PEXTMIN
 10
1.0000000000000000E+20
 20
1.0000000000000000E+20
 30
1.0000000000000000E+20
  9
$PEXTMAX
 10
-1.0000000000000000E+20
 20
-1.0000000000000000E+20
 30
-1.0000000000000000E+20
  9
$PLIMMIN
 10
0.0
 20
0.0
  9
$PLIMMAX
 10
12.0
 20
9.0
  9
$UNITMODE
 70
     0
  9
$VISRETAIN
 70
     1
  9
$PLINEGEN
 70
     0
  9
$PSLTSCALE
 70
     1
  0
ENDSEC
  0
SECTION
  2
TABLES
  0
TABLE
  2
VPORT
 70
     1
  0
VPORT
  2
*ACTIVE
 70
     0
 10
0.0
 20
0.0
 11
1.0
 21
1.0
 12
0.0
 22
0.0
 13
0.0
 23
0.0
 14
1.0
 24
1.0
 15
0.0
 25
0.0
 16
0.0
 26
0.0
 36
126.7917571570246054
 17
4295.158447265625
 27
249.6483179431668873
 37
0.0
 40
33.8797128016026008
 41
2.9513274336283182
 42
50.0
 43
0.0
 44
0.0
 50
0.0
 51
0.0
 71
     0
 72
   100
 73
     1
 74
     1
 75
     0
 76
     0
 77
     0
 78
     0
  0
ENDTAB
  0
TABLE
  2
LTYPE
 70
     2
  0
LTYPE
  2
CONTINUOUS
 70
     0
  3
Solid line
 72
    65
 73
     0
 40
0.0
  0
LTYPE
  2
PHANTOM2
 70
     0
  3
___ _ _ ___ _ _ ___ _ _ ___ _ _
 72
    65
 73
     6
 40
1.25
 49
0.625
 49
-0.125
 49
0.125
 49
-0.125
 49
0.125
 49
-0.125
  0
ENDTAB
  0
TABLE
  2
LAYER
 70
     2
  0
LAYER
  2
0
 70
     0
 62
   255
  6
CONTINUOUS
  0
LAYER
  2
DEFPOINTS
 70
     0
 62
     7
  6
CONTINUOUS
  0
ENDTAB
  0
TABLE
  2
STYLE
 70
     1
  0
STYLE
  2
STANDARD
 70
     0
 40
0.0
 41
0.8
 50
0.0
 71
     0
 42
0.2
  3
txt
  4

  0
ENDTAB
  0
TABLE
  2
VIEW
 70
     0
  0
ENDTAB
  0
TABLE
  2
UCS
 70
     0
  0
ENDTAB
  0
TABLE
  2
APPID
 70
     9
  0
APPID
  2
ACAD
 70
     0
  0
APPID
  2
ACAD_MLEADERVER
 70
     0
  0
APPID
  2
ACAD_EXEMPT_FROM_CAD_STANDARDS
 70
     0
  0
APPID
  2
ACAD_NAV_VCDISPLAY
 70
     0
  0
APPID
  2
ACAECLAYERSTANDARD
 70
     0
  0
APPID
  2
ACCMTRANSPARENCY
 70
     0
  0
APPID
  2
ACAD_DSTYLE_DIMJAG
 70
     0
  0
APPID
  2
ACAD_DSTYLE_DIMTALN
 70
     0
  0
APPID
  2
ACDBATTR
 70
     0
  0
ENDTAB
  0
TABLE
  2
DIMSTYLE
 70
     1
  0
DIMSTYLE
  2
STANDARD
 70
     0
  3

  4

  5

  6

  7

 40
1.0
 41
0.1875
 42
0.0625
 43
0.38
 44
0.125
 45
0.0
 46
0.0
 47
0.01
 48
0.01
140
0.15625
141
0.09
142
0.0
143
25.3999999999999986
144
1.0
145
0.0
146
1.0
147
0.09
 71
     1
 72
     0
 73
     1
 74
     1
 75
     0
 76
     0
 77
     0
 78
     4
170
     0
171
     2
172
     0
173
     0
174
     0
175
     0
176
     0
177
     0
178
     0
  0
ENDTAB
  0
ENDSEC
  0
SECTION
  2
BLOCKS
  0
BLOCK
  8
0
  2
$MODEL_SPACE
 70
     0
 10
0.0
 20
0.0
 30
0.0
  3
$MODEL_SPACE
  1

  0
ENDBLK
  5
21
  8
0
  0
BLOCK
 67
     1
  8
0
  2
$PAPER_SPACE
 70
     0
 10
0.0
 20
0.0
 30
0.0
  3
$PAPER_SPACE
  1

  0
ENDBLK
  5
1D
 67
     1
  8
0
  0
ENDSEC
  0
SECTION
  2
ENTITIES
  0
ATTDEF
  5
3930
  8
DEFPOINTS
 10
4295.1542028368621686
 20
234.4961667294327015
 30
0.0
 40
0.001
  1
402325
  3

  2
MODELNUMBER
 70
     0
1001
ACDBATTR
1070
     0
1070
     1
  0
ATTDEF
  5
3931
  8
DEFPOINTS
 10
4295.1542028368621686
 20
234.4945000627660079
 30
0.0
 40
0.001
  1
WINDHAM
  3

  2
TRADENAME
 70
     0
1001
ACDBATTR
1070
     0
1070
     1
  0
ATTDEF
  5
3932
  8
DEFPOINTS
 10
4295.1542028368621686
 20
234.4928333960993996
 30
0.0
 40
0.001
  1
TOILET
  3

  2
PRODUCT
 70
     0
1001
ACDBATTR
1070
     0
1070
     1
  0
LINE
  5
6F28
  8
0
 10
4300.3418038497884481
 20
234.4981544992386944
 30
0.0
 11
4289.9750621554876489
 21
234.4981544992386944
 31
0.0
  0
LINE
  5
6F29
  8
0
 10
4289.5797887051876387
 20
252.0762301655387034
 30
0.0
 11
4289.5808143013882727
 21
252.0997201799387142
 31
0.0
  0
LINE
  5
6F2A
  8
0
 10
4290.114546303087991
 20
252.0162306288387128
 30
0.0
 11
4290.114241588888035
 21
252.0232097308386869
 31
0.0
  0
LINE
  5
6F2B
  8
0
 10
4291.7041649678876638
 20
252.0997201799387142
 30
0.0
 11
4291.7047343515650937
 21
252.0344752700333117
 31
0.0
  0
LINE
  5
6F2C
  8
0
 10
4291.1831350008869777
 20
251.9453915621386955
 30
0.0
 11
4291.1841750793882966
 21
252.0997201799387142
 31
0.0
  0
LINE
  5
6F2D
  8
0
 10
4291.674051238287575
 20
252.0627851638386971
 30
0.0
 11
4291.674051238287575
 21
252.0997201799387142
 31
0.0
  0
LINE
  5
6F2E
  8
0
 10
4290.8962273396882665
 20
252.0162306288387128
 30
0.0
 11
4290.8997688284880496
 21
252.0997201799387142
 31
0.0
  0
LINE
  5
6F2F
  8
0
 10
4292.0783342997883665
 20
250.9376520481386876
 30
0.0
 11
4292.0822259703882082
 21
250.9821559483386864
 31
0.0
  0
LINE
  5
6F30
  8
0
 10
4289.9590043452881218
 20
235.1333229721386999
 30
0.0
 11
4289.8761587419876378
 21
234.6131379472386982
 31
0.0
  0
LINE
  5
6F31
  8
0
 10
4288.8566232146877155
 20
250.8972391798386923
 30
0.0
 11
4290.2757007607879132
 21
250.8972391798386923
 31
0.0
  0
LINE
  5
6F32
  8
0
 10
4289.0699452150884099
 20
251.9997201798387039
 30
0.0
 11
4289.4998648676883022
 21
251.9997201798387039
 31
0.0
  0
ARC
  5
6F33
  8
0
 10
4289.0826339946761436
 20
252.0986858926056868
 30
0.0
 40
0.0997758359069408
 50
209.3903642078043958
 51
262.6937462418978271
  0
ARC
  5
6F34
  8
0
 10
4289.4961304116641259
 20
252.083621266134088
 30
0.0
 40
0.0839841559065636
 50
272.548565747267503
 51
354.9511021122676766
  0
ARC
  5
6F35
  8
0
 10
4290.0279190162000305
 20
252.013036013649895
 30
0.0
 40
0.0869200269284905
 50
6.7216995580733814
 51
85.7781412877032921
  0
ARC
  5
6F36
  8
0
 10
4288.9215945808909964
 20
252.0198045652940095
 30
0.0
 40
0.0799156341093876
 50
21.9835236490132715
 51
90.0399894517765631
  0
ARC
  5
6F37
  8
0
 10
4291.96782760134829
 20
250.9476954782473967
 30
0.0
 40
0.1109621597049724
 50
270.477778617525928
 51
354.8069252662946838
  0
ARC
  5
6F38
  8
0
 10
4290.8173350877159464
 20
252.0241614470598961
 30
0.0
 40
0.0792898814660079
 50
276.5654819075497244
 51
354.2595004339190154
  0
ARC
  5
6F39
  8
0
 10
4290.1932852111604006
 20
252.0233029045463979
 30
0.0
 40
0.0790558836018939
 50
185.1324957410070908
 51
260.238611345419713
  0
LINE
  5
6F3A
  8
0
 10
4291.1462082927882875
 20
251.9453915621386955
 30
0.0
 11
4291.1471239164729923
 21
252.0448177320095056
 31
0.0
  0
LINE
  5
6F3B
  8
0
 10
4288.4446893293879839
 20
261.8531835996387258
 30
0.0
 11
4288.4813170482202622
 21
261.9024645293890785
 31
0.0
  0
LINE
  5
6F3C
  8
0
 10
4288.5931561838260677
 20
252.0997201799387142
 30
0.0
 11
4288.5986764927883996
 21
251.9453915621386955
 31
0.0
  0
LINE
  5
6F3D
  8
0
 10
4288.580942947265612
 20
252.4524035832338029
 30
0.0
 11
4288.1893075058869726
 21
263.4667371764386985
 31
0.0
  0
LINE
  5
6F3E
  8
0
 10
4288.1373090433562538
 20
251.2217201799386999
 30
0.0
 11
4288.1373090433562538
 21
251.195826090238711
 31
0.0
  0
LINE
  5
6F3F
  8
0
 10
4288.3930112108073445
 20
252.1747201799387028
 30
0.0
 11
4288.3930112108073445
 21
252.154720182338707
 31
0.0
  0
LINE
  5
6F40
  8
0
 10
4288.4449294373098382
 20
252.3685683337386934
 30
0.0
 11
4288.3930112108073445
 21
252.1747201799387028
 31
0.0
  0
LINE
  5
6F41
  8
0
 10
4288.1373090433562538
 20
251.2217201799386999
 30
0.0
 11
4288.2815595613546975
 21
251.7600704755386971
 31
0.0
  0
LINE
  5
6F42
  8
0
 10
4302.1055187979882248
 20
250.836737176438703
 30
0.0
 11
4288.2113472072887816
 21
250.836737176438703
 31
0.0
  0
LINE
  5
6F43
  8
0
 10
4289.2352529607878751
 20
261.8095706565385967
 30
0.0
 11
4288.5296624912880361
 21
261.9222280369386908
 31
0.0
  0
LINE
  5
6F44
  8
0
 10
4289.1297865043879938
 20
261.7519999682386924
 30
0.0
 11
4288.4924824776880996
 21
261.8721899381386038
 31
0.0
  0
LINE
  5
6F45
  8
0
 10
4287.8316436252871426
 20
263.4667371764386985
 30
0.0
 11
4295.158433002637139
 21
263.4667371764386985
 31
0.0
  0
ARC
  5
6F46
  8
0
 10
4287.8433734488216942
 20
263.5881664797813073
 30
0.0
 40
0.1219945263952837
 50
183.7629008455612905
 51
264.4824635124663246
  0
ARC
  5
6F47
  8
0
 10
4288.551903257689446
 20
261.7843831046386072
 30
0.0
 40
0.099997479
 50
200.094866203405104
 51
247.951869012213109
  0
ARC
  5
6F48
  8
0
 10
4288.1909520999615779
 20
251.1994041948152017
 30
0.0
 40
0.0537622577138067
 50
183.8160960804997899
 51
265.1526141257228915
  0
ARC
  5
6F49
  8
0
 10
4288.2472827589581357
 20
250.4853202385710915
 30
0.0
 40
0.3532495266720874
 50
95.83871507011483
 51
154.3018099678658928
  0
ARC
  5
6F4A
  8
0
 10
4292.5232271759650757
 20
248.8557659166864084
 30
0.0
 40
4.92801313369492
 50
158.7919749862356014
 51
187.1379178112765942
  0
ARC
  5
6F4B
  8
0
 10
4292.7325836326872377
 20
248.9239385609070894
 30
0.0
 40
5.1443865140529956
 50
187.6015789860518055
 51
250.493041982850599
  0
LINE
  5
6F4C
  8
0
 10
4288.1864090841545476
 20
251.1458342278386908
 30
0.0
 11
4302.1304569211206399
 21
251.1458342278386908
 31
0.0
  0
LINE
  5
6F4D
  8
0
 10
4288.5271899410554397
 20
251.9453915621386955
 30
0.0
 11
4301.7896760642197478
 21
251.9453915621386955
 31
0.0
  0
ARC
  5
6F4E
  8
0
 10
4288.574898478715113
 20
251.6267135229099949
 30
0.0
 40
0.3222294171118358
 50
98.5143826030685972
 51
155.5526327640428121
  0
LINE
  5
6F4F
  8
0
 10
4288.4479735677086865
 20
252.0997201799387142
 30
0.0
 11
4301.8688924375692295
 21
252.0997201799389131
 31
0.0
  0
ARC
  5
6F50
  8
0
 10
4288.4533054756202546
 20
252.1600108081377982
 30
0.0
 40
0.060525937337723
 50
185.0146746278439878
 51
264.9460950741724901
  0
ARC
  5
6F51
  8
0
 10
4288.5057390672027395
 20
252.347372362395987
 30
0.0
 40
0.0643978282939014
 50
114.9249333262768999
 51
160.7833486016886866
  0
ARC
  5
6F52
  8
0
 10
4291.0272999930757578
 20
252.7977822882000112
 30
0.0
 40
0.2305655229533828
 50
95.4313138468886137
 51
116.3497499410808018
  0
ARC
  5
6F53
  8
0
 10
4289.7073367665952901
 20
260.9058394380738264
 30
0.0
 40
7.9947158116365733
 50
272.916925166826104
 51
278.7604678804210039
  0
ARC
  5
6F54
  8
0
 10
4290.4091922251700453
 20
248.1376546733060877
 30
0.0
 40
4.792915552383314
 50
93.5289861041543702
 51
99.7721644947350939
  0
ARC
  5
6F55
  8
0
 10
4294.1247064228800809
 20
240.1497351180869941
 30
0.0
 40
13.4940344166178896
 50
109.6109271247053982
 51
114.7345609090933038
  0
ARC
  5
6F56
  8
0
 10
4295.3331951868758551
 20
263.4332621299000152
 30
0.0
 40
7.6129706531321411
 50
171.9160898401277109
 51
178.8943653064663977
  0
ARC
  5
6F57
  8
0
 10
4288.09317530251883
 20
264.437979807896113
 30
0.0
 40
0.3045058232315622
 50
96.36210958531899
 51
167.5124211915174897
  0
ARC
  5
6F58
  8
0
 10
4295.432764903413954
 20
-164.7883477641942989
 30
0.0
 40
429.5922390506601118
 50
90.0365883266572666
 51
90.9834478712060672
  0
LINE
  5
6F59
  8
0
 10
4288.47859985883224
 20
252.4057722224810902
 30
0.0
 11
4301.8382661464447665
 21
252.4057722224810902
 31
0.0
  0
ARC
  5
6F5A
  8
0
 10
4289.6257237571962833
 20
252.8508379983915972
 30
0.0
 40
0.0317178684292112
 50
161.2616024047675012
 51
215.6096259440857068
  0
ARC
  5
6F5B
  8
0
 10
4290.006894184720295
 20
253.975517588901198
 30
0.0
 40
1.2134251555002229
 50
250.4044219945415932
 51
266.1339676485883956
  0
ARC
  5
6F5C
  8
0
 10
4293.4318341990783665
 20
294.0283010770393162
 30
0.0
 40
41.4121891917269807
 50
265.1424183709103772
 51
269.2130079895899257
  0
ARC
  5
6F5D
  8
0
 10
4295.2608537081641771
 20
367.0014578244990275
 30
0.0
 40
114.4065699396768991
 50
268.7990620117092817
 51
269.9487068361007118
  0
ARC
  5
6F5E
  8
0
 10
4288.5273460387388695
 20
261.8588815322738128
 30
0.0
 40
0.0633888444891305
 50
87.9057432937927672
 51
136.5635219515004053
  0
ARC
  5
6F5F
  8
0
 10
4288.4861562269188653
 20
261.8227291655405793
 30
0.0
 40
0.051448772065271
 50
143.7054123946921038
 51
200.3186935499122967
  0
ARC
  5
6F60
  8
0
 10
4684.788324222711708
 20
406.937347172082184
 30
0.0
 40
422.0865900019036872
 50
200.1113235075887076
 51
200.1192509429398001
  0
ARC
  5
6F61
  8
0
 10
4290.2121798165080691
 20
265.947294954488882
 30
0.0
 40
4.5817762463851759
 50
248.2499612109363909
 51
270.3058333129845892
  0
ARC
  5
6F62
  8
0
 10
4290.2149509796099665
 20
262.0252538689778135
 30
0.0
 40
0.6600262231650768
 50
271.8828052727105842
 51
76.7512478276942858
  0
ARC
  5
6F63
  8
0
 10
4290.2240890092425616
 20
262.0046654865997766
 30
0.0
 40
0.6781090427993933
 50
77.901555106090882
 51
129.2438364699206943
  0
ARC
  5
6F64
  8
0
 10
4290.1225812177317493
 20
262.0069612819237932
 30
0.0
 40
0.6169591790108104
 50
122.0591936136517006
 51
177.8738357152155913
  0
ARC
  5
6F65
  8
0
 10
4289.2905249790792368
 20
262.0182094925843899
 30
0.0
 40
0.2158359560234067
 50
255.1622053081669037
 51
3.0917199308618102
  0
ARC
  5
6F66
  8
0
 10
4289.1904338829854169
 20
262.0654019130827805
 30
0.0
 40
0.3192160452777782
 50
259.0478867481098177
 51
317.7507784860890183
  0
ARC
  5
6F67
  8
0
 10
4288.4882670255274206
 20
261.813196816791276
 30
0.0
 40
0.0591435406720412
 50
85.9127813141625154
 51
137.4605870613823981
  0
ARC
  5
6F68
  8
0
 10
4290.0979062649394109
 20
261.9788210973890727
 30
0.0
 40
0.6287334761151328
 50
282.7472126705197866
 51
118.7905690077175933
  0
CIRCLE
  5
6F69
  8
0
 10
4290.0963984281879675
 20
261.9951455791386934
 30
0.0
 40
0.0068795867188006
  0
CIRCLE
  5
6F6A
  8
0
 10
4290.0963984281879675
 20
261.9951455791386934
 30
0.0
 40
0.011920178799997
  0
CIRCLE
  5
6F6B
  8
0
 10
4290.0963984281879675
 20
261.9951455791386934
 30
0.0
 40
0.0268962972183166
  0
CIRCLE
  5
6F6C
  8
0
 10
4290.0963984281879675
 20
261.9951455791386934
 30
0.0
 40
0.0318959939232009
  0
CIRCLE
  5
6F6D
  8
0
 10
4290.0963984281879675
 20
261.9951455791386934
 30
0.0
 40
0.0468823371534512
  0
CIRCLE
  5
6F6E
  8
0
 10
4290.0963984281879675
 20
261.9951455791386934
 30
0.0
 40
0.0518754262999988
  0
CIRCLE
  5
6F6F
  8
0
 10
4290.0963984281879675
 20
261.9951455791386934
 30
0.0
 40
0.0668567830279125
  0
CIRCLE
  5
6F70
  8
0
 10
4290.0963984281879675
 20
261.9951455791386934
 30
0.0
 40
0.0718481446453307
  0
CIRCLE
  5
6F71
  8
0
 10
4290.0963984281879675
 20
261.9951455791386934
 30
0.0
 40
0.0868332162536625
  0
CIRCLE
  5
6F72
  8
0
 10
4290.0963984281879675
 20
261.9951455791386934
 30
0.0
 40
0.0918341244835835
  0
CIRCLE
  5
6F73
  8
0
 10
4290.0963984281879675
 20
261.9951455791386934
 30
0.0
 40
0.1068101356795194
  0
CIRCLE
  5
6F74
  8
0
 10
4290.0963984281879675
 20
261.9951455791386934
 30
0.0
 40
0.1118094679834897
  0
CIRCLE
  5
6F75
  8
0
 10
4290.0963984281879675
 20
261.9951455791386934
 30
0.0
 40
0.1267864952521567
  0
CIRCLE
  5
6F76
  8
0
 10
4290.0963984281879675
 20
261.9951455791386934
 30
0.0
 40
0.1317913066523442
  0
CIRCLE
  5
6F77
  8
0
 10
4290.0963984281879675
 20
261.9951455791386934
 30
0.0
 40
0.1467805631624419
  0
CIRCLE
  5
6F78
  8
0
 10
4290.0963984281879675
 20
261.9951455791386934
 30
0.0
 40
0.1517602367721062
  0
CIRCLE
  5
6F79
  8
0
 10
4290.0963984281879675
 20
261.9951455791386934
 30
0.0
 40
0.1667039510298398
  0
CIRCLE
  5
6F7A
  8
0
 10
4290.0963984281879675
 20
261.9951455791386934
 30
0.0
 40
0.1717411685999952
  0
CIRCLE
  5
6F7B
  8
0
 10
4290.0963984281879675
 20
261.9951455791386934
 30
0.0
 40
0.1866995186366349
  0
CIRCLE
  5
6F7C
  8
0
 10
4290.0963984281879675
 20
261.9951455791386934
 30
0.0
 40
0.1917109926792014
  0
CIRCLE
  5
6F7D
  8
0
 10
4290.0963984281879675
 20
261.9951455791386934
 30
0.0
 40
0.2067023009495408
  0
CIRCLE
  5
6F7E
  8
0
 10
4290.0963984281879675
 20
261.9951455791386934
 30
0.0
 40
0.2116771480201529
  0
CIRCLE
  5
6F7F
  8
0
 10
4290.0963984281879675
 20
261.9951455791386934
 30
0.0
 40
0.2266449115772271
  0
CIRCLE
  5
6F80
  8
0
 10
4290.0963984281879675
 20
261.9951455791386934
 30
0.0
 40
0.2316631968869347
  0
LINE
  5
6F81
  8
0
 10
4291.0054764121759945
 20
253.0273126602457978
 30
0.0
 11
4299.3113895931001025
 21
253.0273126602457978
 31
0.0
  0
ARC
  5
6F82
  8
0
 10
4289.9893913062951469
 20
234.6105075501338035
 30
0.0
 40
0.1132631123016675
 50
178.6692560335374083
 51
262.7319156893411218
  0
ARC
  5
6F83
  8
0
 10
4290.3580990613745598
 20
235.0703791099898012
 30
0.0
 40
0.4040278730367848
 50
146.7206530743260942
 51
171.037331818568191
  0
ARC
  5
6F84
  8
0
 10
4130.1056028229140793
 20
261.6699554110434178
 30
0.0
 40
162.0756375277441919
 50
350.6334235552170071
 51
353.6507125792791157
  0
ARC
  5
6F85
  8
0
 10
4290.8454156715179124
 20
243.7765180497362962
 30
0.0
 40
0.3430329130332346
 50
354.9166365216321992
 51
60.4174313477811111
  0
ARC
  5
6F86
  8
0
 10
4289.7697104940916688
 20
245.4614583289329914
 30
0.0
 40
1.863566659481295
 50
311.9207501897989232
 51
324.7908837025850062
  0
ARC
  5
6F87
  8
0
 10
4293.0240591067849891
 20
242.1372512208872934
 30
0.0
 40
2.8390474419745901
 50
87.5636778983569855
 51
127.5868701300090038
  0
ARC
  5
6F88
  8
0
 10
4295.322564583158055
 20
305.1112217000289206
 30
0.0
 40
60.1769101968254319
 50
267.9259957518838746
 51
269.8437264645805271
  0
ARC
  5
6F89
  8
0
 10
4288.8677375334718818
 20
251.0215184067222935
 30
0.0
 40
0.1247752151543567
 50
199.8531349955065934
 51
264.889620684248996
  0
ARC
  5
6F8A
  8
0
 10
4288.5384433564859137
 20
250.9284806529792036
 30
0.0
 40
0.2179061473429677
 50
13.4441999866221593
 51
85.9187863200200468
  0
ARC
  5
6F8B
  8
0
 10
4290.2607499202485997
 20
251.0331127245599987
 30
0.0
 40
0.1366936274592766
 50
276.2792777958749184
 51
323.7888699652086757
  0
ARC
  5
6F8C
  8
0
 10
4290.5734014862400727
 20
250.8319452885567102
 30
0.0
 40
0.2354771063237802
 50
118.5235290611981043
 51
149.2454239450391924
  0
ARC
  5
6F8D
  8
0
 10
4289.8312117749937897
 20
249.6524730742399072
 30
0.0
 40
1.522692665537462
 50
56.5787150692632324
 51
78.7358519262047736
  0
ARC
  5
6F8E
  8
0
 10
4290.7781764161227329
 20
250.9476519483000914
 30
0.0
 40
0.1109668965732899
 50
192.6354263642909928
 51
268.243776656255875
  0
ARC
  5
6F8F
  8
0
 10
4292.3042918028886561
 20
250.9627028788571863
 30
0.0
 40
0.222916253055436
 50
124.1435424354638997
 51
124.7622218054166012
  0
ARC
  5
6F90
  8
0
 10
4292.3118684179953561
 20
250.9600914732390038
 30
0.0
 40
0.2307000104114937
 50
160.1176279056327871
 51
174.5117617944472954
  0
ARC
  5
6F91
  8
0
 10
4296.206680812664672
 20
180.738187526691604
 30
0.0
 40
70.4205054235794705
 50
91.0949482175446548
 51
93.3473292936121624
  0
LINE
  5
6F92
  8
0
 10
4291.7248469397882218
 20
252.0293304665387097
 30
0.0
 11
4298.5920190654878752
 21
252.0293304665387097
 31
0.0
  0
ARC
  5
6F93
  8
0
 10
4291.7304532712469154
 20
252.093132794543294
 30
0.0
 40
0.0640481694604339
 50
208.2828803511204114
 51
264.9782990939963838
  0
ARC
  5
6F94
  8
0
 10
4291.2136542001417183
 20
252.0445269112331061
 30
0.0
 40
0.0665309192924427
 50
123.9435357799026036
 51
179.7495471830663973
  0
ARC
  5
6F95
  8
0
 10
4295.3947524824179709
 20
-5.555345660464865
 30
0.0
 40
257.9002216086391854
 50
90.0525013534785899
 51
90.5830532799914607
  0
ARC
  5
6F96
  8
0
 10
4293.9104277346050367
 20
229.9636511285063136
 30
0.0
 40
22.3969070264921797
 50
92.9177990386418458
 51
98.7528887404891833
  0
LINE
  5
6F97
  8
0
 10
4300.7370773000875488
 20
252.0762301655387034
 30
0.0
 11
4300.7360517038878243
 21
252.0997201799387142
 31
0.0
  0
LINE
  5
6F98
  8
0
 10
4300.202319702188106
 20
252.0162306288387128
 30
0.0
 11
4300.2026244163880619
 21
252.0232097308386869
 31
0.0
  0
LINE
  5
6F99
  8
0
 10
4298.6127010373884332
 20
252.0997201799387142
 30
0.0
 11
4298.6121316537110033
 21
252.0344752700333117
 31
0.0
  0
LINE
  5
6F9A
  8
0
 10
4299.1337310043882098
 20
251.9453915621386955
 30
0.0
 11
4299.1326909258887099
 21
252.0997201799387142
 31
0.0
  0
LINE
  5
6F9B
  8
0
 10
4298.6428147669876125
 20
252.0627851638386971
 30
0.0
 11
4298.6428147669876125
 21
252.0997201799387142
 31
0.0
  0
LINE
  5
6F9C
  8
0
 10
4299.4206386655878305
 20
252.0162306288387128
 30
0.0
 11
4299.4170971767880474
 21
252.0997201799387142
 31
0.0
  0
LINE
  5
6F9D
  8
0
 10
4298.2385317054877305
 20
250.9376520481386876
 30
0.0
 11
4298.2346400348878888
 21
250.9821559483386864
 31
0.0
  0
LINE
  5
6F9E
  8
0
 10
4300.3578616599879751
 20
235.1333229721386999
 30
0.0
 11
4300.4407072632875497
 21
234.6131379472386982
 31
0.0
  0
LINE
  5
6F9F
  8
0
 10
4301.460242790589291
 20
250.8972391798386923
 30
0.0
 11
4300.0411652444881838
 21
250.8972391798386923
 31
0.0
  0
LINE
  5
6FA0
  8
0
 10
4301.2469207901876871
 20
251.9997201798387039
 30
0.0
 11
4300.8170011375887043
 21
251.9997201798387039
 31
0.0
  0
ARC
  5
6FA1
  8
0
 10
4301.2342320105990439
 20
252.0986858926056868
 30
0.0
 40
0.0997758359069408
 50
277.3062537581021161
 51
330.6096357921956042
  0
ARC
  5
6FA2
  8
0
 10
4300.8207355936119711
 20
252.083621266134088
 30
0.0
 40
0.0839841559065636
 50
185.048897887732295
 51
267.451434252732497
  0
ARC
  5
6FA3
  8
0
 10
4300.2889469890760665
 20
252.013036013649895
 30
0.0
 40
0.0869200269284905
 50
94.2218587122967222
 51
173.2783004419266035
  0
ARC
  5
6FA4
  8
0
 10
4301.39527142438601
 20
252.0198045652940095
 30
0.0
 40
0.0799156341093876
 50
89.9600105482234085
 51
158.016476350986693
  0
ARC
  5
6FA5
  8
0
 10
4298.3490384039278069
 20
250.9476954782473967
 30
0.0
 40
0.1109621597049724
 50
185.1930747337052026
 51
269.522221382474072
  0
ARC
  5
6FA6
  8
0
 10
4299.4995309175601506
 20
252.0241614470598961
 30
0.0
 40
0.0792898814660079
 50
185.740499566081013
 51
263.4345180924502756
  0
ARC
  5
6FA7
  8
0
 10
4300.1235807941156963
 20
252.0233029045463979
 30
0.0
 40
0.0790558836018939
 50
279.7613886545804007
 51
354.8675042589928239
  0
LINE
  5
6FA8
  8
0
 10
4299.170657712488719
 20
251.9453915621386955
 30
0.0
 11
4299.1697420888031047
 21
252.0448177320095056
 31
0.0
  0
LINE
  5
6FA9
  8
0
 10
4301.7237098214500293
 20
252.0997201799387142
 30
0.0
 11
4301.7181895124876974
 21
251.9453915621386955
 31
0.0
  0
LINE
  5
6FAA
  8
0
 10
4301.7359230580095755
 20
252.4524035832338029
 30
0.0
 11
4302.1275584993882148
 21
263.4667371764386985
 31
0.0
  0
LINE
  5
6FAB
  8
0
 10
4302.1795569619198432
 20
251.2217201799386999
 30
0.0
 11
4302.1795569619198432
 21
251.195826090238711
 31
0.0
  0
LINE
  5
6FAC
  8
0
 10
4301.9238547944687525
 20
252.1747201799387028
 30
0.0
 11
4301.9238547944687525
 21
252.154720182338707
 31
0.0
  0
LINE
  5
6FAD
  8
0
 10
4301.8719365679671682
 20
252.3685683337386934
 30
0.0
 11
4301.9238547944687525
 21
252.1747201799387028
 31
0.0
  0
LINE
  5
6FAE
  8
0
 10
4302.1795569619198432
 20
251.2217201799386999
 30
0.0
 11
4302.0353064439213995
 21
251.7600704755386971
 31
0.0
  0
LINE
  5
6FAF
  8
0
 10
4302.4852223799880448
 20
263.4667371764386985
 30
0.0
 11
4295.158433002637139
 21
263.4667371764386985
 31
0.0
  0
ARC
  5
6FB0
  8
0
 10
4302.4734925564544028
 20
263.5881664797813073
 30
0.0
 40
0.1219945263952837
 50
275.5175364875336754
 51
356.2370991544386811
  0
ARC
  5
6FB1
  8
0
 10
4302.1259139053136096
 20
251.1994041948152017
 30
0.0
 40
0.0537622577138067
 50
274.8473858742768812
 51
356.1839039195000964
  0
ARC
  5
6FB2
  8
0
 10
4302.0695832463179613
 20
250.4853202385710915
 30
0.0
 40
0.3532495266720874
 50
25.6981900321341286
 51
84.1612849298851842
  0
ARC
  5
6FB3
  8
0
 10
4297.7936388293119307
 20
248.8557659166864084
 30
0.0
 40
4.92801313369492
 50
352.8620821887233774
 51
21.2080250137643382
  0
ARC
  5
6FB4
  8
0
 10
4297.5842823725879498
 20
248.9239385609070894
 30
0.0
 40
5.1443865140529956
 50
289.5069580171493726
 51
352.3984210139481092
  0
ARC
  5
6FB5
  8
0
 10
4301.7419675265600745
 20
251.6267135229099949
 30
0.0
 40
0.3222294171118358
 50
24.4473672359571488
 51
81.485617396931417
  0
ARC
  5
6FB6
  8
0
 10
4301.8635605296558424
 20
252.1600108081377982
 30
0.0
 40
0.060525937337723
 50
275.0539049258275099
 51
354.9853253721558985
  0
ARC
  5
6FB7
  8
0
 10
4301.8111269380733575
 20
252.347372362395987
 30
0.0
 40
0.0643978282939014
 50
19.2166513983113205
 51
65.0750666737230716
  0
ARC
  5
6FB8
  8
0
 10
4299.2895660122003392
 20
252.7977822882000112
 30
0.0
 40
0.2305655229533828
 50
63.6502500589192266
 51
84.5686861531114147
  0
ARC
  5
6FB9
  8
0
 10
4300.6095292386798974
 20
260.9058394380738264
 30
0.0
 40
7.9947158116365733
 50
261.2395321195789961
 51
267.0830748331737823
  0
ARC
  5
6FBA
  8
0
 10
4299.9076737801069612
 20
248.1376546733060877
 30
0.0
 40
4.792915552383314
 50
80.2278355052649204
 51
86.4710138958456582
  0
ARC
  5
6FBB
  8
0
 10
4296.1921595823969255
 20
240.1497351180869941
 30
0.0
 40
13.4940344166178896
 50
65.2654390909067104
 51
70.3890728752945449
  0
ARC
  5
6FBC
  8
0
 10
4294.9836708183993323
 20
263.4332621299000152
 30
0.0
 40
7.6129706531321411
 50
1.1056346935336201
 51
8.0839101598722873
  0
ARC
  5
6FBD
  8
0
 10
4302.2236907027581765
 20
264.437979807896113
 30
0.0
 40
0.3045058232315622
 50
12.4875788084824801
 51
83.6378904146810243
  0
ARC
  5
6FBE
  8
0
 10
4294.884101101862143
 20
-164.7883477641923946
 30
0.0
 40
429.5922390506580086
 50
89.0165521287939185
 51
89.9634116733427476
  0
ARC
  5
6FBF
  8
0
 10
4300.6911422480798137
 20
252.8508379983915972
 30
0.0
 40
0.0317178684292112
 50
324.3903740559129005
 51
18.7383975952324988
  0
ARC
  5
6FC0
  8
0
 10
4300.309971820555802
 20
253.975517588901198
 30
0.0
 40
1.2134251555002229
 50
273.8660323514117181
 51
289.595578005458492
  0
ARC
  5
6FC1
  8
0
 10
4296.88503180619864
 20
294.0283010770393162
 30
0.0
 40
41.4121891917269807
 50
270.7869920104100743
 51
274.8575816290895091
  0
ARC
  5
6FC2
  8
0
 10
4295.0560122971101009
 20
367.0014578246397718
 30
0.0
 40
114.4065699398177003
 50
270.0512931638992882
 51
271.2009379882384792
  0
ARC
  5
6FC3
  8
0
 10
4300.3274746989809501
 20
234.6105075501338035
 30
0.0
 40
0.1132631123016675
 50
277.2680843106588782
 51
1.330743966462629
  0
ARC
  5
6FC4
  8
0
 10
4299.9587669439006277
 20
235.0703791099898012
 30
0.0
 40
0.4040278730367848
 50
8.9626681814317557
 51
33.2793469256738277
  0
ARC
  5
6FC5
  8
0
 10
4460.2112631823629272
 20
261.6699554110434178
 30
0.0
 40
162.0756375277441919
 50
186.3492874207209127
 51
189.3665764447829929
  0
ARC
  5
6FC6
  8
0
 10
4299.4714503337590941
 20
243.7765180497362962
 30
0.0
 40
0.3430329130332346
 50
119.582568652218896
 51
185.0833634783678008
  0
ARC
  5
6FC7
  8
0
 10
4300.5471555111844282
 20
245.4614583289329914
 30
0.0
 40
1.863566659481295
 50
215.2091162974151075
 51
228.0792498102011052
  0
ARC
  5
6FC8
  8
0
 10
4297.2928068984920174
 20
242.1372512208872934
 30
0.0
 40
2.8390474419745901
 50
52.4131298699910033
 51
92.4363221016430288
  0
ARC
  5
6FC9
  8
0
 10
4294.9943014221189515
 20
305.1112217000289206
 30
0.0
 40
60.1769101968254319
 50
270.1562735354194729
 51
272.0740042481161254
  0
ARC
  5
6FCA
  8
0
 10
4301.4491284718042152
 20
251.0215184067222935
 30
0.0
 40
0.1247752151543567
 50
275.1103793157508903
 51
340.1468650044918149
  0
ARC
  5
6FCB
  8
0
 10
4301.7784226487901833
 20
250.9284806529792036
 30
0.0
 40
0.2179061473429677
 50
94.0812136799799674
 51
166.5558000133777909
  0
ARC
  5
6FCC
  8
0
 10
4300.0561160850284068
 20
251.0331127245599987
 30
0.0
 40
0.1366936274592766
 50
216.2111300347912959
 51
263.7207222041250816
  0
ARC
  5
6FCD
  8
0
 10
4299.7434645190360243
 20
250.8319452885567102
 30
0.0
 40
0.2354771063237802
 50
30.7545760549607614
 51
61.4764709388018815
  0
ARC
  5
6FCE
  8
0
 10
4300.4856542302823073
 20
249.6524730742399072
 30
0.0
 40
1.522692665537462
 50
101.264148073795198
 51
123.4212849307368032
  0
ARC
  5
6FCF
  8
0
 10
4299.5386895891533641
 20
250.9476519483000914
 30
0.0
 40
0.1109668965732899
 50
271.7562233437440113
 51
347.3645736357073019
  0
ARC
  5
6FD0
  8
0
 10
4298.0125742023883504
 20
250.9627028788571863
 30
0.0
 40
0.222916253055436
 50
55.2377781945833632
 51
55.8564575645361217
  0
ARC
  5
6FD1
  8
0
 10
4298.0049975872816503
 20
250.9600914732390038
 30
0.0
 40
0.2307000104114937
 50
5.4882382055526726
 51
19.8823720943671809
  0
ARC
  5
6FD2
  8
0
 10
4294.110185192613244
 20
180.738187526691604
 30
0.0
 40
70.4205054235794705
 50
86.6526707063878519
 51
88.9050517824553452
  0
ARC
  5
6FD3
  8
0
 10
4298.5864127340300911
 20
252.093132794543294
 30
0.0
 40
0.0640481694604339
 50
275.0217009060035025
 51
331.7171196488794749
  0
ARC
  5
6FD4
  8
0
 10
4299.1032118051343787
 20
252.0445269112331061
 30
0.0
 40
0.0665309192924427
 50
0.2504528169336082
 51
56.0564642200973395
  0
ARC
  5
6FD5
  8
0
 10
4294.9221135228581261
 20
-5.555345660464865
 30
0.0
 40
257.9002216086391854
 50
89.4169467200085393
 51
89.9474986465213959
  0
ARC
  5
6FD6
  8
0
 10
4296.4064382706719698
 20
229.9636511285063136
 30
0.0
 40
22.3969070264921797
 50
81.2471112595108167
 51
87.0822009613581542
  0
ENDSEC
  0
EOF
