  0
SECTION
  2
HEADER
  9
$ACADVER
  1
AC1009
  9
$INSBASE
 10
4424.8454128049033898
 20
299.7464890462562721
 30
0.0
  9
$EXTMIN
 10
4394.5062417524050034
 20
299.7464890462562721
 30
0.0
  9
$EXTMAX
 10
4424.8520427270996151
 20
330.052138241119394
 30
0.0
  9
$LIMMIN
 10
0.0
 20
0.0
  9
$LIMMAX
 10
11.6929133858000007
 20
8.2677165353999982
  9
$ORTHOMODE
 70
     1
  9
$REGENMODE
 70
     1
  9
$FILLMODE
 70
     1
  9
$QTEXTMODE
 70
     0
  9
$MIRRTEXT
 70
     0
  9
$DRAGMODE
 70
     2
  9
$LTSCALE
 40
0.6431102362
  9
$OSMODE
 70
  4095
  9
$ATTMODE
 70
     1
  9
$TEXTSIZE
 40
0.2
  9
$TRACEWID
 40
0.05
  9
$TEXTSTYLE
  7
STANDARD
  9
$CLAYER
  8
0
  9
$CELTYPE
  6
BYLAYER
  9
$CECOLOR
 62
   256
  9
$DIMSCALE
 40
1.0
  9
$DIMASZ
 40
0.1875
  9
$DIMEXO
 40
0.0625
  9
$DIMDLI
 40
0.4443307087
  9
$DIMRND
 40
0.0
  9
$DIMDLE
 40
0.0
  9
$DIMEXE
 40
0.125
  9
$DIMTP
 40
0.01
  9
$DIMTM
 40
0.01
  9
$DIMTXT
 40
2.0
  9
$DIMCEN
 40
0.1052362205
  9
$DIMTSZ
 40
0.0
  9
$DIMTOL
 70
     1
  9
$DIMLIM
 70
     0
  9
$DIMTIH
 70
     1
  9
$DIMTOH
 70
     1
  9
$DIMSE1
 70
     0
  9
$DIMSE2
 70
     0
  9
$DIMTAD
 70
     0
  9
$DIMZIN
 70
     0
  9
$DIMBLK
  1

  9
$DIMASO
 70
     1
  9
$DIMSHO
 70
     1
  9
$DIMPOST
  1
\X
  9
$DIMAPOST
  1

  9
$DIMALT
 70
     1
  9
$DIMALTD
 70
     2
  9
$DIMALTF
 40
25.3999999999999986
  9
$DIMLFAC
 40
1.0
  9
$DIMTOFL
 70
     0
  9
$DIMTVP
 40
0.0
  9
$DIMTIX
 70
     0
  9
$DIMSOXD
 70
     0
  9
$DIMSAH
 70
     0
  9
$DIMBLK1
  1

  9
$DIMBLK2
  1

  9
$DIMSTYLE
  2
STANDARD
  9
$DIMCLRD
 70
     0
  9
$DIMCLRE
 70
     0
  9
$DIMCLRT
 70
     0
  9
$DIMTFAC
 40
1.0
  9
$DIMGAP
 40
0.09
  9
$LUNITS
 70
     2
  9
$LUPREC
 70
     4
  9
$SKETCHINC
 40
0.1
  9
$FILLETRAD
 40
0.0
  9
$AUNITS
 70
     0
  9
$AUPREC
 70
     0
  9
$MENU
  1
.
  9
$ELEVATION
 40
0.0
  9
$PELEVATION
 40
0.0
  9
$THICKNESS
 40
0.0
  9
$LIMCHECK
 70
     0
  9
$BLIPMODE
 70
     0
  9
$CHAMFERA
 40
0.0
  9
$CHAMFERB
 40
0.0
  9
$SKPOLY
 70
     0
  9
$TDCREATE
 40
2458060.468368056230247
  9
$TDUPDATE
 40
2458994.0562152778729796
  9
$TDINDWG
 40
0.3200649306
  9
$TDUSRTIMER
 40
0.3200649306
  9
$USRTIMER
 70
     1
  9
$ANGBASE
 50
0.0
  9
$ANGDIR
 70
     0
  9
$PDMODE
 70
     0
  9
$PDSIZE
 40
0.3125
  9
$PLINEWID
 40
0.0
  9
$COORDS
 70
     1
  9
$SPLFRAME
 70
     0
  9
$SPLINETYPE
 70
     6
  9
$SPLINESEGS
 70
     8
  9
$ATTDIA
 70
     1
  9
$ATTREQ
 70
     1
  9
$HANDLING
 70
     1
  9
$HANDSEED
  5
74E6
  9
$SURFTAB1
 70
     6
  9
$SURFTAB2
 70
     6
  9
$SURFTYPE
 70
     6
  9
$SURFU
 70
     6
  9
$SURFV
 70
     6
  9
$UCSNAME
  2

  9
$UCSORG
 10
0.0
 20
0.0
 30
0.0
  9
$UCSXDIR
 10
1.0
 20
0.0
 30
0.0
  9
$UCSYDIR
 10
0.0
 20
1.0
 30
0.0
  9
$PUCSNAME
  2

  9
$PUCSORG
 10
0.0
 20
0.0
 30
0.0
  9
$PUCSXDIR
 10
1.0
 20
0.0
 30
0.0
  9
$PUCSYDIR
 10
0.0
 20
1.0
 30
0.0
  9
$USERI1
 70
     0
  9
$USERI2
 70
     0
  9
$USERI3
 70
     0
  9
$USERI4
 70
     0
  9
$USERI5
 70
     0
  9
$USERR1
 40
0.0
  9
$USERR2
 40
0.0
  9
$USERR3
 40
0.0
  9
$USERR4
 40
0.0
  9
$USERR5
 40
0.0
  9
$WORLDVIEW
 70
     1
  9
$SHADEDGE
 70
     3
  9
$SHADEDIF
 70
    70
  9
$TILEMODE
 70
     1
  9
$MAXACTVP
 70
    64
  9
$PLIMCHECK
 70
     0
  9
$PEXTMIN
 10
1.0000000000000000E+20
 20
1.0000000000000000E+20
 30
1.0000000000000000E+20
  9
$PEXTMAX
 10
-1.0000000000000000E+20
 20
-1.0000000000000000E+20
 30
-1.0000000000000000E+20
  9
$PLIMMIN
 10
0.0
 20
0.0
  9
$PLIMMAX
 10
12.0
 20
9.0
  9
$UNITMODE
 70
     0
  9
$VISRETAIN
 70
     1
  9
$PLINEGEN
 70
     0
  9
$PSLTSCALE
 70
     1
  0
ENDSEC
  0
SECTION
  2
TABLES
  0
TABLE
  2
VPORT
 70
     1
  0
VPORT
  2
*ACTIVE
 70
     0
 10
0.0
 20
0.0
 11
1.0
 21
1.0
 12
0.0
 22
0.0
 13
0.0
 23
0.0
 14
1.0
 24
1.0
 15
0.0
 25
0.0
 16
0.0
 26
0.0
 36
160.3776517160588924
 17
4409.6796834730830597
 27
314.869842529296875
 37
0.0
 40
42.8759701815348535
 41
2.9513274336283182
 42
50.0
 43
0.0
 44
0.0
 50
0.0
 51
0.0
 71
     0
 72
   100
 73
     1
 74
     1
 75
     0
 76
     0
 77
     0
 78
     0
  0
ENDTAB
  0
TABLE
  2
LTYPE
 70
     2
  0
LTYPE
  2
CONTINUOUS
 70
     0
  3
Solid line
 72
    65
 73
     0
 40
0.0
  0
LTYPE
  2
PHANTOM2
 70
     0
  3
___ _ _ ___ _ _ ___ _ _ ___ _ _
 72
    65
 73
     6
 40
1.25
 49
0.625
 49
-0.125
 49
0.125
 49
-0.125
 49
0.125
 49
-0.125
  0
ENDTAB
  0
TABLE
  2
LAYER
 70
     2
  0
LAYER
  2
0
 70
     0
 62
   255
  6
CONTINUOUS
  0
LAYER
  2
DEFPOINTS
 70
     0
 62
     7
  6
CONTINUOUS
  0
ENDTAB
  0
TABLE
  2
STYLE
 70
     1
  0
STYLE
  2
STANDARD
 70
     0
 40
0.0
 41
0.8
 50
0.0
 71
     0
 42
0.2
  3
txt
  4

  0
ENDTAB
  0
TABLE
  2
VIEW
 70
     0
  0
ENDTAB
  0
TABLE
  2
UCS
 70
     0
  0
ENDTAB
  0
TABLE
  2
APPID
 70
     9
  0
APPID
  2
ACAD
 70
     0
  0
APPID
  2
ACAD_MLEADERVER
 70
     0
  0
APPID
  2
ACAD_EXEMPT_FROM_CAD_STANDARDS
 70
     0
  0
APPID
  2
ACAD_NAV_VCDISPLAY
 70
     0
  0
APPID
  2
ACAECLAYERSTANDARD
 70
     0
  0
APPID
  2
ACCMTRANSPARENCY
 70
     0
  0
APPID
  2
ACAD_DSTYLE_DIMJAG
 70
     0
  0
APPID
  2
ACAD_DSTYLE_DIMTALN
 70
     0
  0
APPID
  2
ACDBATTR
 70
     0
  0
ENDTAB
  0
TABLE
  2
DIMSTYLE
 70
     1
  0
DIMSTYLE
  2
STANDARD
 70
     0
  3

  4

  5

  6

  7

 40
1.0
 41
0.1875
 42
0.0625
 43
0.38
 44
0.125
 45
0.0
 46
0.0
 47
0.01
 48
0.01
140
0.15625
141
0.09
142
0.0
143
25.3999999999999986
144
1.0
145
0.0
146
1.0
147
0.09
 71
     1
 72
     0
 73
     1
 74
     1
 75
     0
 76
     0
 77
     0
 78
     4
170
     0
171
     2
172
     0
173
     0
174
     0
175
     0
176
     0
177
     0
178
     0
  0
ENDTAB
  0
ENDSEC
  0
SECTION
  2
BLOCKS
  0
BLOCK
  8
0
  2
$MODEL_SPACE
 70
     0
 10
0.0
 20
0.0
 30
0.0
  3
$MODEL_SPACE
  1

  0
ENDBLK
  5
21
  8
0
  0
BLOCK
 67
     1
  8
0
  2
$PAPER_SPACE
 70
     0
 10
0.0
 20
0.0
 30
0.0
  3
$PAPER_SPACE
  1

  0
ENDBLK
  5
1D
 67
     1
  8
0
  0
ENDSEC
  0
SECTION
  2
ENTITIES
  0
ATTDEF
  5
3930
  8
DEFPOINTS
 10
4424.8413760604307754
 20
299.7584701234109161
 30
0.0
 40
0.001
  1
402325-RA
  3

  2
MODELNUMBER
 70
     0
1001
ACDBATTR
1070
     0
1070
     1
  0
ATTDEF
  5
3931
  8
DEFPOINTS
 10
4424.8413760604307754
 20
299.7568034567443078
 30
0.0
 40
0.001
  1
WINDHAM
  3

  2
TRADENAME
 70
     0
1001
ACDBATTR
1070
     0
1070
     1
  0
ATTDEF
  5
3932
  8
DEFPOINTS
 10
4424.8413760604307754
 20
299.7551367900775858
 30
0.0
 40
0.001
  1
TOILET
  3

  2
PRODUCT
 70
     0
1001
ACDBATTR
1070
     0
1070
     1
  0
LINE
  5
731B
  8
0
 10
4394.9139413174771107
 20
316.451034612456283
 30
0.0
 11
4394.913941395877373
 21
316.4700549945562784
 31
0.0
  0
LINE
  5
731C
  8
0
 10
4395.0169413635776436
 20
317.6213254611562888
 30
0.0
 11
4395.0169413635776436
 21
317.593116844656322
 31
0.0
  0
LINE
  5
731D
  8
0
 10
4395.056911665977168
 20
317.0036279733562878
 30
0.0
 11
4394.913941395877373
 21
316.4700549945562784
 31
0.0
  0
LINE
  5
731E
  8
0
 10
4422.0448994433772896
 20
300.9245539107562877
 30
0.0
 11
4408.6365055562773705
 21
300.6905095248562816
 31
0.0
  0
LINE
  5
731F
  8
0
 10
4422.8618286224773328
 20
299.7464890462562721
 30
0.0
 11
4397.2860131207771701
 21
299.7464890462562721
 31
0.0
  0
LINE
  5
7320
  8
0
 10
4398.3217777953759651
 20
317.264565175856319
 30
0.0
 11
4398.3214730811769186
 21
317.2715442778563215
 31
0.0
  0
LINE
  5
7321
  8
0
 10
4399.4877855060767615
 20
317.264565175856319
 30
0.0
 11
4399.4894709835771209
 21
317.3031689568563252
 31
0.0
  0
LINE
  5
7322
  8
0
 10
4399.1141112894765683
 20
316.1859865951562938
 30
0.0
 11
4399.121229906577355
 21
316.2673528731563124
 31
0.0
  0
LINE
  5
7323
  8
0
 10
4395.0395186209134408
 20
317.6541067694985827
 30
0.0
 11
4395.4034950822770043
 21
317.8161587023562902
 31
0.0
  0
LINE
  5
7324
  8
0
 10
4415.7196106007768321
 20
312.1029876595562769
 30
0.0
 11
4418.0672596332951798
 21
312.6449851451174027
 31
0.0
  0
LINE
  5
7325
  8
0
 10
4419.0372656516774441
 20
312.8689286799562979
 30
0.0
 11
4420.2404939704765638
 21
313.1467158253562957
 31
0.0
  0
LINE
  5
7326
  8
0
 10
4409.3638194152772485
 20
304.2026298065562742
 30
0.0
 11
4409.5178775145759573
 21
301.4770765269562958
 31
0.0
  0
LINE
  5
7327
  8
0
 10
4422.290902893776547
 20
315.4250717234563126
 30
0.0
 11
4421.2960792560770642
 21
315.2915897106562966
 31
0.0
  0
LINE
  5
7328
  8
0
 10
4411.8526463500784303
 20
304.5258042725562859
 30
0.0
 11
4412.2856039043772398
 21
302.9099846822563222
 31
0.0
  0
LINE
  5
7329
  8
0
 10
4411.7211564036679192
 20
316.3986829455279235
 30
0.0
 11
4412.5361264992770884
 21
316.5304510941563194
 31
0.0
  0
LINE
  5
732A
  8
0
 10
4412.9088069362769602
 20
316.5907654287562991
 30
0.0
 11
4412.9681111860772944
 21
316.6003631859563257
 31
0.0
  0
LINE
  5
732B
  8
0
 10
4412.5361264992770884
 20
316.5304510941563194
 30
0.0
 11
4412.9088069362769602
 21
316.5907654287562991
 31
0.0
  0
LINE
  5
732C
  8
0
 10
4410.9827421350773875
 20
315.2750717234562785
 30
0.0
 11
4416.805948621376956
 21
315.2750771492562762
 31
0.0
  0
LINE
  5
732D
  8
0
 10
4417.8708142081768528
 20
315.4250717234563126
 30
0.0
 11
4422.9839214723760961
 21
315.4250717234563126
 31
0.0
  0
LINE
  5
732E
  8
0
 10
4407.6730265965770741
 20
316.1455737268562984
 30
0.0
 11
4408.158372269776919
 21
316.1455737268562984
 31
0.0
  0
LINE
  5
732F
  8
0
 10
4413.3755197588770898
 20
303.2160367587562746
 30
0.0
 11
4412.9637979493772946
 21
304.752603470456279
 31
0.0
  0
LINE
  5
7330
  8
0
 10
4411.8951796042429123
 20
316.4268198245147801
 30
0.0
 11
4411.884757990502294
 21
316.0850717234562808
 31
0.0
  0
LINE
  5
7331
  8
0
 10
4413.1138483089762303
 20
315.2750737091245128
 30
0.0
 11
4412.5378439620772042
 21
314.8819409697562719
 31
0.0
  0
LINE
  5
7332
  8
0
 10
4408.2943858756761983
 20
317.24805472685631
 30
0.0
 11
4409.3868962282767825
 21
317.24805472685631
 31
0.0
  0
LINE
  5
7333
  8
0
 10
4395.2420691227771385
 20
317.3480547268562759
 30
0.0
 11
4411.1683525000771624
 21
317.3480547268562759
 31
0.0
  0
LINE
  5
7334
  8
0
 10
4412.9681111860772944
 20
316.6003631859563257
 30
0.0
 11
4412.9588179797774501
 21
316.6749179594563088
 31
0.0
  0
LINE
  5
7335
  8
0
 10
4412.9588179797774501
 20
316.6749179594563088
 30
0.0
 11
4412.8139180063772073
 21
317.8373782136562795
 31
0.0
  0
LINE
  5
7336
  8
0
 10
4413.0303681898758441
 20
316.0850547268562991
 30
0.0
 11
4412.9671160418320142
 21
316.6002021325261921
 31
0.0
  0
LINE
  5
7337
  8
0
 10
4412.9755103811767185
 20
316.6581313854562723
 30
0.0
 11
4413.0429772438774307
 21
316.1086578833562726
 31
0.0
  0
LINE
  5
7338
  8
0
 10
4415.6827608175162823
 20
315.2750761027207886
 30
0.0
 11
4415.6827613635759917
 21
314.6890209164562862
 31
0.0
  0
LINE
  5
7339
  8
0
 10
4415.9827613635770831
 20
314.6890209164562862
 30
0.0
 11
4415.9827608175173737
 21
315.2750763822472209
 31
0.0
  0
LINE
  5
733A
  8
0
 10
4418.4266905798767766
 20
312.074040127956323
 30
0.0
 11
4418.4266905690774365
 21
312.3509095444562718
 31
0.0
  0
LINE
  5
733B
  8
0
 10
4418.8138321546766747
 20
312.5786192985563048
 30
0.0
 11
4418.8138321370770427
 21
312.1047704885563121
 31
0.0
  0
LINE
  5
733C
  8
0
 10
4420.7804538981772566
 20
312.9673045726563032
 30
0.0
 11
4420.8273543786772279
 21
311.6611289760563182
 31
0.0
  0
LINE
  5
733D
  8
0
 10
4421.6424587707770115
 20
314.8477171703563045
 30
0.0
 11
4421.8054192575773413
 21
310.3092772900562863
 31
0.0
  0
LINE
  5
733E
  8
0
 10
4423.0839214723773694
 20
315.5250717234562785
 30
0.0
 11
4423.0839214723773694
 21
315.7850717234563263
 31
0.0
  0
ARC
  5
733F
  8
0
 10
4395.2481628236291726
 20
317.4205083463601227
 30
0.0
 40
0.0727094228368752
 50
236.3133612727112052
 51
265.1924612906490779
  0
ARC
  5
7340
  8
0
 10
4395.0520944185191183
 20
317.6212801242168098
 30
0.0
 40
0.0351530841781228
 50
110.9616990244691976
 51
179.9261056025983976
  0
ARC
  5
7341
  8
0
 10
4399.0045298726772671
 20
316.1955737268563098
 30
0.0
 40
0.11
 50
270.0
 51
355.0000000000017053
  0
ARC
  5
7342
  8
0
 10
4398.2416694839894262
 20
317.2681803521065262
 30
0.0
 40
0.0798744647849801
 50
2.4137347253327488
 51
90.0860280150415065
  0
ARC
  5
7343
  8
0
 10
4399.4164555156594361
 20
317.2646710055425956
 30
0.0
 40
0.0713300688519465
 50
275.9569581185800757
 51
359.914992427795994
  0
ARC
  5
7344
  8
0
 10
4398.3922445646221604
 20
317.2641688260223987
 30
0.0
 40
0.0704678839244865
 50
179.6777355614744067
 51
268.4686616129803269
  0
ARC
  5
7345
  8
0
 10
4408.3013912412880018
 20
317.3358156236600962
 30
0.0
 40
0.0880400485867429
 50
190.1670602789745033
 51
265.4361378732900221
  0
ARC
  5
7346
  8
0
 10
4409.3806444538049618
 20
317.3371473691801725
 30
0.0
 40
0.0893117215168402
 50
274.0139576133138917
 51
335.1898545982185738
  0
ARC
  5
7347
  8
0
 10
4411.1683525904591079
 20
316.8480550765743828
 30
0.0
 40
0.4999996502818627
 50
32.0376077327114075
 51
90.000010357008037
  0
ARC
  5
7348
  8
0
 10
4411.6890264630037564
 20
316.5257694362891243
 30
0.0
 40
0.1310851220434914
 50
284.1881840773845056
 51
33.5469130393777988
  0
ARC
  5
7349
  8
0
 10
4412.2522171462005645
 20
316.9913542396141111
 30
0.0
 40
0.5003407900415718
 50
222.4328692045631897
 51
279.1657411393917982
  0
ARC
  5
734A
  8
0
 10
4413.103941363577178
 20
316.6250547268563196
 30
0.0
 40
0.1355
 50
99.7435708676040065
 51
159.0680707657996038
  0
ARC
  5
734B
  8
0
 10
4413.1159298154962016
 20
316.2066400856297719
 30
0.0
 40
0.1221580519693104
 50
233.3305023679766066
 51
264.3679922097277881
  0
ARC
  5
734C
  8
0
 10
4413.0072787224853528
 20
316.6620303335133144
 30
0.0
 40
0.0320067071946007
 50
159.0714115847054018
 51
186.9969549971021934
  0
ARC
  5
734D
  8
0
 10
4422.7840619010075898
 20
315.785212152087297
 30
0.0
 40
0.2998596042514458
 50
359.973167548891297
 51
90.0268324510891063
  0
ARC
  5
734E
  8
0
 10
4422.9839214723760961
 20
315.5250717234562785
 30
0.0
 40
0.1
 50
270.0
 51
0.0
  0
ARC
  5
734F
  8
0
 10
4536.9468975469771976
 20
304.3289051875563018
 30
0.0
 40
116.5280387340000061
 50
174.8801758379991043
 51
175.3758931991008865
  0
LINE
  5
7350
  8
0
 10
4395.0756137513990325
 20
316.0850717234562808
 30
0.0
 11
4422.9480363280772508
 21
316.0850717234562808
 31
0.0
  0
LINE
  5
7351
  8
0
 10
4395.2782027965486122
 20
317.1937261091562732
 30
0.0
 11
4411.1660192176641431
 21
317.1937261091562732
 31
0.0
  0
LINE
  5
7352
  8
0
 10
4394.9686938586482938
 20
316.3941687748563254
 30
0.0
 11
4411.6807039396189793
 21
316.3941687748563254
 31
0.0
  0
LINE
  5
7353
  8
0
 10
4395.0395186209134408
 20
317.6541067694985827
 30
0.0
 11
4412.8367626819581346
 21
317.6541067694985827
 31
0.0
  0
ARC
  5
7354
  8
0
 10
4399.0426774216839476
 20
314.2977935533851905
 30
0.0
 40
4.5364356692792676
 50
159.6118493771126907
 51
188.4313897966100058
  0
ARC
  5
7355
  8
0
 10
4395.0983867030272449
 20
315.7536798497889095
 30
0.0
 40
0.3321734204577937
 50
93.9311342131157545
 51
157.9861132152782091
  0
ARC
  5
7356
  8
0
 10
4400.6528387713651682
 20
316.5076573972554002
 30
0.0
 40
6.7413697948119182
 50
205.2439958274325988
 51
249.6288068403617899
  0
ARC
  5
7357
  8
0
 10
4398.1834722210423934
 20
309.8599892500703277
 30
0.0
 40
0.3501235193922823
 50
354.0593647325981124
 51
69.4869406052671792
  0
ARC
  5
7358
  8
0
 10
4214.513805284926093
 20
329.5881203341677974
 30
0.0
 40
185.0762586443667885
 50
350.7572092946330145
 51
353.8696708644952196
  0
ARC
  5
7359
  8
0
 10
4397.2974131879382185
 20
299.8562917264630983
 30
0.0
 40
0.1103928897704234
 50
177.3101058628961937
 51
264.0726047921324948
  0
ARC
  5
735A
  8
0
 10
4422.8519979623879408
 20
299.8549422369932813
 30
0.0
 40
0.1088978257764945
 50
275.1793796860828252
 51
3.4378981157528981
  0
ARC
  5
735B
  8
0
 10
4321.7237356237183121
 20
284.0138632043839948
 30
0.0
 40
102.4698474574498022
 50
8.896864349584904
 51
9.3126721712225642
  0
ARC
  5
735C
  8
0
 10
4422.4474282541768844
 20
300.5311341911594241
 30
0.0
 40
0.4008390300794633
 50
9.2762265419058831
 51
44.6276965411189224
  0
ARC
  5
735D
  8
0
 10
4423.053055923480315
 20
301.073132177599291
 30
0.0
 40
0.4128451688148281
 50
163.6391261709983098
 51
219.106839882676411
  0
ARC
  5
735E
  8
0
 10
4398.983379445524406
 20
303.8812091478559978
 30
0.0
 40
23.8260910803528212
 50
353.5130838606381189
 51
3.7418227146694938
  0
ARC
  5
735F
  8
0
 10
4407.9261693808057316
 20
305.4756565580627239
 30
0.0
 40
14.8325625158827901
 50
359.8472643644224149
 51
14.6954046031077503
  0
ARC
  5
7360
  8
0
 10
4418.0786094465993301
 20
307.933487163513405
 30
0.0
 40
4.3931908440653027
 50
17.2791654697900015
 51
31.2327976807058505
  0
ARC
  5
7361
  8
0
 10
4422.0074169549552607
 20
310.3170975462031151
 30
0.0
 40
0.2021490196672052
 50
182.2170748549137897
 51
211.5151637359296046
  0
ARC
  5
7362
  8
0
 10
4421.2926344386087294
 20
314.8351385336550265
 30
0.0
 40
0.3500504041973435
 50
2.0592976789887598
 51
40.5119414989423419
  0
ARC
  5
7363
  8
0
 10
4421.7499408696166938
 20
315.2035606470587936
 30
0.0
 40
0.2375624338848174
 50
149.2290209216704113
 51
216.4158991410598105
  0
ARC
  5
7364
  8
0
 10
4419.1175515111381173
 20
315.3264374457224903
 30
0.0
 40
0.0987786421836388
 50
12.3454233228973607
 51
86.9019448708116187
  0
ARC
  5
7365
  8
0
 10
4419.3634377498710819
 20
315.3379800435591278
 30
0.0
 40
0.1496983609153702
 50
176.3320711623211992
 51
359.5548970161153193
  0
ARC
  5
7366
  8
0
 10
4419.6089226557423899
 20
315.3290350792179879
 30
0.0
 40
0.096106647824017
 50
92.1869931548944663
 51
175.3555047053731073
  0
ARC
  5
7367
  8
0
 10
4421.6066808299083277
 20
315.38978860500049
 30
0.0
 40
0.3631345975457141
 50
174.4241937194991863
 51
189.6675711553305064
  0
ARC
  5
7368
  8
0
 10
4421.2886023933797333
 20
315.3308344717851242
 30
0.0
 40
0.0399506539602678
 50
182.9091427440789062
 51
280.7866507641567182
  0
ARC
  5
7369
  8
0
 10
4417.8952581237690538
 20
315.1641078767440263
 30
0.0
 40
0.2621061508250686
 50
95.3511576747418275
 51
102.2983950800860953
  0
ARC
  5
736A
  8
0
 10
4416.8006673148593109
 20
319.0651922166147187
 30
0.0
 40
3.7901187469545161
 50
270.0798383090241259
 51
285.9066559125857907
  0
LINE
  5
736B
  8
0
 10
4408.7430836651319623
 20
316.0850717234562808
 30
0.0
 11
4408.875342843868566
 21
315.4059019273270223
 31
0.0
  0
ARC
  5
736C
  8
0
 10
4412.5708126674553569
 20
357.8938455751356855
 30
0.0
 40
42.6483511127499568
 50
265.0291001833235214
 51
267.8660188077615771
  0
ARC
  5
736D
  8
0
 10
4406.9194008165386549
 20
314.1729290639930809
 30
0.0
 40
5.5795327431933028
 50
7.8610454392060678
 51
11.3927548290807703
  0
ARC
  5
736E
  8
0
 10
4412.5096547536895741
 20
314.9385080023180876
 30
0.0
 40
0.063201745564052
 50
182.2308771682789086
 51
296.4885819451969837
  0
ARC
  5
736F
  8
0
 10
4415.8327613635710804
 20
314.6714807713320852
 30
0.0
 40
0.1510220404668203
 50
173.3304468380540015
 51
6.6695531237487637
  0
ARC
  5
7370
  8
0
 10
4398.7649843573353792
 20
307.1116324274482849
 30
0.0
 40
3.1103078311924861
 50
77.6622305399933026
 51
98.4830281322352619
  0
ARC
  5
7371
  8
0
 10
4408.8127090060015689
 20
362.0438815733446063
 30
0.0
 40
52.7352533391153528
 50
259.7508462829576956
 51
268.4239062622536949
  0
ARC
  5
7372
  8
0
 10
4407.4977547562730251
 20
308.4840416816928155
 30
0.0
 40
0.8553392557044185
 50
4.8066871430422839
 51
99.1153779388678799
  0
ARC
  5
7373
  8
0
 10
4408.6137148124826126
 20
301.5176316715172788
 30
0.0
 40
0.8274360782149507
 50
184.9046002817748899
 51
271.578343843088021
  0
ARC
  5
7374
  8
0
 10
3903.5344509330898291
 20
303.7480001119623125
 30
0.0
 40
504.2601079201913876
 50
359.7385388160636239
 51
0.5731189331808562
  0
ARC
  5
7375
  8
0
 10
4408.4800061446831023
 20
308.567647796510812
 30
0.0
 40
0.7452266645394812
 50
127.648266909370605
 51
162.484402248349511
  0
ARC
  5
7376
  8
0
 10
3872.8050075294131602
 20
270.2030551028727245
 30
0.0
 40
536.9166205044883782
 50
3.948579923401343
 51
4.0962012224118407
  0
ARC
  5
7377
  8
0
 10
4408.7195619476797219
 20
307.160606602490418
 30
0.0
 40
0.2728605302778685
 50
176.814661243043787
 51
253.1300415379394053
  0
ARC
  5
7378
  8
0
 10
4403.3283280593723248
 20
322.636461178672505
 30
0.0
 40
16.6093402628598312
 50
288.6522232090384819
 51
290.4300289594252149
  0
ARC
  5
7379
  8
0
 10
4403.3463702621347693
 20
322.0452736425909279
 30
0.0
 40
16.05015923234604
 50
291.1063584058558718
 51
302.6881367293597123
  0
ARC
  5
737A
  8
0
 10
4412.2070934589810349
 20
308.2458337239414732
 30
0.0
 40
0.3491702082466964
 50
123.4718261983556999
 51
169.9183752628397031
  0
ARC
  5
737B
  8
0
 10
4404.8120522569779496
 20
317.9172279197720741
 30
0.0
 40
11.8263417345525195
 50
307.5185895610524085
 51
326.1168848370958813
  0
ARC
  5
737C
  8
0
 10
4416.3101762958112886
 20
310.1253447677082136
 30
0.0
 40
2.063937801346567
 50
106.6267296255240069
 51
144.4946416678938022
  0
ARC
  5
737D
  8
0
 10
4418.1266341879272659
 20
312.350861881732726
 30
0.0
 40
0.3000563810381365
 50
0.0091010274112267
 51
101.4128972295234945
  0
ARC
  5
737E
  8
0
 10
4418.6690778112815678
 20
313.0516590202261114
 30
0.0
 40
0.0902262757031275
 50
118.7605879692364965
 51
171.8308936979167072
  0
ARC
  5
737F
  8
0
 10
4421.2612654798904259
 20
312.1993091008484953
 30
0.0
 40
2.8176149496368001
 50
162.1179911027855098
 51
174.2430062525010896
  0
ARC
  5
7380
  8
0
 10
4418.2003452105136603
 20
312.4739786054420279
 30
0.0
 40
0.2576396971961991
 50
331.4660795395935224
 51
1.771390148540571
  0
ARC
  5
7381
  8
0
 10
4418.1264418823429878
 20
312.0789692124957924
 30
0.0
 40
0.3002891543921867
 50
277.7841206313697739
 51
359.0594784377748283
  0
ARC
  5
7382
  8
0
 10
4417.3089077229487884
 20
311.7945020863666059
 30
0.0
 40
1.1522065925600591
 50
4.4211998184703383
 51
14.0406975499932294
  0
ARC
  5
7383
  8
0
 10
4418.9541814551503194
 20
311.906497051590577
 30
0.0
 40
0.4970362817420002
 50
182.6723172914228996
 51
211.5993383014497056
  0
ARC
  5
7384
  8
0
 10
4418.6479239194231923
 20
311.7129181337746786
 30
0.0
 40
0.1348279240972458
 50
209.7266837198847043
 51
255.8515213693119961
  0
ARC
  5
7385
  8
0
 10
4418.6149662231882758
 20
311.6493971561761782
 30
0.0
 40
0.067217014588989
 50
270.0008176092662211
 51
304.713092582700483
  0
ARC
  5
7386
  8
0
 10
4418.3566452003333325
 20
311.8905240142050275
 30
0.0
 40
0.4192995715126099
 50
315.0211353589551209
 51
348.2420977931146808
  0
ARC
  5
7387
  8
0
 10
4421.1972258774476359
 20
311.5800067953804842
 30
0.0
 40
2.4404800049750719
 50
167.5830185088807127
 51
174.7083670636064028
  0
ARC
  5
7388
  8
0
 10
4419.1138271752288347
 20
312.5788676395865764
 30
0.0
 40
0.2999951233418109
 50
104.7859831868669005
 51
180.0474304194740114
  0
ARC
  5
7389
  8
0
 10
4418.5537652486700608
 20
313.0074392070105205
 30
0.0
 40
0.1427457882729044
 50
13.0267905283926098
 51
59.7553402763182078
  0
ARC
  5
738A
  8
0
 10
4416.3912780101709359
 20
312.1891626990047826
 30
0.0
 40
2.4536595171294491
 50
9.1328864167068406
 51
20.2798440301673288
  0
ARC
  5
738B
  8
0
 10
4418.6536640497006374
 20
307.6801215483342276
 30
0.0
 40
4.1300850905686772
 50
96.7655240668614169
 51
144.0792323200886926
  0
ARC
  5
738C
  8
0
 10
4411.303970797992406
 20
311.9798624586832148
 30
0.0
 40
4.4229513935429017
 50
281.3690217197437278
 51
334.8921709745741282
  0
ARC
  5
738D
  8
0
 10
4412.1095693137158378
 20
307.9379909796277275
 30
0.0
 40
0.301665043049923
 50
173.2618068955650017
 51
282.6933920513520206
  0
ARC
  5
738E
  8
0
 10
4420.3174243022813243
 20
306.7843799278758752
 30
0.0
 40
8.5901227413773285
 50
169.7905341413357121
 51
172.0438308485198888
  0
ARC
  5
738F
  8
0
 10
4419.1143156013349653
 20
312.109913939995181
 30
0.0
 40
0.3005274819234793
 50
180.9806506907829089
 51
265.3732980634244996
  0
ARC
  5
7390
  8
0
 10
4418.8401829180593268
 20
308.2538443178161742
 30
0.0
 40
3.5652896544337538
 50
59.6806588713281911
 51
85.9808443102383961
  0
ARC
  5
7391
  8
0
 10
4413.7049559079750907
 20
302.7343981937272019
 30
0.0
 40
11.0455867508431904
 50
42.6037978679642677
 51
51.1077798842485009
  0
ARC
  5
7392
  8
0
 10
4420.1831912774323428
 20
313.7601128407470128
 30
0.0
 40
0.6160677699087814
 50
275.3370023165198859
 51
356.564788048294588
  0
ARC
  5
7393
  8
0
 10
4421.1790675097026906
 20
314.7081518288889015
 30
0.0
 40
0.2959398649913236
 50
112.3160782085795972
 51
176.2045715007755007
  0
ARC
  5
7394
  8
0
 10
4420.5949292055483966
 20
316.2209820711395878
 30
0.0
 40
1.3258282582620611
 50
290.8441275136465265
 51
314.4356851310076877
  0
ARC
  5
7395
  8
0
 10
4420.5443368279084098
 20
313.0579821021271982
 30
0.0
 40
0.2857097423971989
 50
11.5592113542089194
 51
73.394637163748385
  0
ARC
  5
7396
  8
0
 10
4421.0119891270896915
 20
312.9792004612659184
 30
0.0
 40
0.2318406228293346
 50
144.0733388295012105
 51
182.9411741325941136
  0
ARC
  5
7397
  8
0
 10
4421.1639976159640355
 20
311.6796811243597176
 30
0.0
 40
0.3371540470133346
 50
183.1543353869654993
 51
212.4923214425278957
  0
ARC
  5
7398
  8
0
 10
4413.0553770945907672
 20
304.4528194725806998
 30
0.0
 40
10.5290709951973103
 50
33.7946421301481692
 51
42.0031001597913303
  0
ARC
  5
7399
  8
0
 10
4410.3888093623108944
 20
301.5982440934736815
 30
0.0
 40
0.8793201139022594
 50
187.920381149729792
 51
266.8498674589375241
  0
ARC
  5
739A
  8
0
 10
4409.623462845933318
 20
304.950273507690099
 30
0.0
 40
0.7914453960494123
 50
216.2642215539719075
 51
250.8487903008939952
  0
ARC
  5
739B
  8
0
 10
4410.3049763806347983
 20
305.4076458549542963
 30
0.0
 40
1.6118544111259061
 50
179.877082689317092
 51
215.0433339537840141
  0
ARC
  5
739C
  8
0
 10
4325.7404933277030068
 20
301.1185836562426061
 30
0.0
 40
83.063619852439146
 50
2.9622220508781871
 51
3.7948360799524101
  0
ARC
  5
739D
  8
0
 10
4408.9598849756575873
 20
306.654916630118521
 30
0.0
 40
0.3401203976919783
 50
118.8729498939429021
 51
186.559354361315286
  0
ARC
  5
739E
  8
0
 10
4409.7288823275630421
 20
304.2008943849867251
 30
0.0
 40
0.3650670371517053
 50
92.9782393962630351
 51
179.7276316511990046
  0
ARC
  5
739F
  8
0
 10
4410.210388386154591
 20
312.5147791765600118
 30
0.0
 40
7.9650496998577269
 50
266.3975197052689055
 51
276.8539276444416828
  0
ARC
  5
73A0
  8
0
 10
4411.123970285066207
 20
305.0927455520151739
 30
0.0
 40
0.4874975751705365
 50
274.3475370035732794
 51
320.8019890457173915
  0
ARC
  5
73A1
  8
0
 10
4411.7309834241523276
 20
304.4836890323962848
 30
0.0
 40
0.3783072054624765
 50
96.1628906156984868
 51
127.2941181485535935
  0
ARC
  5
73A2
  8
0
 10
4413.7621748693745758
 20
296.9356080831735767
 30
0.0
 40
8.1905646514692378
 50
94.501490388791467
 51
104.652157419755099
  0
ARC
  5
73A3
  8
0
 10
4411.2083405681996737
 20
311.6966074397985267
 30
0.0
 40
6.8669624290623084
 50
286.158091676637298
 51
334.0986170400777269
  0
ARC
  5
73A4
  8
0
 10
4413.2622635608022392
 20
304.8282004982841045
 30
0.0
 40
0.3078906166482596
 50
117.6589977225674062
 51
194.2132810008575063
  0
ARC
  5
73A5
  8
0
 10
4411.5495587794048333
 20
304.4230328016772091
 30
0.0
 40
0.3200375770473482
 50
18.7308610827801907
 51
109.2011254465919023
  0
ARC
  5
73A6
  8
0
 10
4411.9916676636130433
 20
302.822246374462793
 30
0.0
 40
0.3067515677033951
 50
313.3828440863127867
 51
16.6200671976478382
  0
ARC
  5
73A7
  8
0
 10
4411.7366508579407309
 20
307.163401193706818
 30
0.0
 40
4.5877948396096189
 50
275.8262322809403031
 51
294.5361903100213112
  0
ARC
  5
73A8
  8
0
 10
4413.678563135924378
 20
303.3030185943762262
 30
0.0
 40
0.3152794444611666
 50
196.014943974806414
 51
263.3065257162493253
  0
ARC
  5
73A9
  8
0
 10
4414.4730438836495523
 20
375.8984615099132043
 30
0.0
 40
72.9133116508726857
 50
269.3468004354789969
 51
272.4459761361924848
  0
ARC
  5
73AA
  8
0
 10
4417.6195214494946413
 20
305.8189036057228236
 30
0.0
 40
2.7675407733956492
 50
269.2809924001095965
 51
326.1030601754044937
  0
ARC
  5
73AB
  8
0
 10
4417.7058760234658621
 20
305.3294574220254276
 30
0.0
 40
2.4492187662852301
 50
334.5104291061354047
 51
2.4975077678959048
  0
ARC
  5
73AC
  8
0
 10
4413.1477746791415484
 20
305.9800717299348776
 30
0.0
 40
7.0260763828303503
 50
355.5603023889935912
 51
22.3333446483647187
  0
ARC
  5
73AD
  8
0
 10
4418.501502078397607
 20
307.9685772820474199
 30
0.0
 40
1.332667526351393
 50
30.7490715504609113
 51
146.8688298526529934
  0
ARC
  5
73AE
  8
0
 10
4418.5088030688493745
 20
309.3315803795078978
 30
0.0
 40
1.431695132743207
 50
218.1779606781828136
 51
322.1074067031509003
  0
ARC
  5
73AF
  8
0
 10
4417.540563484310951
 20
308.5705783279997263
 30
0.0
 40
0.2001937420180808
 50
161.3151657492938114
 51
218.6690326396177966
  0
ARC
  5
73B0
  8
0
 10
4419.471439195174753
 20
308.5598405240991156
 30
0.0
 40
0.1988260441278221
 50
327.2419775754057127
 51
13.17828375477999
  0
ARC
  5
73B1
  8
0
 10
4413.9607166455543847
 20
300.0830071949815192
 30
0.0
 40
3.0697806296746819
 50
124.9452593930894011
 51
163.3640097205860116
  0
ARC
  5
73B2
  8
0
 10
4410.6979411810698366
 20
301.0636388908257004
 30
0.0
 40
0.3372145407663086
 50
272.5223025912966932
 51
342.4321156028826181
  0
ARC
  5
73B3
  8
0
 10
4407.8354217690712176
 20
313.6320293008353133
 30
0.0
 40
4.4783358874570887
 50
272.4237853456529024
 51
320.6692786736775815
  0
ARC
  5
73B4
  8
0
 10
4371.5672486028252024
 20
343.348127213228679
 30
0.0
 40
51.3657207562144364
 50
320.6706129653700259
 51
323.9406848217632273
  0
ARC
  5
73B5
  8
0
 10
4411.9813593930102797
 20
313.9226369425282996
 30
0.0
 40
1.3741234461201699
 50
323.9052363177352163
 51
344.7940646778793052
  0
ARC
  5
73B6
  8
0
 10
4409.6273826921478758
 20
314.3792500060322936
 30
0.0
 40
3.76962774521439
 50
347.4822285595017206
 51
13.7474421063927394
  0
ARC
  5
73B7
  8
0
 10
4412.7828241624247312
 20
300.9444472792253009
 30
0.0
 40
0.6953822404111457
 50
38.5756197041194113
 51
149.1015539077176868
  0
ARC
  5
73B8
  8
0
 10
4412.3633207536759073
 20
300.7756777121026062
 30
0.0
 40
1.1360011285861
 50
359.9855039212457086
 51
32.0228518534937976
  0
ARC
  5
73B9
  8
0
 10
4413.8049274702789262
 20
300.6295436735780982
 30
0.0
 40
1.7527344094010799
 50
157.4556771184282979
 51
176.0525959492925949
  0
ARC
  5
73BA
  8
0
 10
4422.063054726698283
 20
298.8651981004223899
 30
0.0
 40
2.0594358372788188
 50
71.0247572164061438
 51
90.5051065759852662
  0
ARC
  5
73BB
  8
0
 10
4394.9767242403140699
 20
316.4566925339026966
 30
0.0
 40
0.0630373498411975
 50
185.1495163340730983
 51
262.681154517754976
  0
ARC
  5
73BC
  8
0
 10
4395.3131191361107994
 20
316.9292300429659122
 30
0.0
 40
0.2667907790733571
 50
97.5201790041792975
 51
163.8076760715377986
  0
ARC
  5
73BD
  8
0
 10
4395.4769564119806091
 20
317.7751081049136133
 30
0.0
 40
0.4947066439502228
 50
201.5847538176172975
 51
237.0434414832747052
  0
ARC
  5
73BE
  8
0
 10
4395.561194986404189
 20
317.3714179586830824
 30
0.0
 40
0.4718724285701743
 50
95.1726977660314617
 51
109.5239155506086064
  0
ARC
  5
73BF
  8
0
 10
4420.0201177013468623
 20
-304.3913073086056897
 30
0.0
 40
622.714882499923533
 50
90.7108703070934155
 51
92.2549534165907943
  0
ARC
  5
73C0
  8
0
 10
4412.2639249979911256
 20
317.7124646795668923
 30
0.0
 40
0.5639997342843408
 50
12.7958579807021504
 51
86.9152742187509091
  0
ARC
  5
73C1
  8
0
 10
4411.6495332828990286
 20
316.8570045457350943
 30
0.0
 40
0.4638842103859205
 50
273.8528877342803867
 51
278.8819247168852939
  0
ARC
  5
73C2
  8
0
 10
4413.0053060557784192
 20
316.5338797081806774
 30
0.0
 40
0.0298164931426498
 50
193.1873147037223077
 51
248.0531797023847957
  0
ARC
  5
73C3
  8
0
 10
4413.086091172005581
 20
316.7288762367081176
 30
0.0
 40
0.0301551707033406
 50
83.2654026737890547
 51
99.7016486215672586
  0
ARC
  5
73C4
  8
0
 10
4412.0925279307548408
 20
306.9453487527886182
 30
0.0
 40
9.8639997432745332
 50
75.8342485026152815
 51
84.1983637005326102
  0
ARC
  5
73C5
  8
0
 10
4414.4740045843991538
 20
316.4407022828738718
 30
0.0
 40
0.0760075158873047
 50
291.1782207164695819
 51
64.6696002064543336
  0
ARC
  5
73C6
  8
0
 10
4414.6056219105048513
 20
316.1965210616980926
 30
0.0
 40
0.2021986102050103
 50
121.0059825860631975
 51
172.899222108143988
  0
ARC
  5
73C7
  8
0
 10
4419.0963170196691863
 20
315.9377274259065871
 30
0.0
 40
4.6999185253888269
 50
176.5382858142648956
 51
178.2034603682756995
  0
ARC
  5
73C8
  8
0
 10
4411.1250965414674283
 20
316.6649963873633737
 30
0.0
 40
0.5303110258465114
 50
30.6718839814149717
 51
85.5742388771086411
  0
ARC
  5
73C9
  8
0
 10
4413.4311052563480189
 20
317.8874282244594838
 30
0.0
 40
2.0804355268429018
 50
207.2293063128394977
 51
218.2932718020402945
  0
ARC
  5
73CA
  8
0
 10
4415.0479293204953137
 20
318.9778748464145224
 30
0.0
 40
3.9266671928775949
 50
208.3496526913604043
 51
216.2904913022985909
  0
ARC
  5
73CB
  8
0
 10
4397.7865444720900996
 20
316.1678746183043813
 30
0.0
 40
0.2392922815556649
 50
4.6414997807521479
 51
71.0285997611624538
  0
ARC
  5
73CC
  8
0
 10
4398.1358226169331829
 20
316.1961990635301163
 30
0.0
 40
0.1111324591725851
 50
184.6248274418879021
 51
269.4500596458422024
  0
ARC
  5
73CD
  8
0
 10
4399.3315664508718328
 20
316.2506924548603138
 30
0.0
 40
0.2109953350293352
 50
137.1565450320761954
 51
175.4711492462280091
  0
ARC
  5
73CE
  8
0
 10
4431.8079819419453997
 20
1130.0621140362059123
 30
0.0
 40
814.3960701189059819
 50
267.7005707638709282
 51
268.1619393387821901
  0
ARC
  5
73CF
  8
0
 10
4407.6738238911439112
 20
316.2559007393019783
 30
0.0
 40
0.1103298932919391
 50
189.625040874654303
 51
269.5859507339416155
  0
ARC
  5
73D0
  8
0
 10
4407.2749992133367414
 20
316.1294085309223192
 30
0.0
 40
0.3095182075186135
 50
20.430752348652959
 51
58.8033703821797218
  0
ARC
  5
73D1
  8
0
 10
4408.1573703895837752
 20
316.2562576623366226
 30
0.0
 40
0.110688469757769
 50
270.5186112932207152
 51
347.236855694051485
  0
ARC
  5
73D2
  8
0
 10
4408.4758060220274274
 20
316.1874899361347957
 30
0.0
 40
0.2150964143969783
 50
106.0820399774110996
 51
168.1107478255059107
  0
ARC
  5
73D3
  8
0
 10
4410.0520466788184422
 20
316.0416630143237171
 30
0.0
 40
0.2043518455058851
 50
104.6523526776535959
 51
167.7357085171709059
  0
ARC
  5
73D4
  8
0
 10
4410.8147046124449844
 20
313.8711625709306077
 30
0.0
 40
2.5043096453904332
 50
95.5819731650744444
 51
108.9764329860234966
  0
ARC
  5
73D5
  8
0
 10
4411.1853346837042409
 20
310.7586999994861117
 30
0.0
 40
5.638451928615213
 50
91.8638657189503931
 51
96.2539157076965921
  0
ARC
  5
73D6
  8
0
 10
4399.5385459367389558
 20
317.3000662772490159
 30
0.0
 40
0.0491729361393228
 50
102.6012979190673065
 51
176.3823877287767061
  0
ARC
  5
73D7
  8
0
 10
4408.1777705639397027
 20
317.3150724381305281
 30
0.0
 40
0.037327419468799
 50
8.0115961591006144
 51
62.0790078766339803
  0
ARC
  5
73D8
  8
0
 10
4409.5382361971205682
 20
317.2641907788432718
 30
0.0
 40
0.08434838119749
 50
96.1436189451798668
 51
155.1250417884552064
  0
LINE
  5
73D9
  8
0
 10
4416.7216398256268803
 20
316.675862918006203
 30
0.0
 11
4416.2454720765690581
 21
326.7737452849440842
 31
0.0
  0
LINE
  5
73DA
  8
0
 10
4416.1997391570621403
 20
327.7435834194770905
 30
0.0
 11
4416.1539282980284042
 21
328.7150743837062805
 31
0.0
  0
LINE
  5
73DB
  8
0
 10
4423.5679419080270236
 20
316.6942517393063099
 30
0.0
 11
4423.7796676651269081
 21
328.8240122411062885
 31
0.0
  0
LINE
  5
73DC
  8
0
 10
4415.7953091340259562
 20
328.7150717234063109
 30
0.0
 11
4423.1869818579261846
 21
328.7150718848063207
 31
0.0
  0
LINE
  5
73DD
  8
0
 10
4423.766342191926924
 20
328.9650717234063109
 30
0.0
 11
4423.669868725825836
 21
328.9650717234063109
 31
0.0
  0
LINE
  5
73DE
  8
0
 10
4423.8303749153274111
 20
329.7276138269062926
 30
0.0
 11
4423.9054128049037899
 21
329.0828474985062826
 31
0.0
  0
ARC
  5
73DF
  8
0
 10
4415.8040893511488321
 20
328.8335901110609143
 30
0.0
 40
0.1188431757609017
 50
182.4571718379984873
 51
265.7630872423345068
  0
ARC
  5
73E0
  8
0
 10
4422.8087869598721227
 20
316.8467727939431029
 30
0.0
 40
0.7743248074396841
 50
280.3600488664444015
 51
348.6399980727283037
  0
ARC
  5
73E1
  8
0
 10
4423.4914612389529793
 20
329.6528631096147137
 30
0.0
 40
0.3470592885499826
 50
12.4380059047268308
 51
78.7125735597642091
  0
ARC
  5
73E2
  8
0
 10
4423.6275275160405727
 20
328.8188510518427847
 30
0.0
 40
0.1522276677829501
 50
1.942951961918203
 51
73.8505370221529631
  0
ARC
  5
73E3
  8
0
 10
4423.7460976733300413
 20
329.1299723738524108
 30
0.0
 40
0.1661386922146096
 50
276.9990636954794923
 51
343.5219616511499794
  0
ARC
  5
73E4
  8
0
 10
4423.1869819407920659
 20
329.1675006848860221
 30
0.0
 40
0.4524287977797285
 50
269.9999894932793154
 51
312.7718306617520057
  0
ARC
  5
73E5
  8
0
 10
4423.7873004852608574
 20
328.6222155181648077
 30
0.0
 40
0.3624094308878011
 50
108.9068568879835937
 51
143.969775548646993
  0
ARC
  5
73E6
  8
0
 10
4423.0874387781268524
 20
328.6984967773665858
 30
0.0
 40
7.403224783305598
 50
171.7903525994267113
 51
178.9938530430544006
  0
ARC
  5
73E7
  8
0
 10
4416.0367364024914423
 20
329.7124976081605041
 30
0.0
 40
0.2800000234549043
 50
91.7950768349818134
 51
171.1356021033807053
  0
ARC
  5
73E8
  8
0
 10
4419.8071452268195571
 20
210.5619494271116992
 30
0.0
 40
119.4901888140076949
 50
88.2004947442770799
 51
91.8124263571606889
  0
ARC
  5
73E9
  8
0
 10
4417.3783238189671465
 20
316.7442443333615074
 30
0.0
 40
0.6602347196827888
 50
185.9448633951799934
 51
266.7496406231983883
  0
LINE
  5
73EB
  8
0
 10
4416.1220088999925792
 20
327.0342273926173107
 30
0.0
 11
4416.3462057262941016
 21
327.206333531417215
 31
0.0
  0
LINE
  5
73EC
  8
0
 10
4416.1557013012943571
 20
327.6529106020947211
 30
0.0
 11
4416.2950629869937984
 21
327.9398527444171805
 31
0.0
  0
LINE
  5
73ED
  8
0
 10
4415.8470670266942761
 20
327.2423808427172958
 30
0.0
 11
4415.8466856120940065
 21
327.2513528894173191
 31
0.0
  0
LINE
  5
73EE
  8
0
 10
4416.3433416035941264
 20
327.3147816368173153
 30
0.0
 11
4416.3473142871926029
 21
327.2213318911171882
 31
0.0
  0
LINE
  5
73EF
  8
0
 10
4416.4133068136934526
 20
326.5554317006877909
 30
0.0
 11
4416.4961445170929437
 21
326.5588224035171834
 31
0.0
  0
LINE
  5
73F0
  8
0
 10
4416.1885843911941265
 20
327.0327690521173167
 30
0.0
 11
4416.1444520393943094
 21
327.030114238417184
 31
0.0
  0
LINE
  5
73F1
  8
0
 10
4415.649898005293835
 20
327.4585485753171952
 30
0.0
 11
4416.1031311353926867
 21
327.4858131439171984
 31
0.0
  0
LINE
  5
73F2
  8
0
 10
4416.3409641388925593
 20
327.3296318004171894
 30
0.0
 11
4415.8934897258950514
 21
327.3034068458172214
 31
0.0
  0
LINE
  5
73F3
  8
0
 10
4415.8981200684938813
 20
327.1944869351173111
 30
0.0
 11
4416.3462057262941016
 21
327.206333531417215
 31
0.0
  0
LINE
  5
73F4
  8
0
 10
4415.6685740107932361
 20
327.0192314360172077
 30
0.0
 11
4416.1221011568941321
 21
327.0305213325173099
 31
0.0
  0
LINE
  5
73F5
  8
0
 10
4416.1691812388944527
 20
327.4891928290173269
 30
0.0
 11
4416.1249827195933904
 21
327.4880925713172246
 31
0.0
  0
LINE
  5
73F6
  8
0
 10
4416.1890477626939173
 20
326.8684980189171938
 30
0.0
 11
4416.3522593334937483
 21
326.5944186108171721
 31
0.0
  0
LINE
  5
73F7
  8
0
 10
4416.3525703075929414
 20
327.9840104377171883
 30
0.0
 11
4416.4354080109942515
 21
327.9875198449281015
 31
0.0
  0
LINE
  5
73F8
  8
0
 10
4416.3409641388925593
 20
327.3296318004171894
 30
0.0
 11
4416.1029696346940909
 21
327.4820895189172916
 31
0.0
  0
ARC
  5
73F9
  8
0
 10
4416.5227593024510497
 20
327.2755682103793902
 30
0.0
 40
0.9350710676320133
 50
171.7157721363840892
 51
193.1442194651475859
  0
ARC
  5
73FA
  8
0
 10
4415.669685468269563
 20
327.0788954447622245
 30
0.0
 40
0.0596743603002083
 50
195.5177922704874902
 51
268.9327827784607052
  0
ARC
  5
73FB
  8
0
 10
4415.6556222783456178
 20
327.3996902851100117
 30
0.0
 40
0.0591359926618575
 50
95.5548411505394455
 51
169.6676252401699969
  0
ARC
  5
73FC
  8
0
 10
4415.8970577289674111
 20
327.2445117542835078
 30
0.0
 40
0.0500360979482903
 50
182.4408213420103095
 51
271.2165645931340805
  0
ARC
  5
73FD
  8
0
 10
4415.8966835426926991
 20
327.2534662869509816
 30
0.0
 40
0.0500425770046546
 50
93.6592153366212585
 51
182.4204345528438864
  0
ARC
  5
73FE
  8
0
 10
4416.2973214259227461
 20
327.3150293445763168
 30
0.0
 40
0.0460208443210499
 50
359.6916032748030716
 51
18.4997737295654083
  0
ARC
  5
73FF
  8
0
 10
4416.301481170072293
 20
327.2171793672097806
 30
0.0
 40
0.0460208439921907
 50
346.368747141422773
 51
5.176917905002826
  0
ARC
  5
7400
  8
0
 10
4416.4263066647490632
 20
327.9535943131588169
 30
0.0
 40
0.0351251506660285
 50
19.8633993751905606
 51
74.9826251299293602
  0
ARC
  5
7401
  8
0
 10
4413.3962765027736168
 20
327.1339733901592126
 30
0.0
 40
3.173933755473608
 50
350.3736118849610079
 51
15.1884887922033407
  0
ARC
  5
7402
  8
0
 10
4416.4316258988746995
 20
326.6250044632988079
 30
0.0
 40
0.0963868165597032
 50
320.1422652244295932
 51
346.9371729080701812
  0
ARC
  5
7403
  8
0
 10
4416.4946665549487079
 20
326.5743746640966947
 30
0.0
 40
0.0156223295712415
 50
275.4286285272798978
 51
314.4984728664280738
  0
ARC
  5
7404
  8
0
 10
4416.4139663082187326
 20
326.6237532852981076
 30
0.0
 40
0.0683247675201567
 50
205.4257924786855085
 51
269.4469525317525154
  0
ARC
  5
7405
  8
0
 10
4416.1234668629776934
 20
327.0324095081056157
 30
0.0
 40
0.0023303133177854
 50
128.7299890586984077
 51
234.122009769580103
  0
ARC
  5
7406
  8
0
 10
4416.1347095929231727
 20
327.1089941846818192
 30
0.0
 40
0.0794793129433488
 50
260.8721526351183115
 51
277.0409324486647051
  0
ARC
  5
7407
  8
0
 10
4416.1039573108828336
 20
327.4839119963182839
 30
0.0
 40
0.0020729033096273
 50
113.4881621937429941
 51
241.5448968077758991
  0
ARC
  5
7408
  8
0
 10
4416.1366476318271452
 20
327.2703885231359209
 30
0.0
 40
0.2180163360208635
 50
93.0670616282434935
 51
98.8433726173581277
  0
ARC
  5
7409
  8
0
 10
4416.1691246645368665
 20
327.4858597700595055
 30
0.0
 40
0.0143573452388607
 50
113.8479647493696945
 51
168.012322056416707
  0
ARC
  5
740A
  8
0
 10
4416.1432060278675635
 20
327.4803069405829774
 30
0.0
 40
0.027453061779609
 50
18.8853607457392201
 51
42.8900131061491692
  0
ARC
  5
740B
  8
0
 10
4415.9159910331582068
 20
327.3957291138036112
 30
0.0
 40
0.2698902486979174
 50
7.3829667347563079
 51
20.26133621645711
  0
ARC
  5
740C
  8
0
 10
4416.6525878040101816
 20
327.0872670490533096
 30
0.0
 40
0.5125712228072651
 50
186.4178306601064037
 51
205.2650998008311092
  0
ARC
  5
740D
  8
0
 10
4416.1886128820451631
 20
327.0362719014945014
 30
0.0
 40
0.0147494260354657
 50
197.1488827070342893
 51
249.2186814902260892
  0
ARC
  5
740E
  8
0
 10
4416.1629147888143052
 20
327.0392962864394235
 30
0.0
 40
0.0264864734196439
 50
320.593109545658308
 51
345.7332565375962758
  0
ARC
  5
740F
  8
0
 10
4415.9031472623255468
 20
327.1085189357692116
 30
0.0
 40
0.295317455308253
 50
345.1373226388892022
 51
356.9078927502010856
  0
ARC
  5
7410
  8
0
 10
4416.3592930697122938
 20
327.9157300382839821
 30
0.0
 40
0.06861055660222
 50
95.6231132786970477
 51
159.4154733904655927
  0
ARC
  5
7411
  8
0
 10
4416.5301356022673644
 20
327.4978523368631045
 30
0.0
 40
0.4052704175758047
 50
157.504898121402789
 51
181.3799364946744106
  0
ARC
  5
7412
  8
0
 10
4416.3469778538883475
 20
327.9147430514622101
 30
0.0
 40
0.0576684496491014
 50
133.6559312095536995
 51
154.1883126984101011
  0
ARC
  5
7413
  8
0
 10
4416.3153097102840547
 20
327.945948430814326
 30
0.0
 40
0.0133008025994599
 50
46.1049078107456367
 51
127.7440806573823977
  0
ARC
  5
7414
  8
0
 10
4413.0775725520334163
 20
327.0914134313143222
 30
0.0
 40
3.359977157119526
 50
352.2493540903333837
 51
14.9028125078394194
  0
ARC
  5
7415
  8
0
 10
4416.2529145978160159
 20
326.6674860094965993
 30
0.0
 40
0.1566856991315921
 50
327.8849290868686239
 51
349.2572555406288188
  0
ARC
  5
7416
  8
0
 10
4416.3731788970526395
 20
326.5908087169671035
 30
0.0
 40
0.014096872627561
 50
231.3406580607594094
 51
331.9903551341726029
  0
ARC
  5
7417
  8
0
 10
4416.396050351941085
 20
326.6183792670498747
 30
0.0
 40
0.0499175955329398
 50
208.6856772690038042
 51
230.6098165430848042
  0
LINE
  5
7418
  8
0
 10
4415.6155860124436003
 20
327.4432122685288959
 30
0.0
 11
4415.8594713948759818
 21
327.2869254496445137
 31
0.0
  0
LINE
  5
7419
  8
0
 10
4415.8628239332883822
 20
327.2080198602340033
 30
0.0
 11
4415.6331314460421709
 21
327.0317273121290214
 31
0.0
  0
ENDSEC
  0
EOF
