  0
SECTION
  2
HEADER
  9
$ACADVER
  1
AC1009
  9
$INSBASE
 10
4469.2097796510943226
 20
231.4799615638820001
 30
0.0
  9
$EXTMIN
 10
4461.6465606907240726
 20
201.1407615638819948
 30
0.0
  9
$EXTMAX
 10
4476.7729986114609346
 20
231.4849658360780893
 30
0.0
  9
$LIMMIN
 10
0.0
 20
0.0
  9
$LIMMAX
 10
11.6929133858000007
 20
8.2677165353999982
  9
$ORTHOMODE
 70
     1
  9
$REGENMODE
 70
     1
  9
$FILLMODE
 70
     1
  9
$QTEXTMODE
 70
     0
  9
$MIRRTEXT
 70
     0
  9
$DRAGMODE
 70
     2
  9
$LTSCALE
 40
0.6431102362
  9
$OSMODE
 70
  4095
  9
$ATTMODE
 70
     1
  9
$TEXTSIZE
 40
0.2
  9
$TRACEWID
 40
0.05
  9
$TEXTSTYLE
  7
STANDARD
  9
$CLAYER
  8
0
  9
$CELTYPE
  6
BYLAYER
  9
$CECOLOR
 62
   256
  9
$DIMSCALE
 40
1.0
  9
$DIMASZ
 40
0.1875
  9
$DIMEXO
 40
0.0625
  9
$DIMDLI
 40
0.4443307087
  9
$DIMRND
 40
0.0
  9
$DIMDLE
 40
0.0
  9
$DIMEXE
 40
0.125
  9
$DIMTP
 40
0.01
  9
$DIMTM
 40
0.01
  9
$DIMTXT
 40
2.0
  9
$DIMCEN
 40
0.1052362205
  9
$DIMTSZ
 40
0.0
  9
$DIMTOL
 70
     1
  9
$DIMLIM
 70
     0
  9
$DIMTIH
 70
     1
  9
$DIMTOH
 70
     1
  9
$DIMSE1
 70
     0
  9
$DIMSE2
 70
     0
  9
$DIMTAD
 70
     0
  9
$DIMZIN
 70
     0
  9
$DIMBLK
  1

  9
$DIMASO
 70
     1
  9
$DIMSHO
 70
     1
  9
$DIMPOST
  1
\X
  9
$DIMAPOST
  1

  9
$DIMALT
 70
     1
  9
$DIMALTD
 70
     2
  9
$DIMALTF
 40
25.3999999999999986
  9
$DIMLFAC
 40
1.0
  9
$DIMTOFL
 70
     0
  9
$DIMTVP
 40
0.0
  9
$DIMTIX
 70
     0
  9
$DIMSOXD
 70
     0
  9
$DIMSAH
 70
     0
  9
$DIMBLK1
  1

  9
$DIMBLK2
  1

  9
$DIMSTYLE
  2
STANDARD
  9
$DIMCLRD
 70
     0
  9
$DIMCLRE
 70
     0
  9
$DIMCLRT
 70
     0
  9
$DIMTFAC
 40
1.0
  9
$DIMGAP
 40
0.09
  9
$LUNITS
 70
     2
  9
$LUPREC
 70
     4
  9
$SKETCHINC
 40
0.1
  9
$FILLETRAD
 40
0.0
  9
$AUNITS
 70
     0
  9
$AUPREC
 70
     0
  9
$MENU
  1
.
  9
$ELEVATION
 40
0.0
  9
$PELEVATION
 40
0.0
  9
$THICKNESS
 40
0.0
  9
$LIMCHECK
 70
     0
  9
$BLIPMODE
 70
     0
  9
$CHAMFERA
 40
0.0
  9
$CHAMFERB
 40
0.0
  9
$SKPOLY
 70
     0
  9
$TDCREATE
 40
2458060.468368056230247
  9
$TDUPDATE
 40
2458994.0560069438070059
  9
$TDINDWG
 40
0.3196829861
  9
$TDUSRTIMER
 40
0.3196829861
  9
$USRTIMER
 70
     1
  9
$ANGBASE
 50
0.0
  9
$ANGDIR
 70
     0
  9
$PDMODE
 70
     0
  9
$PDSIZE
 40
0.3125
  9
$PLINEWID
 40
0.0
  9
$COORDS
 70
     1
  9
$SPLFRAME
 70
     0
  9
$SPLINETYPE
 70
     6
  9
$SPLINESEGS
 70
     8
  9
$ATTDIA
 70
     1
  9
$ATTREQ
 70
     1
  9
$HANDLING
 70
     1
  9
$HANDSEED
  5
754C
  9
$SURFTAB1
 70
     6
  9
$SURFTAB2
 70
     6
  9
$SURFTYPE
 70
     6
  9
$SURFU
 70
     6
  9
$SURFV
 70
     6
  9
$UCSNAME
  2

  9
$UCSORG
 10
0.0
 20
0.0
 30
0.0
  9
$UCSXDIR
 10
1.0
 20
0.0
 30
0.0
  9
$UCSYDIR
 10
0.0
 20
1.0
 30
0.0
  9
$PUCSNAME
  2

  9
$PUCSORG
 10
0.0
 20
0.0
 30
0.0
  9
$PUCSXDIR
 10
1.0
 20
0.0
 30
0.0
  9
$PUCSYDIR
 10
0.0
 20
1.0
 30
0.0
  9
$USERI1
 70
     0
  9
$USERI2
 70
     0
  9
$USERI3
 70
     0
  9
$USERI4
 70
     0
  9
$USERI5
 70
     0
  9
$USERR1
 40
0.0
  9
$USERR2
 40
0.0
  9
$USERR3
 40
0.0
  9
$USERR4
 40
0.0
  9
$USERR5
 40
0.0
  9
$WORLDVIEW
 70
     1
  9
$SHADEDGE
 70
     3
  9
$SHADEDIF
 70
    70
  9
$TILEMODE
 70
     1
  9
$MAXACTVP
 70
    64
  9
$PLIMCHECK
 70
     0
  9
$PEXTMIN
 10
1.0000000000000000E+20
 20
1.0000000000000000E+20
 30
1.0000000000000000E+20
  9
$PEXTMAX
 10
-1.0000000000000000E+20
 20
-1.0000000000000000E+20
 30
-1.0000000000000000E+20
  9
$PLIMMIN
 10
0.0
 20
0.0
  9
$PLIMMAX
 10
12.0
 20
9.0
  9
$UNITMODE
 70
     0
  9
$VISRETAIN
 70
     1
  9
$PLINEGEN
 70
     0
  9
$PSLTSCALE
 70
     1
  0
ENDSEC
  0
SECTION
  2
TABLES
  0
TABLE
  2
VPORT
 70
     1
  0
VPORT
  2
*ACTIVE
 70
     0
 10
0.0
 20
0.0
 11
1.0
 21
1.0
 12
0.0
 22
0.0
 13
0.0
 23
0.0
 14
1.0
 24
1.0
 15
0.0
 25
0.0
 16
0.0
 26
0.0
 36
126.9161380144744982
 17
4469.209716796875
 27
216.3128640825898117
 37
0.0
 40
33.9234479675381166
 41
2.9513274336283182
 42
50.0
 43
0.0
 44
0.0
 50
0.0
 51
0.0
 71
     0
 72
   100
 73
     1
 74
     1
 75
     0
 76
     0
 77
     0
 78
     0
  0
ENDTAB
  0
TABLE
  2
LTYPE
 70
     2
  0
LTYPE
  2
CONTINUOUS
 70
     0
  3
Solid line
 72
    65
 73
     0
 40
0.0
  0
LTYPE
  2
PHANTOM2
 70
     0
  3
___ _ _ ___ _ _ ___ _ _ ___ _ _
 72
    65
 73
     6
 40
1.25
 49
0.625
 49
-0.125
 49
0.125
 49
-0.125
 49
0.125
 49
-0.125
  0
ENDTAB
  0
TABLE
  2
LAYER
 70
     2
  0
LAYER
  2
0
 70
     0
 62
   255
  6
CONTINUOUS
  0
LAYER
  2
DEFPOINTS
 70
     0
 62
     7
  6
CONTINUOUS
  0
ENDTAB
  0
TABLE
  2
STYLE
 70
     1
  0
STYLE
  2
STANDARD
 70
     0
 40
0.0
 41
0.8
 50
0.0
 71
     0
 42
0.2
  3
txt
  4

  0
ENDTAB
  0
TABLE
  2
VIEW
 70
     0
  0
ENDTAB
  0
TABLE
  2
UCS
 70
     0
  0
ENDTAB
  0
TABLE
  2
APPID
 70
     9
  0
APPID
  2
ACAD
 70
     0
  0
APPID
  2
ACAD_MLEADERVER
 70
     0
  0
APPID
  2
ACAD_EXEMPT_FROM_CAD_STANDARDS
 70
     0
  0
APPID
  2
ACAD_NAV_VCDISPLAY
 70
     0
  0
APPID
  2
ACAECLAYERSTANDARD
 70
     0
  0
APPID
  2
ACCMTRANSPARENCY
 70
     0
  0
APPID
  2
ACAD_DSTYLE_DIMJAG
 70
     0
  0
APPID
  2
ACAD_DSTYLE_DIMTALN
 70
     0
  0
APPID
  2
ACDBATTR
 70
     0
  0
ENDTAB
  0
TABLE
  2
DIMSTYLE
 70
     1
  0
DIMSTYLE
  2
STANDARD
 70
     0
  3

  4

  5

  6

  7

 40
1.0
 41
0.1875
 42
0.0625
 43
0.38
 44
0.125
 45
0.0
 46
0.0
 47
0.01
 48
0.01
140
0.15625
141
0.09
142
0.0
143
25.3999999999999986
144
1.0
145
0.0
146
1.0
147
0.09
 71
     1
 72
     0
 73
     1
 74
     1
 75
     0
 76
     0
 77
     0
 78
     4
170
     0
171
     2
172
     0
173
     0
174
     0
175
     0
176
     0
177
     0
178
     0
  0
ENDTAB
  0
ENDSEC
  0
SECTION
  2
BLOCKS
  0
BLOCK
  8
0
  2
$MODEL_SPACE
 70
     0
 10
0.0
 20
0.0
 30
0.0
  3
$MODEL_SPACE
  1

  0
ENDBLK
  5
21
  8
0
  0
BLOCK
 67
     1
  8
0
  2
$PAPER_SPACE
 70
     0
 10
0.0
 20
0.0
 30
0.0
  3
$PAPER_SPACE
  1

  0
ENDBLK
  5
1D
 67
     1
  8
0
  0
ENDSEC
  0
SECTION
  2
ENTITIES
  0
ATTDEF
  5
3930
  8
DEFPOINTS
 10
4469.2058662894360168
 20
231.4839658360779993
 30
0.0
 40
0.001
  1
402325-RA
  3

  2
MODELNUMBER
 70
     0
1001
ACDBATTR
1070
     0
1070
     1
  0
ATTDEF
  5
3931
  8
DEFPOINTS
 10
4469.2058662894360168
 20
231.4822991694113057
 30
0.0
 40
0.001
  1
WINDHAM
  3

  2
TRADENAME
 70
     0
1001
ACDBATTR
1070
     0
1070
     1
  0
ATTDEF
  5
3932
  8
DEFPOINTS
 10
4469.2058662894360168
 20
231.4806325027446974
 30
0.0
 40
0.001
  1
TOILET
  3

  2
PRODUCT
 70
     0
1001
ACDBATTR
1070
     0
1070
     1
  0
LINE
  5
73CA
  8
0
 10
4463.1527205497441173
 20
230.5399615638820023
 30
0.0
 11
4469.2097796510943226
 21
230.5399615638820023
 31
0.0
  0
ARC
  5
73CB
  8
0
 10
4469.2811904558338938
 20
257.4617517205372224
 30
0.0
 40
35.1162638906923306
 50
261.7528497950033284
 51
269.8835301496480952
  0
ARC
  5
73CC
  8
0
 10
4495.2348255168435571
 20
226.684692056082099
 30
0.0
 40
33.4618369466999965
 50
174.989955520700903
 51
180.6230111217996068
  0
ARC
  5
73CD
  8
0
 10
4473.5630864218392162
 20
211.4335518238167992
 30
0.0
 40
11.9193435710220896
 50
150.4945150593640903
 51
178.75411437436901
  0
ARC
  5
73CE
  8
0
 10
4433.1646810393685882
 20
231.726024717476804
 30
0.0
 40
33.30903664981075
 50
334.34323434328752
 51
337.5996333951428028
  0
ARC
  5
73CF
  8
0
 10
4463.2883189939939257
 20
228.7668392679165095
 30
0.0
 40
1.778299641380203
 50
94.3731477799405951
 51
125.8499731869107023
  0
ARC
  5
73D0
  8
0
 10
4462.7616349441532293
 20
229.5118249856656973
 30
0.0
 40
0.8660397454830757
 50
126.4723011410683
 51
173.6954838603842859
  0
ARC
  5
73D1
  8
0
 10
4467.3450376884857178
 20
226.6442020674282105
 30
0.0
 40
5.5794487027447177
 50
183.3224011906858948
 51
215.8051735906007025
  0
ARC
  5
73D2
  8
0
 10
4464.7874384090027888
 20
225.7068856001700965
 30
0.0
 40
3.0470964870578241
 50
229.7846581102211019
 51
259.726438011649293
  0
ARC
  5
73D3
  8
0
 10
4450.3289927949408593
 20
224.6646552588927932
 30
0.0
 40
14.7489668441525303
 50
337.5515855838413017
 51
352.0137117163844209
  0
ARC
  5
73D4
  8
0
 10
4504.4879904737363177
 20
218.1578506599597915
 30
0.0
 40
40.5370951669781192
 50
173.5446284736173084
 51
178.7633206109275932
  0
ARC
  5
73D5
  8
0
 10
4485.3435758487667044
 20
213.8785708432226897
 30
0.0
 40
23.7976152633861204
 50
185.2701531867259916
 51
196.8977073320220939
  0
ARC
  5
73D6
  8
0
 10
4472.2284830090093237
 20
210.3097745409183119
 30
0.0
 40
10.2191721865636005
 50
199.1262005305758009
 51
232.0916014029388066
  0
ARC
  5
73D7
  8
0
 10
4469.2285367481263165
 20
206.5528929859555944
 30
0.0
 40
5.4121639256849612
 50
232.7131294690007906
 51
269.801427920128674
  0
LINE
  5
73D8
  8
0
 10
4465.7260370407066148
 20
219.5344671556819947
 30
0.0
 11
4465.7202448392063161
 21
219.6254379845821063
 31
0.0
  0
LINE
  5
73D9
  8
0
 10
4465.2298067259071104
 20
219.4917938776104904
 30
0.0
 11
4465.2298067259071104
 21
219.5722839280819869
 31
0.0
  0
LINE
  5
73DA
  8
0
 10
4465.7098067258066294
 20
219.3869503598820074
 30
0.0
 11
4465.7098067259066738
 21
219.3034239243820025
 31
0.0
  0
LINE
  5
73DB
  8
0
 10
4466.0298067259072923
 20
219.6753731696819898
 30
0.0
 11
4466.0298067259072923
 21
219.670234044682104
 31
0.0
  0
LINE
  5
73DC
  8
0
 10
4465.7505856396073796
 20
219.6387546272819975
 30
0.0
 11
4465.760019350006587
 21
220.7197507607820057
 31
0.0
  0
LINE
  5
73DD
  8
0
 10
4465.7564476176994503
 20
219.5324928610540098
 30
0.0
 11
4465.764000128607222
 21
219.638754552682002
 31
0.0
  0
LINE
  5
73DE
  8
0
 10
4467.0298067259072923
 20
219.670234044682104
 30
0.0
 11
4467.0298067259072923
 21
219.6753731696819898
 31
0.0
  0
LINE
  5
73DF
  8
0
 10
4467.309027812207205
 20
219.6387546272819975
 30
0.0
 11
4467.2995941019071324
 21
220.7197507607820057
 31
0.0
  0
LINE
  5
73E0
  8
0
 10
4464.2089126092068909
 20
218.4922574763820933
 30
0.0
 11
4464.2521896720072618
 21
218.4922574763820933
 31
0.0
  0
LINE
  5
73E1
  8
0
 10
4465.8798067259067466
 20
219.1334239242821127
 30
0.0
 11
4469.2097796510943226
 21
219.1334239242821127
 31
0.0
  0
LINE
  5
73E2
  8
0
 10
4465.7556543621412857
 20
219.4325938632584894
 30
0.0
 11
4465.7269414740821958
 21
219.4330385381981898
 31
0.0
  0
LINE
  5
73E3
  8
0
 10
4465.2728931505071159
 20
219.4872881929819926
 30
0.0
 11
4465.6101777165076783
 21
219.4872881920819907
 31
0.0
  0
LINE
  5
73E4
  8
0
 10
4465.1689897750065938
 20
219.6224088257820881
 30
0.0
 11
4464.9274071972067759
 21
219.6224088257820881
 31
0.0
  0
LINE
  5
73E5
  8
0
 10
4465.6702467929071645
 20
219.6315717902820097
 30
0.0
 11
4465.2898159890073657
 21
219.6315717902820097
 31
0.0
  0
LINE
  5
73E6
  8
0
 10
4465.8261184952070835
 20
219.6387542069819858
 30
0.0
 11
4465.7505856396073796
 21
219.6387546272819975
 31
0.0
  0
LINE
  5
73E7
  8
0
 10
4467.2334949566084106
 20
219.6387542069819858
 30
0.0
 11
4467.309027812207205
 21
219.6387546272819975
 31
0.0
  0
LINE
  5
73E8
  8
0
 10
4466.9783376584073267
 20
219.6420478517819959
 30
0.0
 11
4466.081275941606691
 21
219.6420478510821113
 31
0.0
  0
LINE
  5
73E9
  8
0
 10
4466.0298067259072923
 20
219.670234044682104
 30
0.0
 11
4467.0298067259072923
 21
219.670234044682104
 31
0.0
  0
LINE
  5
73EA
  8
0
 10
4467.3085469956067755
 20
219.6938507505819871
 30
0.0
 11
4469.2097796510943226
 21
219.6938507505819871
 31
0.0
  0
ARC
  5
73EB
  8
0
 10
4429.5101996441071606
 20
240.7546832915820119
 30
0.0
 40
41.1682821939999997
 50
328.0742092291986864
 51
328.9963091400009034
  0
ARC
  5
73EC
  8
0
 10
4465.8905214399055694
 20
219.3141386382415021
 30
0.0
 40
0.1810320770955374
 50
183.3931381478184051
 51
266.6068616401987015
  0
ARC
  5
73ED
  8
0
 10
4466.7155499877353577
 20
220.67385194794889
 30
0.0
 40
0.585844884179235
 50
4.4935206399361389
 51
48.0932295763740711
  0
ARC
  5
73EE
  8
0
 10
4466.3781534296285827
 20
220.6570085417627922
 30
0.0
 40
0.6213101692693441
 50
133.209070607753489
 51
174.2041791130438071
  0
ARC
  5
73EF
  8
0
 10
4466.8148067259071468
 20
219.7614239242820133
 30
0.0
 40
0.125
 50
287.2521954763657277
 51
313.1539116444786259
  0
ARC
  5
73F0
  8
0
 10
4466.2448067259074378
 20
219.7614239242820133
 30
0.0
 40
0.125
 50
226.8460883555214025
 51
252.7478053004784044
  0
LINE
  5
73F1
  8
0
 10
4465.2078932865069874
 20
219.4953196967819906
 30
0.0
 11
4465.2010911708066487
 21
219.5924100522819913
 31
0.0
  0
LINE
  5
73F2
  8
0
 10
4466.2552887514066242
 20
221.2127182905819893
 30
0.0
 11
4466.8043245032804407
 21
221.2127182905819893
 31
0.0
  0
ARC
  5
73F3
  8
0
 10
4466.7853938164107603
 20
220.6607391258856126
 30
0.0
 40
0.5523036928758746
 50
54.4069766836137703
 51
88.0357528517695016
  0
ARC
  5
73F4
  8
0
 10
4466.2729178787330966
 20
220.66456772396171
 30
0.0
 40
0.5484339794510182
 50
91.8420605895779545
 51
125.715232579495094
  0
ARC
  5
73F5
  8
0
 10
4465.8231716289355973
 20
219.6751859908517019
 30
0.0
 40
0.0365507714932021
 50
274.6244292447307203
 51
347.6358919396154192
  0
ARC
  5
73F6
  8
0
 10
4465.880672214401784
 20
219.6419527694602891
 30
0.0
 40
0.0334759750459906
 50
93.3019474896515817
 51
130.627617481412301
  0
LINE
  5
73F7
  8
0
 10
4465.8787440665073518
 20
219.6753731696819898
 30
0.0
 11
4467.1808696052212326
 21
219.6753731696819898
 31
0.0
  0
ARC
  5
73F8
  8
0
 10
4467.1798374308627899
 20
219.6442364620509125
 30
0.0
 40
0.0311538110992899
 50
47.5483472573309527
 51
88.1013539849561482
  0
ARC
  5
73F9
  8
0
 10
4467.2355860691759517
 20
219.6740846772518125
 30
0.0
 40
0.035392299745272
 50
191.1786525672856101
 51
266.6127732904395771
  0
ARC
  5
73FA
  8
0
 10
4466.0861666043501828
 20
219.7426118173794976
 30
0.0
 40
0.100682819991611
 50
221.8995280611410976
 51
267.2157648459145776
  0
ARC
  5
73FB
  8
0
 10
4465.9642051253867976
 20
222.0912530170211028
 30
0.0
 40
2.452001535317629
 50
267.0821831645362749
 51
272.7366274624980065
  0
ARC
  5
73FC
  8
0
 10
4466.9783043827846996
 20
219.7323998548170039
 30
0.0
 40
0.0903520133625079
 50
270.0211013863349763
 51
320.8641542145351195
  0
ARC
  5
73FD
  8
0
 10
4467.1020559132148264
 20
222.3734553812523131
 30
0.0
 40
2.734207983789652
 50
267.4065780743728737
 51
272.4933646656518818
  0
ARC
  5
73FE
  8
0
 10
4465.5953075805791741
 20
219.3728915912049899
 30
0.0
 40
0.115359018870465
 50
7.0000204121922831
 51
82.5937883393877286
  0
ARC
  5
73FF
  8
0
 10
4465.1642126263532191
 20
219.585121762974012
 30
0.0
 40
0.0375918369080123
 50
11.1792788317864602
 51
82.6991447049609008
  0
ARC
  5
7400
  8
0
 10
4465.2962199818857698
 20
219.5650762230895054
 30
0.0
 40
0.0668032303189831
 50
95.5010227743627951
 51
173.8060397722366019
  0
ARC
  5
7401
  8
0
 10
4465.3128896880771208
 20
220.0780260295425137
 30
0.0
 40
0.5920902925751168
 50
259.7856204043275739
 51
266.1266393385686797
  0
LINE
  5
7402
  8
0
 10
4465.7287258281112372
 20
219.2329303077488021
 30
0.0
 11
4465.7260370407066148
 21
219.5344671556819947
 31
0.0
  0
ARC
  5
7403
  8
0
 10
4465.6511615446615906
 20
219.269163957810008
 30
0.0
 40
0.3629100215449023
 50
79.0262472287322737
 51
86.9854542970975757
  0
LINE
  5
7404
  8
0
 10
4465.7537718000121458
 20
219.195512549515712
 30
0.0
 11
4465.7564476176994503
 21
219.5324928610540098
 31
0.0
  0
ARC
  5
7405
  8
0
 10
4464.9468760562222087
 20
219.4348875192274022
 30
0.0
 40
0.1885292468325292
 50
95.9273330382810343
 51
142.6834577987837065
  0
ARC
  5
7406
  8
0
 10
4465.4709122237200063
 20
218.2854417400153011
 30
0.0
 40
1.2361461915413141
 50
145.5870247082411026
 51
170.3687291056236859
  0
ARC
  5
7407
  8
0
 10
4464.2199294741658377
 20
218.3732610764236028
 30
0.0
 40
0.1195052907474101
 50
95.2894509324024739
 51
137.7110507226952905
  0
ARC
  5
7408
  8
0
 10
4472.6664158533367299
 20
212.6270212196326952
 30
0.0
 40
10.3341299956151502
 50
145.6791924482774903
 51
150.7889397466263119
  0
ARC
  5
7409
  8
0
 10
4473.3321671504263577
 20
212.2516730764990882
 30
0.0
 40
11.0983970857575596
 50
150.7749547302869075
 51
160.1404686711969134
  0
ARC
  5
740A
  8
0
 10
4476.4268579394638436
 20
211.5823254261468094
 30
0.0
 40
14.2426754648188307
 50
161.8374373512050965
 51
178.5639710354658121
  0
ARC
  5
740B
  8
0
 10
4463.2929736915593821
 20
218.4604195518676022
 30
0.0
 40
0.9597442110189058
 50
344.7837613778115156
 51
1.9010413648332101
  0
ARC
  5
740C
  8
0
 10
4462.7818586603852964
 20
218.7155411379023917
 30
0.0
 40
1.5240236664373961
 50
328.5257200955729786
 51
340.5682224611146012
  0
ARC
  5
740D
  8
0
 10
4473.4898174182189905
 20
212.1865318936046947
 30
0.0
 40
11.0174440179800897
 50
148.6420425632364015
 51
159.036581801804914
  0
ARC
  5
740E
  8
0
 10
4473.9601407838626983
 20
212.0386529206575972
 30
0.0
 40
11.5095827210686998
 50
159.1868094859839005
 51
173.8104143694012009
  0
ARC
  5
740F
  8
0
 10
4475.4640365010272944
 20
211.8994737089041109
 30
0.0
 40
13.01973942737831
 50
173.9150633099889092
 51
179.8249197911910073
  0
ARC
  5
7410
  8
0
 10
4458.2905452676614004
 20
215.0025778550090934
 30
0.0
 40
7.9375516861882671
 50
33.3049933874654727
 51
34.9454448215426368
  0
ARC
  5
7411
  8
0
 10
4460.0978346514257282
 20
218.4745775661801872
 30
0.0
 40
4.9073269002773072
 50
355.258883212895114
 51
10.4072291758163704
  0
ARC
  5
7412
  8
0
 10
4451.5771467834056239
 20
218.9370395205413047
 30
0.0
 40
13.4392880299826096
 50
342.0874289756088729
 51
356.2965720125127973
  0
ARC
  5
7413
  8
0
 10
4477.8064050370448967
 20
210.3391268753426004
 30
0.0
 40
14.1634366130157598
 50
161.6265259280029056
 51
177.7201218166540002
  0
ARC
  5
7414
  8
0
 10
4476.7529214047026471
 20
212.319738897314096
 30
0.0
 40
14.5692347486439697
 50
181.4964687935554934
 51
208.095363631354104
  0
ARC
  5
7415
  8
0
 10
4473.4266201439268116
 20
210.9192302658917129
 30
0.0
 40
10.9803224546264104
 50
209.8228509046853105
 51
229.1595384004509981
  0
ARC
  5
7416
  8
0
 10
4469.236195215798034
 20
206.4295454298699042
 30
0.0
 40
4.8490327178515251
 50
231.9272482999602971
 51
251.092219981500989
  0
ARC
  5
7417
  8
0
 10
4469.2614145343941345
 20
206.5515779229720863
 30
0.0
 40
4.9726774597618411
 50
251.2729517188506918
 51
269.4050460582841993
  0
ARC
  5
7418
  8
0
 10
4474.5752852742425603
 20
212.0075124175359065
 30
0.0
 40
12.1311194272346103
 50
180.322368231130497
 51
195.1702422588035972
  0
ARC
  5
7419
  8
0
 10
4476.77439330861489
 20
212.6291322834686071
 30
0.0
 40
14.4162853316943007
 50
195.267526892692814
 51
210.0236186491316062
  0
ARC
  5
741A
  8
0
 10
4473.0877056067583908
 20
210.2405324291669899
 30
0.0
 40
10.0316163408702401
 50
208.7473548314040102
 51
228.073222694632193
  0
ARC
  5
741B
  8
0
 10
4469.4060857911126732
 20
206.3744485552965955
 30
0.0
 40
4.6978533695573486
 50
229.9747280477577078
 51
267.6051212719747809
  0
ARC
  5
741C
  8
0
 10
4474.6439283294121196
 20
210.8729097912278974
 30
0.0
 40
10.9897885180726398
 50
179.8454125583753864
 51
206.7481365486891036
  0
ARC
  5
741D
  8
0
 10
4472.8477837569689655
 20
209.6381370329353899
 30
0.0
 40
8.8350110159962156
 50
204.839519112923
 51
227.3920959515967013
  0
ARC
  5
741E
  8
0
 10
4469.2449719316809933
 20
205.7726040732432864
 30
0.0
 40
3.551112423451523
 50
227.9536531472998035
 51
269.4321773248926206
  0
LINE
  5
741F
  8
0
 10
4475.2668387524427089
 20
230.5399615638820023
 30
0.0
 11
4469.2097796510943226
 21
230.5399615638820023
 31
0.0
  0
ARC
  5
7420
  8
0
 10
4469.1383688463529325
 20
257.4617517205372224
 30
0.0
 40
35.1162638906923306
 50
270.1164698503517911
 51
278.2471502049966716
  0
ARC
  5
7421
  8
0
 10
4443.1847337853441786
 20
226.684692056082099
 30
0.0
 40
33.4618369466999965
 50
359.3769888782002795
 51
5.010044479299113
  0
ARC
  5
7422
  8
0
 10
4464.85647288034761
 20
211.4335518238167992
 30
0.0
 40
11.9193435710220896
 50
1.2458856256309709
 51
29.5054849406359097
  0
ARC
  5
7423
  8
0
 10
4505.2548782628173285
 20
231.726024717476804
 30
0.0
 40
33.30903664981075
 50
202.400366604857112
 51
205.6567656567123947
  0
ARC
  5
7424
  8
0
 10
4475.1312403081929006
 20
228.7668392679165095
 30
0.0
 40
1.778299641380203
 50
54.1500268130892906
 51
85.6268522200594191
  0
ARC
  5
7425
  8
0
 10
4475.6579243580335969
 20
229.5118249856656973
 30
0.0
 40
0.8660397454830757
 50
6.304516139615667
 51
53.5276988589316929
  0
ARC
  5
7426
  8
0
 10
4471.0745216137020179
 20
226.6442020674282105
 30
0.0
 40
5.5794487027447177
 50
324.1948264093992975
 51
356.6775988093140199
  0
ARC
  5
7427
  8
0
 10
4473.6321208931840374
 20
225.7068856001700965
 30
0.0
 40
3.0470964870578241
 50
280.2735619883505933
 51
310.2153418897788129
  0
ARC
  5
7428
  8
0
 10
4488.0905665072468764
 20
224.6646552588927932
 30
0.0
 40
14.7489668441525303
 50
187.9862882836139875
 51
202.4484144161586983
  0
ARC
  5
7429
  8
0
 10
4433.9315688284514181
 20
218.1578506599597915
 30
0.0
 40
40.5370951669781192
 50
1.2366793890723089
 51
5.9046553827107511
  0
ARC
  5
742A
  8
0
 10
4453.0759834534201218
 20
213.8785708432226897
 30
0.0
 40
23.7976152633861204
 50
343.1022926679779061
 51
354.7298468132740936
  0
ARC
  5
742B
  8
0
 10
4466.191076293178412
 20
210.3097745409183119
 30
0.0
 40
10.2191721865636005
 50
307.9083985970611934
 51
340.8737994694241138
  0
ARC
  5
742C
  8
0
 10
4469.1910225540596002
 20
206.5528929859555944
 30
0.0
 40
5.4121639256849621
 50
270.198572079871326
 51
307.2868705309991242
  0
LINE
  5
742D
  8
0
 10
4472.6935222614802115
 20
219.5344671556819947
 30
0.0
 11
4472.6993144629814196
 21
219.6254379845821063
 31
0.0
  0
LINE
  5
742E
  8
0
 10
4473.1897525762797159
 20
219.4917938776104904
 30
0.0
 11
4473.1897525762797159
 21
219.5722839280819869
 31
0.0
  0
LINE
  5
742F
  8
0
 10
4472.7097525763801968
 20
219.3869503598820074
 30
0.0
 11
4472.7097525762801524
 21
219.3034239243820025
 31
0.0
  0
LINE
  5
7430
  8
0
 10
4472.389752576281353
 20
219.6753731696819898
 30
0.0
 11
4472.389752576281353
 21
219.670234044682104
 31
0.0
  0
LINE
  5
7431
  8
0
 10
4472.6689736625812657
 20
219.6387546272819975
 30
0.0
 11
4472.6595399521802392
 21
220.7197507607820057
 31
0.0
  0
LINE
  5
7432
  8
0
 10
4472.6631116844891949
 20
219.5324928610540098
 30
0.0
 11
4472.6555591735796042
 21
219.638754552682002
 31
0.0
  0
LINE
  5
7433
  8
0
 10
4471.3897525762804435
 20
219.670234044682104
 30
0.0
 11
4471.3897525762804435
 21
219.6753731696819898
 31
0.0
  0
LINE
  5
7434
  8
0
 10
4471.1105314899796213
 20
219.6387546272819975
 30
0.0
 11
4471.1199652002796938
 21
220.7197507607820057
 31
0.0
  0
LINE
  5
7435
  8
0
 10
4474.2106466929799353
 20
218.4922574763820933
 30
0.0
 11
4474.1673696301795644
 21
218.4922574763820933
 31
0.0
  0
LINE
  5
7436
  8
0
 10
4472.5397525762800797
 20
219.1334239242821127
 30
0.0
 11
4469.2097796510943226
 21
219.1334239242821127
 31
0.0
  0
LINE
  5
7437
  8
0
 10
4472.6639049400473596
 20
219.4325938632584894
 30
0.0
 11
4472.6926178281046305
 21
219.4330385381981898
 31
0.0
  0
LINE
  5
7438
  8
0
 10
4473.1466661516797103
 20
219.4872881929819926
 30
0.0
 11
4472.8093815856800575
 21
219.4872881920819907
 31
0.0
  0
LINE
  5
7439
  8
0
 10
4473.2505695271802324
 20
219.6224088257820881
 30
0.0
 11
4473.4921521049800504
 21
219.6224088257820881
 31
0.0
  0
LINE
  5
743A
  8
0
 10
4472.7493125092796618
 20
219.6315717902820097
 30
0.0
 11
4473.12974331318037
 21
219.6315717902820097
 31
0.0
  0
LINE
  5
743B
  8
0
 10
4472.5934408069797428
 20
219.6387542069819858
 30
0.0
 11
4472.6689736625812657
 21
219.6387546272819975
 31
0.0
  0
LINE
  5
743C
  8
0
 10
4471.1860643455793252
 20
219.6387542069819858
 30
0.0
 11
4471.1105314899796213
 21
219.6387546272819975
 31
0.0
  0
LINE
  5
743D
  8
0
 10
4471.4412216437813186
 20
219.6420478517819959
 30
0.0
 11
4472.3382833605801352
 21
219.6420478510821113
 31
0.0
  0
LINE
  5
743E
  8
0
 10
4472.389752576281353
 20
219.670234044682104
 30
0.0
 11
4471.3897525762804435
 21
219.670234044682104
 31
0.0
  0
LINE
  5
743F
  8
0
 10
4471.1110123065800508
 20
219.6938507505819871
 30
0.0
 11
4469.2097796510943226
 21
219.6938507505819871
 31
0.0
  0
ARC
  5
7440
  8
0
 10
4508.9093596580805752
 20
240.7546832915820119
 30
0.0
 40
41.1682821939999997
 50
211.0036908599990966
 51
211.9257907708013136
  0
ARC
  5
7441
  8
0
 10
4472.5290378622812568
 20
219.3141386382415021
 30
0.0
 40
0.1810320770955374
 50
273.3931383598012985
 51
356.6068618521815097
  0
ARC
  5
7442
  8
0
 10
4471.7040093144532875
 20
220.67385194794889
 30
0.0
 40
0.585844884179235
 50
131.9067704236236978
 51
175.5064793600637927
  0
ARC
  5
7443
  8
0
 10
4472.0414058725582436
 20
220.6570085417627922
 30
0.0
 40
0.6213101692693441
 50
5.795820886956192
 51
46.7909293922464897
  0
ARC
  5
7444
  8
0
 10
4471.6047525762796795
 20
219.7614239242820133
 30
0.0
 40
0.125
 50
226.8460883555214025
 51
252.747804523634386
  0
ARC
  5
7445
  8
0
 10
4472.1747525762802979
 20
219.7614239242820133
 30
0.0
 40
0.125
 50
287.252194699521624
 51
313.1539116444786259
  0
LINE
  5
7446
  8
0
 10
4473.2116660156798389
 20
219.4953196967819906
 30
0.0
 11
4473.2184681313801775
 21
219.5924100522819913
 31
0.0
  0
LINE
  5
7447
  8
0
 10
4472.164270550780202
 20
221.2127182905819893
 30
0.0
 11
4471.615234798907295
 21
221.2127182905819893
 31
0.0
  0
ARC
  5
7448
  8
0
 10
4471.6341654857760659
 20
220.6607391258856126
 30
0.0
 40
0.5523036928758746
 50
91.9642471482304984
 51
125.5930233163861942
  0
ARC
  5
7449
  8
0
 10
4472.1466414234537297
 20
220.66456772396171
 30
0.0
 40
0.5484339794510182
 50
54.2847674205048421
 51
88.1579394104220313
  0
ARC
  5
744A
  8
0
 10
4472.596387673251229
 20
219.6751859908517019
 30
0.0
 40
0.0365507714932021
 50
192.3641080603846092
 51
265.3755707552693934
  0
ARC
  5
744B
  8
0
 10
4472.5388870877850422
 20
219.6419527694602891
 30
0.0
 40
0.0334759750459906
 50
49.3723825185876706
 51
86.6980525103484183
  0
LINE
  5
744C
  8
0
 10
4472.5408152356812934
 20
219.6753731696819898
 30
0.0
 11
4471.2386896969655936
 21
219.6753731696819898
 31
0.0
  0
ARC
  5
744D
  8
0
 10
4471.2397218713240363
 20
219.6442364620509125
 30
0.0
 40
0.0311538110992899
 50
91.8986460150438376
 51
132.4516527426690971
  0
ARC
  5
744E
  8
0
 10
4471.1839732330108745
 20
219.6740846772518125
 30
0.0
 40
0.035392299745272
 50
273.3872267095084112
 51
348.8213474327142762
  0
ARC
  5
744F
  8
0
 10
4472.3333926978366435
 20
219.7426118173794976
 30
0.0
 40
0.100682819991611
 50
272.7842351540854224
 51
318.1004719388589024
  0
ARC
  5
7450
  8
0
 10
4472.4553541768000287
 20
222.0912530170211028
 30
0.0
 40
2.452001535317629
 50
267.2633725375021072
 51
272.9178168354637251
  0
ARC
  5
7451
  8
0
 10
4471.4412549194021267
 20
219.7323998548170039
 30
0.0
 40
0.0903520133625079
 50
219.1358457854649089
 51
269.97889861366491
  0
ARC
  5
7452
  8
0
 10
4471.3175033889729093
 20
222.3734553812523131
 30
0.0
 40
2.734207983789652
 50
267.5066353343481182
 51
272.5934219256270126
  0
ARC
  5
7453
  8
0
 10
4472.8242517216085616
 20
219.3728915912049899
 30
0.0
 40
0.115359018870465
 50
97.4062116606122714
 51
172.9999795878077009
  0
ARC
  5
7454
  8
0
 10
4473.2553466758336072
 20
219.585121762974012
 30
0.0
 40
0.0375918369080123
 50
97.3008552950391135
 51
168.8207211682135096
  0
ARC
  5
7455
  8
0
 10
4473.1233393203010564
 20
219.5650762230895054
 30
0.0
 40
0.0668032303189831
 50
6.1939602277634069
 51
84.4989772256372333
  0
ARC
  5
7456
  8
0
 10
4473.1066696141097054
 20
220.0780260295425137
 30
0.0
 40
0.5920902925751168
 50
273.8733606614313203
 51
280.2143795956724261
  0
LINE
  5
7457
  8
0
 10
4472.690833474075589
 20
219.2329303077488021
 30
0.0
 11
4472.6935222614802115
 21
219.5344671556819947
 31
0.0
  0
ARC
  5
7458
  8
0
 10
4472.7683977575252356
 20
219.269163957810008
 30
0.0
 40
0.3629100215449023
 50
93.0145457029024243
 51
100.9737527712676979
  0
LINE
  5
7459
  8
0
 10
4472.6657875021746804
 20
219.195512549515712
 30
0.0
 11
4472.6631116844891949
 21
219.5324928610540098
 31
0.0
  0
ARC
  5
745A
  8
0
 10
4473.4726832459646175
 20
219.4348875192274022
 30
0.0
 40
0.1885292468325292
 50
37.3165422012162935
 51
84.0726669617189657
  0
ARC
  5
745B
  8
0
 10
4472.9486470784668199
 20
218.2854417400153011
 30
0.0
 40
1.2361461915413141
 50
9.6312708943763337
 51
34.4129752917588903
  0
ARC
  5
745C
  8
0
 10
4474.1996298280209885
 20
218.3732610764236028
 30
0.0
 40
0.1195052907474101
 50
42.2889492773046669
 51
84.7105490675975261
  0
ARC
  5
745D
  8
0
 10
4465.7531434488500963
 20
212.6270212196326952
 30
0.0
 40
10.3341299956151502
 50
29.211060253373649
 51
34.3208075517224671
  0
ARC
  5
745E
  8
0
 10
4465.087392151761378
 20
212.2516730764990882
 30
0.0
 40
11.0983970857575596
 50
19.8595313288030901
 51
29.2250452697130392
  0
ARC
  5
745F
  8
0
 10
4461.9927013627229826
 20
211.5823254261468094
 30
0.0
 40
14.2426754648188307
 50
1.4360289645341959
 51
18.1625626487949283
  0
ARC
  5
7460
  8
0
 10
4475.1265856106283536
 20
218.4604195518676022
 30
0.0
 40
0.9597442110189058
 50
178.0989586351668095
 51
195.2162386221885129
  0
ARC
  5
7461
  8
0
 10
4475.6377006418033488
 20
218.7155411379023917
 30
0.0
 40
1.5240236664373961
 50
199.4317775388853988
 51
211.474279904426993
  0
ARC
  5
7462
  8
0
 10
4464.9297418839687452
 20
212.1865318936046947
 30
0.0
 40
11.0174440179800897
 50
20.9634181981950505
 51
31.3579574367635594
  0
ARC
  5
7463
  8
0
 10
4464.459418518322309
 20
212.0386529206575972
 30
0.0
 40
11.5095827210686998
 50
6.1895856305987849
 51
20.8131905140161209
  0
ARC
  5
7464
  8
0
 10
4462.9555228011586223
 20
211.8994737089041109
 30
0.0
 40
13.01973942737831
 50
0.1750802088106197
 51
6.0849366900110384
  0
ARC
  5
7465
  8
0
 10
4480.1290140345272448
 20
215.0025778550090934
 30
0.0
 40
7.9375516861882671
 50
145.0545551784587133
 51
146.6950066125345131
  0
ARC
  5
7466
  8
0
 10
4478.321724650761098
 20
218.4745775661801872
 30
0.0
 40
4.9073269002773072
 50
169.5927708241835887
 51
184.7411167871032944
  0
ARC
  5
7467
  8
0
 10
4486.8424125187821119
 20
218.9370395205413047
 30
0.0
 40
13.4392880299826096
 50
183.703427987487288
 51
197.9125710243910135
  0
ARC
  5
7468
  8
0
 10
4460.6131542651419295
 20
210.3391268753426004
 30
0.0
 40
14.1634366130157598
 50
2.279878183345978
 51
18.3734740719970588
  0
ARC
  5
7469
  8
0
 10
4461.6666378974841791
 20
212.319738897314096
 30
0.0
 40
14.5692347486439697
 50
331.9046363686459244
 51
358.5035312064428012
  0
ARC
  5
746A
  8
0
 10
4464.9929391582609242
 20
210.9192302658917129
 30
0.0
 40
10.9803224546264104
 50
310.8404615995489735
 51
330.1771490953146895
  0
ARC
  5
746B
  8
0
 10
4469.1833640863887922
 20
206.4295454298699042
 30
0.0
 40
4.8490327178515251
 50
288.907780018499011
 51
308.0727517000398166
  0
ARC
  5
746C
  8
0
 10
4469.1581447677936012
 20
206.5515779229720863
 30
0.0
 40
4.9726774597618411
 50
270.5949539417158007
 51
288.7270482811492798
  0
ARC
  5
746D
  8
0
 10
4463.844274027944266
 20
212.0075124175359065
 30
0.0
 40
12.1311194272346103
 50
344.8297577411963744
 51
359.6776317688679114
  0
ARC
  5
746E
  8
0
 10
4461.6451659935719363
 20
212.6291322834686071
 30
0.0
 40
14.4162853316943007
 50
329.9763813508682802
 51
344.7324731073072144
  0
ARC
  5
746F
  8
0
 10
4465.331853695429345
 20
210.2405324291669899
 30
0.0
 40
10.0316163408702401
 50
311.9267773053679207
 51
331.2526451685959046
  0
ARC
  5
7470
  8
0
 10
4469.0134735110741531
 20
206.3744485552965955
 30
0.0
 40
4.6978533695573486
 50
272.3948787280252191
 51
310.0252719522424059
  0
ARC
  5
7471
  8
0
 10
4463.7756309727747066
 20
210.8729097912278974
 30
0.0
 40
10.9897885180726398
 50
333.2518634513108964
 51
0.1545874416262284
  0
ARC
  5
7472
  8
0
 10
4465.5717755452178608
 20
209.6381370329353899
 30
0.0
 40
8.8350110159962156
 50
312.6079040484033271
 51
335.1604808870769148
  0
ARC
  5
7473
  8
0
 10
4469.1745873705049235
 20
205.7726040732432864
 30
0.0
 40
3.551112423451523
 50
270.5678226751074931
 51
312.0463468527001965
  0
LINE
  5
7475
  8
0
 10
4475.6681406078350847
 20
222.515487392082008
 30
0.0
 11
4473.8472278159351845
 21
222.2741880448820098
 31
0.0
  0
LINE
  5
7476
  8
0
 10
4473.6077751016082402
 20
222.3000238194819929
 30
0.0
 11
4473.5599944243176651
 21
222.6249720632694959
 31
0.0
  0
LINE
  5
7477
  8
0
 10
4474.86882671659896
 20
222.9220296226961864
 30
0.0
 11
4475.627433383450807
 21
223.0167287959878024
 31
0.0
  0
LINE
  5
7478
  8
0
 10
4475.6812475035621901
 20
222.5320439687820055
 30
0.0
 11
4475.627433383450807
 21
223.0167287959878024
 31
0.0
  0
ARC
  5
7479
  8
0
 10
4475.6561408860261508
 20
222.5384531647302992
 30
0.0
 40
0.0259117740966766
 50
297.5872746316852044
 51
345.6794316367887063
  0
ARC
  5
747A
  8
0
 10
4473.568084387377894
 20
224.2003031065511891
 30
0.0
 40
1.946237468680355
 50
272.7178373384463157
 51
278.2462135448612912
  0
ARC
  5
747B
  8
0
 10
4473.6585056212907148
 20
222.3074992785610959
 30
0.0
 40
0.0512783396369701
 50
188.3825658837448032
 51
272.0835674425031812
  0
ENDSEC
  0
EOF
