  0
SECTION
  2
HEADER
  9
$ACADVER
  1
AC1009
  9
$INSBASE
 10
4286.1193215030325518
 20
234.2696156696084984
 30
0.0
  9
$EXTMIN
 10
4278.504657690789827
 20
203.7301618738044056
 30
0.0
  9
$EXTMAX
 10
4293.7339853152761862
 20
234.2748589265756038
 30
0.0
  9
$LIMMIN
 10
0.0
 20
0.0
  9
$LIMMAX
 10
11.6929133858000007
 20
8.2677165353999982
  9
$ORTHOMODE
 70
     1
  9
$REGENMODE
 70
     1
  9
$FILLMODE
 70
     1
  9
$QTEXTMODE
 70
     0
  9
$MIRRTEXT
 70
     0
  9
$DRAGMODE
 70
     2
  9
$LTSCALE
 40
0.6431102362
  9
$OSMODE
 70
  4095
  9
$ATTMODE
 70
     1
  9
$TEXTSIZE
 40
0.2
  9
$TRACEWID
 40
0.05
  9
$TEXTSTYLE
  7
STANDARD
  9
$CLAYER
  8
0
  9
$CELTYPE
  6
BYLAYER
  9
$CECOLOR
 62
   256
  9
$DIMSCALE
 40
1.0
  9
$DIMASZ
 40
0.1875
  9
$DIMEXO
 40
0.0625
  9
$DIMDLI
 40
0.4443307087
  9
$DIMRND
 40
0.0
  9
$DIMDLE
 40
0.0
  9
$DIMEXE
 40
0.125
  9
$DIMTP
 40
0.01
  9
$DIMTM
 40
0.01
  9
$DIMTXT
 40
2.0
  9
$DIMCEN
 40
0.1052362205
  9
$DIMTSZ
 40
0.0
  9
$DIMTOL
 70
     1
  9
$DIMLIM
 70
     0
  9
$DIMTIH
 70
     1
  9
$DIMTOH
 70
     1
  9
$DIMSE1
 70
     0
  9
$DIMSE2
 70
     0
  9
$DIMTAD
 70
     0
  9
$DIMZIN
 70
     0
  9
$DIMBLK
  1

  9
$DIMASO
 70
     1
  9
$DIMSHO
 70
     1
  9
$DIMPOST
  1
\X
  9
$DIMAPOST
  1

  9
$DIMALT
 70
     1
  9
$DIMALTD
 70
     2
  9
$DIMALTF
 40
25.3999999999999986
  9
$DIMLFAC
 40
1.0
  9
$DIMTOFL
 70
     0
  9
$DIMTVP
 40
0.0
  9
$DIMTIX
 70
     0
  9
$DIMSOXD
 70
     0
  9
$DIMSAH
 70
     0
  9
$DIMBLK1
  1

  9
$DIMBLK2
  1

  9
$DIMSTYLE
  2
STANDARD
  9
$DIMCLRD
 70
     0
  9
$DIMCLRE
 70
     0
  9
$DIMCLRT
 70
     0
  9
$DIMTFAC
 40
1.0
  9
$DIMGAP
 40
0.09
  9
$LUNITS
 70
     2
  9
$LUPREC
 70
     4
  9
$SKETCHINC
 40
0.1
  9
$FILLETRAD
 40
0.0
  9
$AUNITS
 70
     0
  9
$AUPREC
 70
     0
  9
$MENU
  1
.
  9
$ELEVATION
 40
0.0
  9
$PELEVATION
 40
0.0
  9
$THICKNESS
 40
0.0
  9
$LIMCHECK
 70
     0
  9
$BLIPMODE
 70
     0
  9
$CHAMFERA
 40
0.0
  9
$CHAMFERB
 40
0.0
  9
$SKPOLY
 70
     0
  9
$TDCREATE
 40
2458060.468368056230247
  9
$TDUPDATE
 40
2458994.0271527781151235
  9
$TDINDWG
 40
0.3058288194
  9
$TDUSRTIMER
 40
0.3058288194
  9
$USRTIMER
 70
     1
  9
$ANGBASE
 50
0.0
  9
$ANGDIR
 70
     0
  9
$PDMODE
 70
     0
  9
$PDSIZE
 40
0.3125
  9
$PLINEWID
 40
0.0
  9
$COORDS
 70
     1
  9
$SPLFRAME
 70
     0
  9
$SPLINETYPE
 70
     6
  9
$SPLINESEGS
 70
     8
  9
$ATTDIA
 70
     1
  9
$ATTREQ
 70
     1
  9
$HANDLING
 70
     1
  9
$HANDSEED
  5
702C
  9
$SURFTAB1
 70
     6
  9
$SURFTAB2
 70
     6
  9
$SURFTYPE
 70
     6
  9
$SURFU
 70
     6
  9
$SURFV
 70
     6
  9
$UCSNAME
  2

  9
$UCSORG
 10
0.0
 20
0.0
 30
0.0
  9
$UCSXDIR
 10
1.0
 20
0.0
 30
0.0
  9
$UCSYDIR
 10
0.0
 20
1.0
 30
0.0
  9
$PUCSNAME
  2

  9
$PUCSORG
 10
0.0
 20
0.0
 30
0.0
  9
$PUCSXDIR
 10
1.0
 20
0.0
 30
0.0
  9
$PUCSYDIR
 10
0.0
 20
1.0
 30
0.0
  9
$USERI1
 70
     0
  9
$USERI2
 70
     0
  9
$USERI3
 70
     0
  9
$USERI4
 70
     0
  9
$USERI5
 70
     0
  9
$USERR1
 40
0.0
  9
$USERR2
 40
0.0
  9
$USERR3
 40
0.0
  9
$USERR4
 40
0.0
  9
$USERR5
 40
0.0
  9
$WORLDVIEW
 70
     1
  9
$SHADEDGE
 70
     3
  9
$SHADEDIF
 70
    70
  9
$TILEMODE
 70
     1
  9
$MAXACTVP
 70
    64
  9
$PLIMCHECK
 70
     0
  9
$PEXTMIN
 10
1.0000000000000000E+20
 20
1.0000000000000000E+20
 30
1.0000000000000000E+20
  9
$PEXTMAX
 10
-1.0000000000000000E+20
 20
-1.0000000000000000E+20
 30
-1.0000000000000000E+20
  9
$PLIMMIN
 10
0.0
 20
0.0
  9
$PLIMMAX
 10
12.0
 20
9.0
  9
$UNITMODE
 70
     0
  9
$VISRETAIN
 70
     1
  9
$PLINEGEN
 70
     0
  9
$PSLTSCALE
 70
     1
  0
ENDSEC
  0
SECTION
  2
TABLES
  0
TABLE
  2
VPORT
 70
     1
  0
VPORT
  2
*ACTIVE
 70
     0
 10
0.0
 20
0.0
 11
1.0
 21
1.0
 12
0.0
 22
0.0
 13
0.0
 23
0.0
 14
1.0
 24
1.0
 15
0.0
 25
0.0
 16
0.0
 26
0.0
 36
127.7590384997881046
 17
4286.119384765625
 27
219.0025112503971911
 37
0.0
 40
34.1636554414729332
 41
2.9513274336283182
 42
50.0
 43
0.0
 44
0.0
 50
0.0
 51
0.0
 71
     0
 72
   100
 73
     1
 74
     1
 75
     0
 76
     0
 77
     0
 78
     0
  0
ENDTAB
  0
TABLE
  2
LTYPE
 70
     2
  0
LTYPE
  2
CONTINUOUS
 70
     0
  3
Solid line
 72
    65
 73
     0
 40
0.0
  0
LTYPE
  2
PHANTOM2
 70
     0
  3
___ _ _ ___ _ _ ___ _ _ ___ _ _
 72
    65
 73
     6
 40
1.25
 49
0.625
 49
-0.125
 49
0.125
 49
-0.125
 49
0.125
 49
-0.125
  0
ENDTAB
  0
TABLE
  2
LAYER
 70
     2
  0
LAYER
  2
0
 70
     0
 62
   255
  6
CONTINUOUS
  0
LAYER
  2
DEFPOINTS
 70
     0
 62
     7
  6
CONTINUOUS
  0
ENDTAB
  0
TABLE
  2
STYLE
 70
     1
  0
STYLE
  2
STANDARD
 70
     0
 40
0.0
 41
0.8
 50
0.0
 71
     0
 42
0.2
  3
txt
  4

  0
ENDTAB
  0
TABLE
  2
VIEW
 70
     0
  0
ENDTAB
  0
TABLE
  2
UCS
 70
     0
  0
ENDTAB
  0
TABLE
  2
APPID
 70
     9
  0
APPID
  2
ACAD
 70
     0
  0
APPID
  2
ACAD_MLEADERVER
 70
     0
  0
APPID
  2
ACAD_EXEMPT_FROM_CAD_STANDARDS
 70
     0
  0
APPID
  2
ACAD_NAV_VCDISPLAY
 70
     0
  0
APPID
  2
ACAECLAYERSTANDARD
 70
     0
  0
APPID
  2
ACCMTRANSPARENCY
 70
     0
  0
APPID
  2
ACAD_DSTYLE_DIMJAG
 70
     0
  0
APPID
  2
ACAD_DSTYLE_DIMTALN
 70
     0
  0
APPID
  2
ACDBATTR
 70
     0
  0
ENDTAB
  0
TABLE
  2
DIMSTYLE
 70
     1
  0
DIMSTYLE
  2
STANDARD
 70
     0
  3

  4

  5

  6

  7

 40
1.0
 41
0.1875
 42
0.0625
 43
0.38
 44
0.125
 45
0.0
 46
0.0
 47
0.01
 48
0.01
140
0.15625
141
0.09
142
0.0
143
25.3999999999999986
144
1.0
145
0.0
146
1.0
147
0.09
 71
     1
 72
     0
 73
     1
 74
     1
 75
     0
 76
     0
 77
     0
 78
     4
170
     0
171
     2
172
     0
173
     0
174
     0
175
     0
176
     0
177
     0
178
     0
  0
ENDTAB
  0
ENDSEC
  0
SECTION
  2
BLOCKS
  0
BLOCK
  8
0
  2
$MODEL_SPACE
 70
     0
 10
0.0
 20
0.0
 30
0.0
  3
$MODEL_SPACE
  1

  0
ENDBLK
  5
21
  8
0
  0
BLOCK
 67
     1
  8
0
  2
$PAPER_SPACE
 70
     0
 10
0.0
 20
0.0
 30
0.0
  3
$PAPER_SPACE
  1

  0
ENDBLK
  5
1D
 67
     1
  8
0
  0
ENDSEC
  0
SECTION
  2
ENTITIES
  0
ATTDEF
  5
3930
  8
DEFPOINTS
 10
4286.1160956264857305
 20
234.2738589265755138
 30
0.0
 40
0.001
  1
402324
  3

  2
MODELNUMBER
 70
     0
1001
ACDBATTR
1070
     0
1070
     1
  0
ATTDEF
  5
3931
  8
DEFPOINTS
 10
4286.1160956264857305
 20
234.2721922599089055
 30
0.0
 40
0.001
  1
WINDHAM
  3

  2
TRADENAME
 70
     0
1001
ACDBATTR
1070
     0
1070
     1
  0
ATTDEF
  5
3932
  8
DEFPOINTS
 10
4286.1160956264857305
 20
234.2705255932422119
 30
0.0
 40
0.001
  1
TOILET
  3

  2
PRODUCT
 70
     0
1001
ACDBATTR
1070
     0
1070
     1
  0
LINE
  5
6EED
  8
0
 10
4279.3955688233991168
 20
225.6739502970085027
 30
0.0
 11
4279.4321881858486449
 21
226.0251495406282061
 31
0.0
  0
LINE
  5
6EEE
  8
0
 10
4280.4683318310762843
 20
225.4363006605886142
 30
0.0
 11
4280.4834892647331799
 21
225.5619934000694968
 31
0.0
  0
LINE
  5
6EEF
  8
0
 10
4281.6822181255329269
 20
225.1787227675085035
 30
0.0
 11
4281.711897300747296
 21
225.2819316749362883
 31
0.0
  0
LINE
  5
6EF0
  8
0
 10
4280.0588230626335644
 20
225.456327202108497
 30
0.0
 11
4279.4899221802334068
 21
225.5727059581084859
 31
0.0
  0
LINE
  5
6EF1
  8
0
 10
4280.0622352698319446
 20
233.1896156696084859
 30
0.0
 11
4286.1193215030325518
 21
233.1896156696084859
 31
0.0
  0
ARC
  5
6EF2
  8
0
 10
4286.2029017157974522
 20
260.2234132296139251
 30
0.0
 40
35.2288627118147701
 50
261.7593493481127211
 51
269.8640660649655274
  0
ARC
  5
6EF3
  8
0
 10
4312.1443402369322939
 20
229.3343461618084973
 30
0.0
 40
33.4618369466999965
 50
174.989955520700903
 51
180.6230111217996068
  0
ARC
  5
6EF4
  8
0
 10
4279.5061940683917783
 20
225.6824582014762086
 30
0.0
 40
0.1109519232303407
 50
184.3978147334327105
 51
261.5667495751109186
  0
ARC
  5
6EF5
  8
0
 10
4280.197833714081753
 20
231.416493373642993
 30
0.0
 40
1.778299641380203
 50
94.3731477799405951
 51
125.8499731869107023
  0
ARC
  5
6EF6
  8
0
 10
4279.6711496642419661
 20
232.1614790913920956
 30
0.0
 40
0.8660397454830757
 50
126.4723011410683
 51
173.6954838603842859
  0
ARC
  5
6EF7
  8
0
 10
4284.2545524085753641
 20
229.2938561731546088
 30
0.0
 40
5.5794487027447177
 50
183.3224011906858948
 51
215.8051735906007025
  0
ARC
  5
6EF8
  8
0
 10
4279.6275556366535966
 20
222.9809253798381121
 30
0.0
 40
3.0504867123086852
 50
88.0837800153959876
 51
93.6720031460537541
  0
ARC
  5
6EF9
  8
0
 10
4281.6969531290906161
 20
228.3565397058966084
 30
0.0
 40
3.0470964870578241
 50
229.7846581102211019
 51
259.726438011649293
  0
ARC
  5
6EFA
  8
0
 10
4281.5845129559538691
 20
225.2121259221866865
 30
0.0
 40
0.1032573043663869
 50
255.8742895327399935
 51
341.1256193599966764
  0
ARC
  5
6EFB
  8
0
 10
4282.3799898159559234
 20
231.2116842975360953
 30
0.0
 40
6.154654385348552
 50
252.2873140178211884
 51
262.3372160544766984
  0
ARC
  5
6EFC
  8
0
 10
4280.5565232626786383
 20
225.4232433345605955
 30
0.0
 40
0.0891528034961313
 50
171.5781621186606003
 51
236.6206916475171056
  0
ARC
  5
6EFD
  8
0
 10
4278.9577628986453419
 20
219.8726545133968102
 30
0.0
 40
5.6911979564398836
 50
74.1988537035489486
 51
78.8448041071502246
  0
ARC
  5
6EFE
  8
0
 10
4267.2385075150295961
 20
227.3143093646193051
 30
0.0
 40
14.7489668441525303
 50
337.5515855838413017
 51
352.0157116873201062
  0
ARC
  5
6EFF
  8
0
 10
4321.397505193824145
 20
220.8075047656861898
 30
0.0
 40
40.5370951669781192
 50
173.7907650365357881
 51
178.7633206109275932
  0
ARC
  5
6F00
  8
0
 10
4368.2996231456809255
 20
180.6585896175998016
 30
0.0
 40
96.5759670727137944
 50
154.8630869283493041
 51
155.7958434211529095
  0
ARC
  5
6F01
  8
0
 10
4288.7500198574753085
 20
214.570875961560688
 30
0.0
 40
10.2549819657842907
 50
146.3476822385977982
 51
177.5180836713230121
  0
ARC
  5
6F02
  8
0
 10
4300.1087606048631642
 20
215.5598860750145889
 30
0.0
 40
21.6109742704383301
 50
181.4448847300529053
 51
188.9502879229214898
  0
ARC
  5
6F03
  8
0
 10
4292.4929136160490089
 20
214.8648397583056919
 30
0.0
 40
13.9886035676794602
 50
190.991582146208799
 51
218.1679966885091915
  0
ARC
  5
6F04
  8
0
 10
4287.1749756823637654
 20
210.651160886074706
 30
0.0
 40
7.2037533998912373
 50
217.9573775320089908
 51
247.229219171816311
  0
ARC
  5
6F05
  8
0
 10
4286.2258248975103925
 20
209.9166366031224129
 30
0.0
 40
6.1873914171907476
 50
252.7091731401517904
 51
269.0137206507642986
  0
LINE
  5
6F06
  8
0
 10
4292.1764077362331591
 20
233.1896156696084859
 30
0.0
 11
4286.1193215030325518
 21
233.1896156696084859
 31
0.0
  0
ARC
  5
6F07
  8
0
 10
4286.035741290268561
 20
260.2234132296139251
 30
0.0
 40
35.2288627118147701
 50
270.1359339350344726
 51
278.2406506518871083
  0
ARC
  5
6F08
  8
0
 10
4260.0943027691319003
 20
229.3343461618084973
 30
0.0
 40
33.4618369466999965
 50
359.3769888782002795
 51
5.010044479299113
  0
ARC
  5
6F09
  8
0
 10
4292.0408092919833507
 20
231.416493373642993
 30
0.0
 40
1.778299641380203
 50
54.1500268130892906
 51
85.6268522200594191
  0
ARC
  5
6F0A
  8
0
 10
4292.5674933418240471
 20
232.1614790913920956
 30
0.0
 40
0.8660397454830757
 50
6.304516139615667
 51
53.5276988589316929
  0
ARC
  5
6F0B
  8
0
 10
4287.9840905974906491
 20
229.2938561731546088
 30
0.0
 40
5.5794487027447177
 50
324.1948264093992975
 51
356.6775988093140199
  0
ARC
  5
6F0C
  8
0
 10
4290.5416898769735781
 20
228.3565397058966084
 30
0.0
 40
3.0470964870578241
 50
280.2735619883505933
 51
310.2153418897788129
  0
ARC
  5
6F0D
  8
0
 10
4305.0001354910364171
 20
227.3143093646193051
 30
0.0
 40
14.7489668441525303
 50
187.9842883126798938
 51
202.4484144161586983
  0
ARC
  5
6F0E
  8
0
 10
4250.8411378122409587
 20
220.8075047656861898
 30
0.0
 40
40.5370951669781192
 50
1.2366793890723089
 51
6.4553715263843223
  0
ARC
  5
6F0F
  8
0
 10
4203.9390198603859972
 20
180.6585896175998016
 30
0.0
 40
96.5759670727137944
 50
24.2041565788470798
 51
25.1369130716506604
  0
ARC
  5
6F10
  8
0
 10
4283.4886231485907047
 20
214.570875961560688
 30
0.0
 40
10.2549819657842907
 50
2.4819163286770092
 51
33.6523177614022018
  0
ARC
  5
6F11
  8
0
 10
4272.129882401202849
 20
215.5598860750145889
 30
0.0
 40
21.6109742704383301
 50
351.0497120770784818
 51
358.5551152699471231
  0
ARC
  5
6F12
  8
0
 10
4279.7457293900170043
 20
214.8648397583056919
 30
0.0
 40
13.9886035676794602
 50
321.8320033114894727
 51
349.0084178537911725
  0
ARC
  5
6F13
  8
0
 10
4285.0636673237031573
 20
210.651160886074706
 30
0.0
 40
7.2037533998912373
 50
292.7707808281837174
 51
322.0426224679910092
  0
ARC
  5
6F14
  8
0
 10
4286.0128181085556207
 20
209.9166366031224129
 30
0.0
 40
6.1873914171907476
 50
270.9862793492357014
 51
287.2908268598482096
  0
LINE
  5
6F16
  8
0
 10
4282.5655552185417037
 20
222.1674465767084996
 30
0.0
 11
4282.5597630170423145
 21
222.2584174056084123
 31
0.0
  0
LINE
  5
6F17
  8
0
 10
4282.0693249037421992
 20
222.1247732986369954
 30
0.0
 11
4282.0693249037421992
 21
222.2052633491084919
 31
0.0
  0
LINE
  5
6F18
  8
0
 10
4282.5493249036426278
 20
222.0199297809083987
 30
0.0
 11
4282.5493249037426722
 21
221.9364033454083938
 31
0.0
  0
LINE
  5
6F19
  8
0
 10
4282.8693249037405621
 20
222.3083525907084947
 30
0.0
 11
4282.8693249037405621
 21
222.3032134657084953
 31
0.0
  0
LINE
  5
6F1A
  8
0
 10
4282.5901038174433779
 20
222.2717340483085025
 30
0.0
 11
4282.5995375278416759
 21
223.3527301818085107
 31
0.0
  0
LINE
  5
6F1B
  8
0
 10
4282.5959657955336297
 20
222.1654722820804864
 30
0.0
 11
4282.6035183064432204
 21
222.2717339737085069
 31
0.0
  0
LINE
  5
6F1C
  8
0
 10
4283.8693249037432906
 20
222.3032134657084953
 30
0.0
 11
4283.8693249037432906
 21
222.3083525907084947
 31
0.0
  0
LINE
  5
6F1D
  8
0
 10
4284.1485459900422939
 20
222.2717340483085025
 30
0.0
 11
4284.1391122797422213
 21
223.3527301818085107
 31
0.0
  0
LINE
  5
6F1E
  8
0
 10
4281.0484307870410703
 20
221.125236897408513
 30
0.0
 11
4281.0917078498423507
 21
221.125236897408513
 31
0.0
  0
LINE
  5
6F1F
  8
0
 10
4282.7193249037427449
 20
221.766403345308504
 30
0.0
 11
4289.5193181023241777
 21
221.766403345308504
 31
0.0
  0
LINE
  5
6F20
  8
0
 10
4282.5951725399763745
 20
222.0655732842849943
 30
0.0
 11
4282.5664596519172846
 21
222.0660179592246095
 31
0.0
  0
LINE
  5
6F21
  8
0
 10
4282.1124113283422048
 20
222.1202676140084975
 30
0.0
 11
4282.4496958943409481
 21
222.1202676131084957
 31
0.0
  0
LINE
  5
6F22
  8
0
 10
4282.0085079528416827
 20
222.2553882468085078
 30
0.0
 11
4281.7669253750427742
 21
222.2553882468085078
 31
0.0
  0
LINE
  5
6F23
  8
0
 10
4282.5097649707422534
 20
222.2645512113084862
 30
0.0
 11
4282.1293341668424546
 21
222.2645512113084862
 31
0.0
  0
LINE
  5
6F24
  8
0
 10
4282.6656366730421723
 20
222.2717336280084055
 30
0.0
 11
4282.5901038174433779
 21
222.2717340483085025
 31
0.0
  0
LINE
  5
6F25
  8
0
 10
4284.0730131344425899
 20
222.2717336280084055
 30
0.0
 11
4284.1485459900422939
 21
222.2717340483085025
 31
0.0
  0
LINE
  5
6F26
  8
0
 10
4283.8178558362424155
 20
222.2750272728085008
 30
0.0
 11
4282.9207941194417799
 21
222.2750272721085025
 31
0.0
  0
LINE
  5
6F27
  8
0
 10
4282.8693249037405621
 20
222.3032134657084953
 30
0.0
 11
4283.8693249037432906
 21
222.3032134657084953
 31
0.0
  0
LINE
  5
6F28
  8
0
 10
4284.1480651734418643
 20
222.326830171608492
 30
0.0
 11
4288.090577832605959
 21
222.326830171608492
 31
0.0
  0
ARC
  5
6F29
  8
0
 10
4246.3497178219413399
 20
243.3876627126084031
 30
0.0
 40
41.1682821939999997
 50
328.0742092291959011
 51
328.9963091400009034
  0
ARC
  5
6F2A
  8
0
 10
4282.7300396177406583
 20
221.9471180592678934
 30
0.0
 40
0.1810320770955374
 50
183.3931381478184051
 51
266.6068616401987015
  0
ARC
  5
6F2B
  8
0
 10
4283.5550681655686276
 20
223.3068313689753097
 30
0.0
 40
0.585844884179235
 50
4.4935206399361389
 51
48.0932295763740711
  0
ARC
  5
6F2C
  8
0
 10
4283.217671607464581
 20
223.2899879627892972
 30
0.0
 40
0.6213101692693441
 50
133.2090706077557059
 51
174.2041791130438071
  0
ARC
  5
6F2D
  8
0
 10
4283.6543249037422356
 20
222.3944033453084899
 30
0.0
 40
0.125
 50
287.2521954764168868
 51
313.1539116444786259
  0
ARC
  5
6F2E
  8
0
 10
4283.0843249037416172
 20
222.3944033453084899
 30
0.0
 40
0.125
 50
226.8460883555214025
 51
252.7478053004261938
  0
LINE
  5
6F2F
  8
0
 10
4282.0474114643420762
 20
222.1282991178084956
 30
0.0
 11
4282.0406093486417376
 21
222.2253894733084962
 31
0.0
  0
LINE
  5
6F30
  8
0
 10
4283.0948069292417131
 20
223.8456977116084943
 30
0.0
 11
4283.6438426811146201
 21
223.8456977116084943
 31
0.0
  0
ARC
  5
6F31
  8
0
 10
4283.6249119942458492
 20
223.2937185469120038
 30
0.0
 40
0.5523036928758746
 50
54.4069766836156674
 51
88.0357528517695016
  0
ARC
  5
6F32
  8
0
 10
4283.1124360565681854
 20
223.2975471449881013
 30
0.0
 40
0.5484339794510182
 50
91.8420605895779545
 51
125.715232579495094
  0
ARC
  5
6F33
  8
0
 10
4282.6626898067706861
 20
222.3081654118780932
 30
0.0
 40
0.0365507714932021
 50
274.6244292447307203
 51
347.6358919396154192
  0
ARC
  5
6F34
  8
0
 10
4282.7201903922368729
 20
222.2749321904867088
 30
0.0
 40
0.0334759750459906
 50
93.3019474896515817
 51
130.6276174814134095
  0
LINE
  5
6F35
  8
0
 10
4282.7182622443424407
 20
222.3083525907084947
 30
0.0
 11
4284.0203877830563215
 21
222.3083525907084947
 31
0.0
  0
ARC
  5
6F36
  8
0
 10
4284.0193556086969693
 20
222.277215883077389
 30
0.0
 40
0.0311538110992899
 50
47.5483472573309527
 51
88.1013539849561482
  0
ARC
  5
6F37
  8
0
 10
4284.0751042470110406
 20
222.3070640982782038
 30
0.0
 40
0.035392299745272
 50
191.1786525672856101
 51
266.6127732904395771
  0
ARC
  5
6F38
  8
0
 10
4282.9256847821852716
 20
222.3755912384060025
 30
0.0
 40
0.100682819991611
 50
221.8995280611410976
 51
267.2157648459145776
  0
ARC
  5
6F39
  8
0
 10
4282.8037233032227959
 20
224.724232438047494
 30
0.0
 40
2.452001535317629
 50
267.0821831645362749
 51
272.7366274624980065
  0
ARC
  5
6F3A
  8
0
 10
4283.8178225606197884
 20
222.3653792758433951
 30
0.0
 40
0.0903520133625079
 50
270.0211013863349763
 51
320.8641542145351195
  0
ARC
  5
6F3B
  8
0
 10
4283.9415740910499153
 20
225.0064348022787044
 30
0.0
 40
2.734207983789652
 50
267.4065780743728737
 51
272.4933646656518818
  0
ARC
  5
6F3C
  8
0
 10
4282.4348257584133535
 20
222.0058710122314096
 30
0.0
 40
0.115359018870465
 50
7.0000204121938987
 51
82.5937883393877286
  0
ARC
  5
6F3D
  8
0
 10
4282.003730804188308
 20
222.2181011840004032
 30
0.0
 40
0.0375918369080123
 50
11.1792788317880607
 51
82.6991447049609008
  0
ARC
  5
6F3E
  8
0
 10
4282.1357381597217682
 20
222.1980556441160104
 30
0.0
 40
0.0668032303189831
 50
95.5010227743627951
 51
173.8060397722366019
  0
ARC
  5
6F3F
  8
0
 10
4282.1524078659122097
 20
222.711005450568905
 30
0.0
 40
0.5920902925751168
 50
259.7856204043275739
 51
266.1266393385686797
  0
LINE
  5
6F40
  8
0
 10
4282.5682440059463261
 20
221.865909728775307
 30
0.0
 11
4282.5655552185417037
 21
222.1674465767084996
 31
0.0
  0
ARC
  5
6F41
  8
0
 10
4282.4906797224966795
 20
221.9021433788363993
 30
0.0
 40
0.3629100215449023
 50
79.0262472287322737
 51
86.9854542970975757
  0
LINE
  5
6F42
  8
0
 10
4282.5932899778472347
 20
221.8284919705421032
 30
0.0
 11
4282.5959657955336297
 21
222.1654722820804864
 31
0.0
  0
ARC
  5
6F43
  8
0
 10
4281.7863942340572976
 20
222.0678669402539072
 30
0.0
 40
0.1885292468325292
 50
95.9273330382810343
 51
142.6834577987837065
  0
ARC
  5
6F44
  8
0
 10
4282.3104304015550952
 20
220.9184211610416924
 30
0.0
 40
1.2361461915413141
 50
145.5870247082411026
 51
170.3687291056236859
  0
ARC
  5
6F45
  8
0
 10
4281.0594476520009266
 20
221.0062404974499941
 30
0.0
 40
0.1195052907474101
 50
95.2894509324024739
 51
137.7110507226952905
  0
ARC
  5
6F46
  8
0
 10
4289.5059340311718188
 20
215.2600006406590865
 30
0.0
 40
10.3341299956151502
 50
145.6791924482789113
 51
150.7889397466263119
  0
ARC
  5
6F47
  8
0
 10
4290.1716853282596276
 20
214.8846524975255079
 30
0.0
 40
11.0983970857575596
 50
150.7749547302854864
 51
160.1404686711969134
  0
ARC
  5
6F48
  8
0
 10
4293.2156774529721588
 20
214.2279276243538106
 30
0.0
 40
14.1905686275924907
 50
161.8220556000214003
 51
178.609678158038804
  0
ARC
  5
6F49
  8
0
 10
4280.1324918693935615
 20
221.0933989728939935
 30
0.0
 40
0.9597442110189058
 50
344.7837613778115156
 51
1.9010413648332101
  0
ARC
  5
6F4A
  8
0
 10
4279.6213768382203853
 20
221.3485205589288967
 30
0.0
 40
1.5240236664373961
 50
328.5257200955729786
 51
340.5682224611160791
  0
ARC
  5
6F4B
  8
0
 10
4290.3293355960540794
 20
214.8195113146311996
 30
0.0
 40
11.0174440179800897
 50
148.6420425632364015
 51
159.036581801804914
  0
ARC
  5
6F4C
  8
0
 10
4290.7996589616977872
 20
214.6716323416839884
 30
0.0
 40
11.5095827210686998
 50
159.1868094859854068
 51
173.8104143694012009
  0
ARC
  5
6F4D
  8
0
 10
4275.1300634454946703
 20
217.6355572760355983
 30
0.0
 40
7.9375516861882671
 50
33.3049933874654727
 51
34.9454448215426368
  0
ARC
  5
6F4E
  8
0
 10
4276.9373528292608171
 20
221.1075569872066069
 30
0.0
 40
4.9073269002773072
 50
355.2588832128967056
 51
10.4072291758163704
  0
ARC
  5
6F4F
  8
0
 10
4268.4166649612407127
 20
221.5700189415678096
 30
0.0
 40
13.4392880299826096
 50
342.0874289756088729
 51
356.2965720125127973
  0
ARC
  5
6F50
  8
0
 10
4294.6459232148799856
 20
212.9721062963691054
 30
0.0
 40
14.1634366130157598
 50
161.6265259280029056
 51
177.7201218166524086
  0
ARC
  5
6F51
  8
0
 10
4291.6678689071650297
 20
214.6792228850237052
 30
0.0
 40
12.63903521769641
 50
180.4849947384383029
 51
196.3685588801967867
  0
ARC
  5
6F52
  8
0
 10
4293.490929356234119
 20
215.2365995295214134
 30
0.0
 40
14.5452970571874403
 50
196.451358262109693
 51
216.7362707659630985
  0
ARC
  5
6F53
  8
0
 10
4286.5193064914001297
 20
209.8233726788230911
 30
0.0
 40
5.722902901653609
 50
215.0521684608640953
 51
245.4136336993869065
  0
ARC
  5
6F54
  8
0
 10
4286.3252759376819085
 20
210.2134197337485944
 30
0.0
 40
6.0064157109534593
 50
248.646464992428605
 51
268.0349955743844816
  0
ARC
  5
6F55
  8
0
 10
4291.9049524229540111
 20
213.596121868356903
 30
0.0
 40
11.4114152442278805
 50
180.3041765959576139
 51
199.3048214029668088
  0
ARC
  5
6F56
  8
0
 10
4291.4927937230058888
 20
213.4625643355117006
 30
0.0
 40
10.9782823886181102
 50
199.3581028400624007
 51
221.7775140677356944
  0
ARC
  5
6F57
  8
0
 10
4286.4985523594987171
 20
209.1136508088588926
 30
0.0
 40
4.3572835770643721
 50
222.8849570556425022
 51
249.2558907421627907
  0
ARC
  5
6F58
  8
0
 10
4286.1439484152369914
 20
208.7470820707945904
 30
0.0
 40
3.8941112240788121
 50
252.2260811663772984
 51
269.6376509410557105
  0
ARC
  5
6F59
  8
0
 10
4313.5811207133419884
 20
213.3649420351246988
 30
0.0
 40
34.3186426114141128
 50
175.7427422710055112
 51
177.9904168190666098
  0
ARC
  5
6F5A
  8
0
 10
4291.8146469073362823
 20
214.7191685798919139
 30
0.0
 40
12.5319691874467196
 50
180.6894085102651104
 51
194.9853534984875978
  0
ARC
  5
6F5B
  8
0
 10
4293.1869547787509873
 20
215.1048242785523996
 30
0.0
 40
13.9573385865380004
 50
195.0580121427732081
 51
205.4487735179700962
  0
ARC
  5
6F5C
  8
0
 10
4292.9987528530682539
 20
214.9302388411599907
 30
0.0
 40
13.7125927976716806
 50
205.1279833645828035
 51
216.1456274986911978
  0
ARC
  5
6F5D
  8
0
 10
4288.7750352874800228
 20
211.9503509885840913
 30
0.0
 40
8.5446214593059775
 50
216.7155733859871987
 51
236.2733748684314037
  0
ARC
  5
6F5E
  8
0
 10
4286.4633892916117475
 20
210.0494435160267983
 30
0.0
 40
5.7459554154492354
 50
244.9532663563421977
 51
266.5670753273233231
  0
LINE
  5
6F5F
  8
0
 10
4289.6730877875243095
 20
222.1674465767084996
 30
0.0
 11
4289.6788799890236987
 21
222.2584174056084123
 31
0.0
  0
LINE
  5
6F60
  8
0
 10
4290.1693181023238139
 20
222.1247732986369954
 30
0.0
 11
4290.1693181023238139
 21
222.2052633491084919
 31
0.0
  0
LINE
  5
6F61
  8
0
 10
4289.6893181024242949
 20
222.0199297809083987
 30
0.0
 11
4289.68931810232516
 21
221.9364033454083938
 31
0.0
  0
LINE
  5
6F62
  8
0
 10
4289.369318102323632
 20
222.3083525907084947
 30
0.0
 11
4289.369318102323632
 21
222.3032134657084953
 31
0.0
  0
LINE
  5
6F63
  8
0
 10
4289.6485391886244543
 20
222.2717340483085025
 30
0.0
 11
4289.6391054782243373
 21
223.3527301818085107
 31
0.0
  0
LINE
  5
6F64
  8
0
 10
4289.6426772105305645
 20
222.1654722820804864
 30
0.0
 11
4289.6351246996237023
 21
222.2717339737085069
 31
0.0
  0
LINE
  5
6F65
  8
0
 10
4288.369318102325451
 20
222.3032134657084953
 30
0.0
 11
4288.369318102325451
 21
222.3083525907084947
 31
0.0
  0
LINE
  5
6F66
  8
0
 10
4288.0900970160237193
 20
222.2717340483085025
 30
0.0
 11
4288.0995307263237919
 21
223.3527301818085107
 31
0.0
  0
LINE
  5
6F67
  8
0
 10
4291.1902122190231239
 20
221.125236897408513
 30
0.0
 11
4291.1469351562236625
 21
221.125236897408513
 31
0.0
  0
LINE
  5
6F68
  8
0
 10
4289.6434704660896386
 20
222.0655732842849943
 30
0.0
 11
4289.6721833541487285
 21
222.0660179592246095
 31
0.0
  0
LINE
  5
6F69
  8
0
 10
4290.1262316777238084
 20
222.1202676140084975
 30
0.0
 11
4289.7889471117241555
 21
222.1202676131084957
 31
0.0
  0
LINE
  5
6F6A
  8
0
 10
4290.230135053223421
 20
222.2553882468085078
 30
0.0
 11
4290.4717176310241484
 21
222.2553882468085078
 31
0.0
  0
LINE
  5
6F6B
  8
0
 10
4289.7288780353228503
 20
222.2645512113084862
 30
0.0
 11
4290.1093088392235586
 21
222.2645512113084862
 31
0.0
  0
LINE
  5
6F6C
  8
0
 10
4289.5730063330238409
 20
222.2717336280084055
 30
0.0
 11
4289.6485391886244543
 21
222.2717340483085025
 31
0.0
  0
LINE
  5
6F6D
  8
0
 10
4288.1656298716243327
 20
222.2717336280084055
 30
0.0
 11
4288.0900970160237193
 21
222.2717340483085025
 31
0.0
  0
LINE
  5
6F6E
  8
0
 10
4288.4207871698235977
 20
222.2750272728085008
 30
0.0
 11
4289.3178488866242333
 21
222.2750272721085025
 31
0.0
  0
LINE
  5
6F6F
  8
0
 10
4289.369318102323632
 20
222.3032134657084953
 30
0.0
 11
4288.369318102325451
 21
222.3032134657084953
 31
0.0
  0
ARC
  5
6F70
  8
0
 10
4325.8889251841228543
 20
243.3876627126084031
 30
0.0
 40
41.1682821939999997
 50
211.0036908599990966
 51
211.9257907708040989
  0
ARC
  5
6F71
  8
0
 10
4289.5086033883253549
 20
221.9471180592678934
 30
0.0
 40
0.1810320770955374
 50
273.3931383598012985
 51
356.6068618521815097
  0
ARC
  5
6F72
  8
0
 10
4288.6835748404955666
 20
223.3068313689753097
 30
0.0
 40
0.585844884179235
 50
131.9067704236258862
 51
175.5064793600637927
  0
ARC
  5
6F73
  8
0
 10
4289.0209713986023417
 20
223.2899879627892972
 30
0.0
 40
0.6213101692693441
 50
5.795820886956192
 51
46.7909293922442728
  0
ARC
  5
6F74
  8
0
 10
4288.5843181023237776
 20
222.3944033453084899
 30
0.0
 40
0.125
 50
226.8460883555214025
 51
252.7478045235831132
  0
ARC
  5
6F75
  8
0
 10
4289.154318102324396
 20
222.3944033453084899
 30
0.0
 40
0.125
 50
287.2521946995738062
 51
313.1539116444786259
  0
LINE
  5
6F76
  8
0
 10
4290.191231541723937
 20
222.1282991178084956
 30
0.0
 11
4290.1980336574242756
 21
222.2253894733084962
 31
0.0
  0
LINE
  5
6F77
  8
0
 10
4289.1438360768233906
 20
223.8456977116084943
 30
0.0
 11
4288.5948003249513931
 21
223.8456977116084943
 31
0.0
  0
ARC
  5
6F78
  8
0
 10
4288.613731011820164
 20
223.2937185469120038
 30
0.0
 40
0.5523036928758746
 50
91.9642471482304984
 51
125.5930233163843042
  0
ARC
  5
6F79
  8
0
 10
4289.1262069494969182
 20
223.2975471449881013
 30
0.0
 40
0.5484339794510182
 50
54.2847674205048421
 51
88.1579394104220313
  0
ARC
  5
6F7A
  8
0
 10
4289.5759531992962366
 20
222.3081654118780932
 30
0.0
 40
0.0365507714932021
 50
192.3641080603846092
 51
265.3755707552693934
  0
ARC
  5
6F7B
  8
0
 10
4289.5184526138300498
 20
222.2749321904867088
 30
0.0
 40
0.0334759750459906
 50
49.3723825185865977
 51
86.6980525103484183
  0
LINE
  5
6F7C
  8
0
 10
4289.5203807617235725
 20
222.3083525907084947
 30
0.0
 11
4288.2182552230096917
 21
222.3083525907084947
 31
0.0
  0
ARC
  5
6F7D
  8
0
 10
4288.2192873973672249
 20
222.277215883077389
 30
0.0
 40
0.0311538110992899
 50
91.8986460150438376
 51
132.4516527426690971
  0
ARC
  5
6F7E
  8
0
 10
4288.1635387590540631
 20
222.3070640982782038
 30
0.0
 40
0.035392299745272
 50
273.3872267095084112
 51
348.8213474327142762
  0
ARC
  5
6F7F
  8
0
 10
4289.3129582238816511
 20
222.3755912384060025
 30
0.0
 40
0.100682819991611
 50
272.7842351540854224
 51
318.1004719388589024
  0
ARC
  5
6F80
  8
0
 10
4289.4349197028432172
 20
224.724232438047494
 30
0.0
 40
2.452001535317629
 50
267.2633725375021072
 51
272.9178168354637251
  0
ARC
  5
6F81
  8
0
 10
4288.4208204454462248
 20
222.3653792758433951
 30
0.0
 40
0.0903520133625079
 50
219.1358457854649089
 51
269.97889861366491
  0
ARC
  5
6F82
  8
0
 10
4288.2970689150160979
 20
225.0064348022787044
 30
0.0
 40
2.734207983789652
 50
267.5066353343481182
 51
272.5934219256270126
  0
ARC
  5
6F83
  8
0
 10
4289.8038172476517502
 20
222.0058710122314096
 30
0.0
 40
0.115359018870465
 50
97.4062116606122714
 51
172.9999795878061093
  0
ARC
  5
6F84
  8
0
 10
4290.2349122018777052
 20
222.2181011840004032
 30
0.0
 40
0.0375918369080123
 50
97.3008552950391135
 51
168.8207211682118896
  0
ARC
  5
6F85
  8
0
 10
4290.102904846344245
 20
222.1980556441160104
 30
0.0
 40
0.0668032303189831
 50
6.1939602277634069
 51
84.4989772256372333
  0
ARC
  5
6F86
  8
0
 10
4290.0862351401538035
 20
222.711005450568905
 30
0.0
 40
0.5920902925751168
 50
273.8733606614313203
 51
280.2143795956724261
  0
LINE
  5
6F87
  8
0
 10
4289.6703990001196871
 20
221.865909728775307
 30
0.0
 11
4289.6730877875243095
 21
222.1674465767084996
 31
0.0
  0
ARC
  5
6F88
  8
0
 10
4289.7479632835702432
 20
221.9021433788363993
 30
0.0
 40
0.3629100215449023
 50
93.0145457029024243
 51
100.9737527712676979
  0
LINE
  5
6F89
  8
0
 10
4289.6453530282187785
 20
221.8284919705421032
 30
0.0
 11
4289.6426772105305645
 21
222.1654722820804864
 31
0.0
  0
ARC
  5
6F8A
  8
0
 10
4290.4522487720087156
 20
222.0678669402539072
 30
0.0
 40
0.1885292468325292
 50
37.3165422012162935
 51
84.0726669617189657
  0
ARC
  5
6F8B
  8
0
 10
4289.9282126045118275
 20
220.9184211610416924
 30
0.0
 40
1.2361461915413141
 50
9.6312708943763337
 51
34.4129752917588903
  0
ARC
  5
6F8C
  8
0
 10
4291.1791953540650866
 20
221.0062404974499941
 30
0.0
 40
0.1195052907474101
 50
42.2889492773046669
 51
84.7105490675975261
  0
ARC
  5
6F8D
  8
0
 10
4282.7327089748941944
 20
215.2600006406590865
 30
0.0
 40
10.3341299956151502
 50
29.211060253373649
 51
34.3208075517211171
  0
ARC
  5
6F8E
  8
0
 10
4282.0669576778045666
 20
214.8846524975255079
 30
0.0
 40
11.0983970857575596
 50
19.8595313288030901
 51
29.2250452697144603
  0
ARC
  5
6F8F
  8
0
 10
4279.0229655530929449
 20
214.2279276243538106
 30
0.0
 40
14.1905686275924907
 50
1.3903218419611281
 51
18.1779443999785784
  0
ARC
  5
6F90
  8
0
 10
4292.1061511366724517
 20
221.0933989728939935
 30
0.0
 40
0.9597442110189058
 50
178.0989586351668095
 51
195.2162386221885129
  0
ARC
  5
6F91
  8
0
 10
4292.6172661678456279
 20
221.3485205589288967
 30
0.0
 40
1.5240236664373961
 50
199.4317775388838072
 51
211.474279904426993
  0
ARC
  5
6F92
  8
0
 10
4281.9093074100128433
 20
214.8195113146311996
 30
0.0
 40
11.0174440179800897
 50
20.9634181981950505
 51
31.3579574367635594
  0
ARC
  5
6F93
  8
0
 10
4281.4389840443673165
 20
214.6716323416839884
 30
0.0
 40
11.5095827210686998
 50
6.1895856305987849
 51
20.8131905140146003
  0
ARC
  5
6F94
  8
0
 10
4297.1085795605704334
 20
217.6355572760355983
 30
0.0
 40
7.9375516861882671
 50
145.0545551784574059
 51
146.6950066125345131
  0
ARC
  5
6F95
  8
0
 10
4295.3012901768061056
 20
221.1075569872066069
 30
0.0
 40
4.9073269002773072
 50
169.5927708241835887
 51
184.7411167871032944
  0
ARC
  5
6F96
  8
0
 10
4303.8219780448253005
 20
221.5700189415678096
 30
0.0
 40
13.4392880299826096
 50
183.703427987487288
 51
197.9125710243910135
  0
ARC
  5
6F97
  8
0
 10
4277.5927197911860276
 20
212.9721062963691054
 30
0.0
 40
14.1634366130157598
 50
2.2798781833476052
 51
18.3734740719970588
  0
ARC
  5
6F98
  8
0
 10
4280.5707740989009835
 20
214.6792228850237052
 30
0.0
 40
12.63903521769641
 50
343.6314411198031848
 51
359.5150052615617255
  0
ARC
  5
6F99
  8
0
 10
4278.7477136498300752
 20
215.2365995295214134
 30
0.0
 40
14.5452970571874403
 50
323.2637292340368731
 51
343.548641737890307
  0
ARC
  5
6F9A
  8
0
 10
4285.7193365146667929
 20
209.8233726788230911
 30
0.0
 40
5.722902901653609
 50
294.5863663006131219
 51
324.9478315391344836
  0
ARC
  5
6F9B
  8
0
 10
4285.9133670683850141
 20
210.2134197337485944
 30
0.0
 40
6.0064157109534593
 50
271.9650044256155184
 51
291.3535350075712813
  0
ARC
  5
6F9C
  8
0
 10
4280.3336905831120021
 20
213.596121868356903
 30
0.0
 40
11.4114152442278805
 50
340.6951785970330775
 51
359.6958234040423008
  0
ARC
  5
6F9D
  8
0
 10
4280.7458492830610339
 20
213.4625643355117006
 30
0.0
 40
10.9782823886181102
 50
318.2224859322641919
 51
340.6418971599376277
  0
ARC
  5
6F9E
  8
0
 10
4285.7400906465672961
 20
209.1136508088588926
 30
0.0
 40
4.3572835770643721
 50
290.7441092578371808
 51
317.1150429443575263
  0
ARC
  5
6F9F
  8
0
 10
4286.0946945908281123
 20
208.7470820707945904
 30
0.0
 40
3.8941112240788121
 50
270.3623490589442895
 51
287.7739188336227016
  0
ARC
  5
6FA0
  8
0
 10
4258.6575222927240247
 20
213.3649420351246988
 30
0.0
 40
34.3186426114141128
 50
2.0095831809333582
 51
4.2572577289944702
  0
ARC
  5
6FA1
  8
0
 10
4280.4239960987288214
 20
214.7191685798919139
 30
0.0
 40
12.5319691874467196
 50
345.0146465015122885
 51
359.3105914897349749
  0
ARC
  5
6FA2
  8
0
 10
4279.0516882273150259
 20
215.1048242785523996
 30
0.0
 40
13.9573385865380004
 50
334.5512264820299038
 51
344.9419878572267066
  0
ARC
  5
6FA3
  8
0
 10
4279.2398901529977593
 20
214.9302388411599907
 30
0.0
 40
13.7125927976716806
 50
323.8543725013087169
 51
334.8720166354173102
  0
ARC
  5
6FA4
  8
0
 10
4283.4636077185859904
 20
211.9503509885840913
 30
0.0
 40
8.5446214593059775
 50
303.7266251315685963
 51
323.2844266140127729
  0
ARC
  5
6FA5
  8
0
 10
4285.7752537144542657
 20
210.0494435160267983
 30
0.0
 40
5.7459554154492354
 50
273.4329246726766769
 51
295.0467336436577739
  0
ENDSEC
  0
EOF
