  0
SECTION
  2
HEADER
  9
$ACADVER
  1
AC1009
  9
$INSBASE
 10
4235.1605037579020063
 20
200.8084897918797083
 30
0.0
  9
$EXTMIN
 10
4227.5458399456592815
 20
200.8031002890085119
 30
0.0
  9
$EXTMAX
 10
4242.7751675701447311
 20
229.7671298197375904
 30
0.0
  9
$LIMMIN
 10
0.0
 20
0.0
  9
$LIMMAX
 10
11.6929133858000007
 20
8.2677165353999982
  9
$ORTHOMODE
 70
     1
  9
$REGENMODE
 70
     1
  9
$FILLMODE
 70
     1
  9
$QTEXTMODE
 70
     0
  9
$MIRRTEXT
 70
     0
  9
$DRAGMODE
 70
     2
  9
$LTSCALE
 40
0.6431102362
  9
$OSMODE
 70
  4095
  9
$ATTMODE
 70
     1
  9
$TEXTSIZE
 40
0.2
  9
$TRACEWID
 40
0.05
  9
$TEXTSTYLE
  7
STANDARD
  9
$CLAYER
  8
0
  9
$CELTYPE
  6
BYLAYER
  9
$CECOLOR
 62
   256
  9
$DIMSCALE
 40
1.0
  9
$DIMASZ
 40
0.1875
  9
$DIMEXO
 40
0.0625
  9
$DIMDLI
 40
0.4443307087
  9
$DIMRND
 40
0.0
  9
$DIMDLE
 40
0.0
  9
$DIMEXE
 40
0.125
  9
$DIMTP
 40
0.01
  9
$DIMTM
 40
0.01
  9
$DIMTXT
 40
2.0
  9
$DIMCEN
 40
0.1052362205
  9
$DIMTSZ
 40
0.0
  9
$DIMTOL
 70
     1
  9
$DIMLIM
 70
     0
  9
$DIMTIH
 70
     1
  9
$DIMTOH
 70
     1
  9
$DIMSE1
 70
     0
  9
$DIMSE2
 70
     0
  9
$DIMTAD
 70
     0
  9
$DIMZIN
 70
     0
  9
$DIMBLK
  1

  9
$DIMASO
 70
     1
  9
$DIMSHO
 70
     1
  9
$DIMPOST
  1
\X
  9
$DIMAPOST
  1

  9
$DIMALT
 70
     1
  9
$DIMALTD
 70
     2
  9
$DIMALTF
 40
25.3999999999999986
  9
$DIMLFAC
 40
1.0
  9
$DIMTOFL
 70
     0
  9
$DIMTVP
 40
0.0
  9
$DIMTIX
 70
     0
  9
$DIMSOXD
 70
     0
  9
$DIMSAH
 70
     0
  9
$DIMBLK1
  1

  9
$DIMBLK2
  1

  9
$DIMSTYLE
  2
STANDARD
  9
$DIMCLRD
 70
     0
  9
$DIMCLRE
 70
     0
  9
$DIMCLRT
 70
     0
  9
$DIMTFAC
 40
1.0
  9
$DIMGAP
 40
0.09
  9
$LUNITS
 70
     2
  9
$LUPREC
 70
     4
  9
$SKETCHINC
 40
0.1
  9
$FILLETRAD
 40
0.0
  9
$AUNITS
 70
     0
  9
$AUPREC
 70
     0
  9
$MENU
  1
.
  9
$ELEVATION
 40
0.0
  9
$PELEVATION
 40
0.0
  9
$THICKNESS
 40
0.0
  9
$LIMCHECK
 70
     0
  9
$BLIPMODE
 70
     0
  9
$CHAMFERA
 40
0.0
  9
$CHAMFERB
 40
0.0
  9
$SKPOLY
 70
     0
  9
$TDCREATE
 40
2458060.468368056230247
  9
$TDUPDATE
 40
2458994.0274999998509884
  9
$TDINDWG
 40
0.3051112269
  9
$TDUSRTIMER
 40
0.3051112269
  9
$USRTIMER
 70
     1
  9
$ANGBASE
 50
0.0
  9
$ANGDIR
 70
     0
  9
$PDMODE
 70
     0
  9
$PDSIZE
 40
0.3125
  9
$PLINEWID
 40
0.0
  9
$COORDS
 70
     1
  9
$SPLFRAME
 70
     0
  9
$SPLINETYPE
 70
     6
  9
$SPLINESEGS
 70
     8
  9
$ATTDIA
 70
     1
  9
$ATTREQ
 70
     1
  9
$HANDLING
 70
     1
  9
$HANDSEED
  5
6EB0
  9
$SURFTAB1
 70
     6
  9
$SURFTAB2
 70
     6
  9
$SURFTYPE
 70
     6
  9
$SURFU
 70
     6
  9
$SURFV
 70
     6
  9
$UCSNAME
  2

  9
$UCSORG
 10
0.0
 20
0.0
 30
0.0
  9
$UCSXDIR
 10
1.0
 20
0.0
 30
0.0
  9
$UCSYDIR
 10
0.0
 20
1.0
 30
0.0
  9
$PUCSNAME
  2

  9
$PUCSORG
 10
0.0
 20
0.0
 30
0.0
  9
$PUCSXDIR
 10
1.0
 20
0.0
 30
0.0
  9
$PUCSYDIR
 10
0.0
 20
1.0
 30
0.0
  9
$USERI1
 70
     0
  9
$USERI2
 70
     0
  9
$USERI3
 70
     0
  9
$USERI4
 70
     0
  9
$USERI5
 70
     0
  9
$USERR1
 40
0.0
  9
$USERR2
 40
0.0
  9
$USERR3
 40
0.0
  9
$USERR4
 40
0.0
  9
$USERR5
 40
0.0
  9
$WORLDVIEW
 70
     1
  9
$SHADEDGE
 70
     3
  9
$SHADEDIF
 70
    70
  9
$TILEMODE
 70
     1
  9
$MAXACTVP
 70
    64
  9
$PLIMCHECK
 70
     0
  9
$PEXTMIN
 10
1.0000000000000000E+20
 20
1.0000000000000000E+20
 30
1.0000000000000000E+20
  9
$PEXTMAX
 10
-1.0000000000000000E+20
 20
-1.0000000000000000E+20
 30
-1.0000000000000000E+20
  9
$PLIMMIN
 10
0.0
 20
0.0
  9
$PLIMMAX
 10
12.0
 20
9.0
  9
$UNITMODE
 70
     0
  9
$VISRETAIN
 70
     1
  9
$PLINEGEN
 70
     0
  9
$PSLTSCALE
 70
     1
  0
ENDSEC
  0
SECTION
  2
TABLES
  0
TABLE
  2
VPORT
 70
     1
  0
VPORT
  2
*ACTIVE
 70
     0
 10
0.0
 20
0.0
 11
1.0
 21
1.0
 12
0.0
 22
0.0
 13
0.0
 23
0.0
 14
1.0
 24
1.0
 15
0.0
 25
0.0
 16
0.0
 26
0.0
 36
122.4932094275637979
 17
4235.16064453125
 27
215.2851179545629066
 37
0.0
 40
32.731108461670992
 41
2.9513274336283182
 42
50.0
 43
0.0
 44
0.0
 50
0.0
 51
0.0
 71
     0
 72
   100
 73
     1
 74
     1
 75
     0
 76
     0
 77
     0
 78
     0
  0
ENDTAB
  0
TABLE
  2
LTYPE
 70
     2
  0
LTYPE
  2
CONTINUOUS
 70
     0
  3
Solid line
 72
    65
 73
     0
 40
0.0
  0
LTYPE
  2
PHANTOM2
 70
     0
  3
___ _ _ ___ _ _ ___ _ _ ___ _ _
 72
    65
 73
     6
 40
1.25
 49
0.625
 49
-0.125
 49
0.125
 49
-0.125
 49
0.125
 49
-0.125
  0
ENDTAB
  0
TABLE
  2
LAYER
 70
     2
  0
LAYER
  2
0
 70
     0
 62
   255
  6
CONTINUOUS
  0
LAYER
  2
DEFPOINTS
 70
     0
 62
     7
  6
CONTINUOUS
  0
ENDTAB
  0
TABLE
  2
STYLE
 70
     1
  0
STYLE
  2
STANDARD
 70
     0
 40
0.0
 41
0.8
 50
0.0
 71
     0
 42
0.2
  3
txt
  4

  0
ENDTAB
  0
TABLE
  2
VIEW
 70
     0
  0
ENDTAB
  0
TABLE
  2
UCS
 70
     0
  0
ENDTAB
  0
TABLE
  2
APPID
 70
     9
  0
APPID
  2
ACAD
 70
     0
  0
APPID
  2
ACAD_MLEADERVER
 70
     0
  0
APPID
  2
ACAD_EXEMPT_FROM_CAD_STANDARDS
 70
     0
  0
APPID
  2
ACAD_NAV_VCDISPLAY
 70
     0
  0
APPID
  2
ACAECLAYERSTANDARD
 70
     0
  0
APPID
  2
ACCMTRANSPARENCY
 70
     0
  0
APPID
  2
ACAD_DSTYLE_DIMJAG
 70
     0
  0
APPID
  2
ACAD_DSTYLE_DIMTALN
 70
     0
  0
APPID
  2
ACDBATTR
 70
     0
  0
ENDTAB
  0
TABLE
  2
DIMSTYLE
 70
     1
  0
DIMSTYLE
  2
STANDARD
 70
     0
  3

  4

  5

  6

  7

 40
1.0
 41
0.1875
 42
0.0625
 43
0.38
 44
0.125
 45
0.0
 46
0.0
 47
0.01
 48
0.01
140
0.15625
141
0.09
142
0.0
143
25.3999999999999986
144
1.0
145
0.0
146
1.0
147
0.09
 71
     1
 72
     0
 73
     1
 74
     1
 75
     0
 76
     0
 77
     0
 78
     4
170
     0
171
     2
172
     0
173
     0
174
     0
175
     0
176
     0
177
     0
178
     0
  0
ENDTAB
  0
ENDSEC
  0
SECTION
  2
BLOCKS
  0
BLOCK
  8
0
  2
$MODEL_SPACE
 70
     0
 10
0.0
 20
0.0
 30
0.0
  3
$MODEL_SPACE
  1

  0
ENDBLK
  5
21
  8
0
  0
BLOCK
 67
     1
  8
0
  2
$PAPER_SPACE
 70
     0
 10
0.0
 20
0.0
 30
0.0
  3
$PAPER_SPACE
  1

  0
ENDBLK
  5
1D
 67
     1
  8
0
  0
ENDSEC
  0
SECTION
  2
ENTITIES
  0
ATTDEF
  5
3930
  8
DEFPOINTS
 10
4235.1562429133400656
 20
200.8064336223418138
 30
0.0
 40
0.001
  1
402324
  3

  2
MODELNUMBER
 70
     0
1001
ACDBATTR
1070
     0
1070
     1
  0
ATTDEF
  5
3931
  8
DEFPOINTS
 10
4235.1562429133400656
 20
200.8047669556752055
 30
0.0
 40
0.001
  1
WINDHAM
  3

  2
TRADENAME
 70
     0
1001
ACDBATTR
1070
     0
1070
     1
  0
ATTDEF
  5
3932
  8
DEFPOINTS
 10
4235.1562429133400656
 20
200.8031002890085119
 30
0.0
 40
0.001
  1
TOILET
  3

  2
PRODUCT
 70
     0
1001
ACDBATTR
1070
     0
1070
     1
  0
LINE
  5
6D39
  8
0
 10
4240.30054622607895
 20
200.8084897918797083
 30
0.0
 11
4230.0204612897250627
 21
200.8084897918797083
 31
0.0
  0
LINE
  5
6D3A
  8
0
 10
4228.4467329528006303
 20
226.8134765524553984
 30
0.0
 11
4228.4833606716338181
 21
226.8627574822058079
 31
0.0
  0
LINE
  5
6D3B
  8
0
 10
4228.5879593097242832
 20
217.4343031595462037
 30
0.0
 11
4228.1970906271972126
 21
228.4270724690796897
 31
0.0
  0
LINE
  5
6D3C
  8
0
 10
4242.1028695536024316
 20
215.7970724690796942
 30
0.0
 11
4228.2181379622006716
 21
215.7970724690796942
 31
0.0
  0
LINE
  5
6D3D
  8
0
 10
4229.2372965842023405
 20
226.7698636093554114
 30
0.0
 11
4228.531706114701592
 21
226.8825209897553918
 31
0.0
  0
LINE
  5
6D3E
  8
0
 10
4229.1318301278015497
 20
226.7122929210553934
 30
0.0
 11
4228.494526101100746
 21
226.8324828909553901
 31
0.0
  0
LINE
  5
6D3F
  8
0
 10
4227.8336872491008762
 20
228.4270724690796897
 30
0.0
 11
4242.4873202667022269
 21
228.4270724690796897
 31
0.0
  0
ARC
  5
6D40
  8
0
 10
4227.8454170730228725
 20
228.5485017732272013
 30
0.0
 40
0.1219945272336887
 50
183.7629011985040108
 51
264.4824633677632164
  0
ARC
  5
6D41
  8
0
 10
4228.5539468811020924
 20
226.7446760574553934
 30
0.0
 40
0.099997479
 50
200.094866203405104
 51
247.951869012213109
  0
ARC
  5
6D42
  8
0
 10
4230.0495210680446689
 20
200.9677653581017864
 30
0.0
 40
0.1619048384434258
 50
176.715161697993608
 51
259.6601323002280992
  0
ARC
  5
6D43
  8
0
 10
4230.3578035451500909
 20
201.3836728813967909
 30
0.0
 40
0.3932233797300327
 50
144.7699177818979024
 51
170.2656156946040937
  0
ARC
  5
6D44
  8
0
 10
4359.857986635324778
 20
178.5957691937074117
 30
0.0
 40
131.8830900124667096
 50
170.0206749595672022
 51
170.2293088350135122
  0
ARC
  5
6D45
  8
0
 10
4123.6372970238835478
 20
221.6795096305980053
 30
0.0
 40
108.2754678692697041
 50
349.3183839175584922
 51
353.1506368511281266
  0
ARC
  5
6D46
  8
0
 10
4228.2770036938281919
 20
215.4129931634352033
 30
0.0
 40
0.3885641354837128
 50
98.7136049550795178
 51
151.426920082887392
  0
ARC
  5
6D47
  8
0
 10
4232.6854852923770522
 20
213.6351402161845101
 30
0.0
 40
5.1396453467190488
 50
157.5381483400051934
 51
202.4742660791619073
  0
ARC
  5
6D48
  8
0
 10
4235.3352389179563033
 20
228.3935974106242099
 30
0.0
 40
7.612970761007376
 50
171.9160898648501075
 51
178.8943652324336995
  0
ARC
  5
6D49
  8
0
 10
4228.0952189263316541
 20
229.3983151005371042
 30
0.0
 40
0.3045058232315622
 50
96.36210958531899
 51
167.5124211915174897
  0
ARC
  5
6D4A
  8
0
 10
4236.0705238227756126
 20
-248.6028569726234139
 30
0.0
 40
478.370852373178991
 50
90.1089956467693867
 51
90.9593102717838207
  0
ARC
  5
6D4B
  8
0
 10
4228.5293896621524254
 20
226.8191744850905991
 30
0.0
 40
0.0633888444891305
 50
87.9057432937927672
 51
136.5635219515363019
  0
ARC
  5
6D4C
  8
0
 10
4228.4881998503324212
 20
226.7830221183573087
 30
0.0
 40
0.051448772065271
 50
143.7054123946921038
 51
200.3186935499107904
  0
ARC
  5
6D4D
  8
0
 10
4624.7903678461261734
 20
371.8976401248989987
 30
0.0
 40
422.0865900019036872
 50
200.1113235075887076
 51
200.1192509429398001
  0
ARC
  5
6D4E
  8
0
 10
4230.2142234399207155
 20
230.9075879073056967
 30
0.0
 40
4.5817762463851759
 50
248.249961210935794
 51
270.3058333129845892
  0
ARC
  5
6D4F
  8
0
 10
4230.2169946030226129
 20
226.9855468217945997
 30
0.0
 40
0.6600262231650768
 50
271.8828052727105842
 51
76.7512478276942858
  0
ARC
  5
6D50
  8
0
 10
4230.226132632657027
 20
226.9649584394165061
 30
0.0
 40
0.6781090427993933
 50
77.901555106090882
 51
129.2438364699206943
  0
ARC
  5
6D51
  8
0
 10
4230.1246248411462147
 20
226.9672542347406079
 30
0.0
 40
0.6169591790108104
 50
122.0591936136517006
 51
177.8738357152155913
  0
ARC
  5
6D52
  8
0
 10
4229.2925686024937022
 20
226.9785024454012046
 30
0.0
 40
0.2158359560234067
 50
255.1622053081669037
 51
3.0917199308618102
  0
ARC
  5
6D53
  8
0
 10
4229.1924775063989728
 20
227.0256948658995952
 30
0.0
 40
0.3192160452777782
 50
259.0478867481098177
 51
317.7507784860890183
  0
ARC
  5
6D54
  8
0
 10
4228.4903106489409765
 20
226.7734897696080907
 30
0.0
 40
0.0591435406720412
 50
85.9127813141625154
 51
137.4605870613823981
  0
ARC
  5
6D55
  8
0
 10
4230.0999498883520573
 20
226.9391140502058875
 30
0.0
 40
0.6287334761151328
 50
282.7472126705193887
 51
118.7905690077175933
  0
CIRCLE
  5
6D56
  8
0
 10
4230.0984420516006139
 20
226.9554385319553944
 30
0.0
 40
0.0068795867188006
  0
CIRCLE
  5
6D57
  8
0
 10
4230.0984420516006139
 20
226.9554385319553944
 30
0.0
 40
0.011920178799997
  0
CIRCLE
  5
6D58
  8
0
 10
4230.0984420516006139
 20
226.9554385319553944
 30
0.0
 40
0.0268962972183166
  0
CIRCLE
  5
6D59
  8
0
 10
4230.0984420516006139
 20
226.9554385319553944
 30
0.0
 40
0.0318959939232009
  0
CIRCLE
  5
6D5A
  8
0
 10
4230.0984420516006139
 20
226.9554385319553944
 30
0.0
 40
0.0468823371534512
  0
CIRCLE
  5
6D5B
  8
0
 10
4230.0984420516006139
 20
226.9554385319553944
 30
0.0
 40
0.0518754262999988
  0
CIRCLE
  5
6D5C
  8
0
 10
4230.0984420516006139
 20
226.9554385319553944
 30
0.0
 40
0.0668567830279125
  0
CIRCLE
  5
6D5D
  8
0
 10
4230.0984420516006139
 20
226.9554385319553944
 30
0.0
 40
0.0718481446453307
  0
CIRCLE
  5
6D5E
  8
0
 10
4230.0984420516006139
 20
226.9554385319553944
 30
0.0
 40
0.0868332162536625
  0
CIRCLE
  5
6D5F
  8
0
 10
4230.0984420516006139
 20
226.9554385319553944
 30
0.0
 40
0.0918341244835835
  0
CIRCLE
  5
6D60
  8
0
 10
4230.0984420516006139
 20
226.9554385319553944
 30
0.0
 40
0.1068101356795194
  0
CIRCLE
  5
6D61
  8
0
 10
4230.0984420516006139
 20
226.9554385319553944
 30
0.0
 40
0.1118094679834897
  0
CIRCLE
  5
6D62
  8
0
 10
4230.0984420516006139
 20
226.9554385319553944
 30
0.0
 40
0.1267864952521567
  0
CIRCLE
  5
6D63
  8
0
 10
4230.0984420516006139
 20
226.9554385319553944
 30
0.0
 40
0.1317913066523442
  0
CIRCLE
  5
6D64
  8
0
 10
4230.0984420516006139
 20
226.9554385319553944
 30
0.0
 40
0.1467805631624419
  0
CIRCLE
  5
6D65
  8
0
 10
4230.0984420516006139
 20
226.9554385319553944
 30
0.0
 40
0.1517602367721062
  0
CIRCLE
  5
6D66
  8
0
 10
4230.0984420516006139
 20
226.9554385319553944
 30
0.0
 40
0.1667039510298398
  0
CIRCLE
  5
6D67
  8
0
 10
4230.0984420516006139
 20
226.9554385319553944
 30
0.0
 40
0.1717411685999952
  0
CIRCLE
  5
6D68
  8
0
 10
4230.0984420516006139
 20
226.9554385319553944
 30
0.0
 40
0.1866995186366349
  0
CIRCLE
  5
6D69
  8
0
 10
4230.0984420516006139
 20
226.9554385319553944
 30
0.0
 40
0.1917109926792014
  0
CIRCLE
  5
6D6A
  8
0
 10
4230.0984420516006139
 20
226.9554385319553944
 30
0.0
 40
0.2067023009495408
  0
CIRCLE
  5
6D6B
  8
0
 10
4230.0984420516006139
 20
226.9554385319553944
 30
0.0
 40
0.2116771480201529
  0
CIRCLE
  5
6D6C
  8
0
 10
4230.0984420516006139
 20
226.9554385319553944
 30
0.0
 40
0.2266449115772271
  0
CIRCLE
  5
6D6D
  8
0
 10
4230.0984420516006139
 20
226.9554385319553944
 30
0.0
 40
0.2316631968869347
  0
ARC
  5
6D6E
  8
0
 10
4231.0009065076510524
 20
208.7945433888826017
 30
0.0
 40
0.1418810360240158
 50
348.658208137254519
 51
65.1938260707576944
  0
ARC
  5
6D6F
  8
0
 10
4231.0599498301598942
 20
209.0175652522501082
 30
0.0
 40
0.0942331048298925
 50
270.2935856162213213
 51
330.8866265321278206
  0
ARC
  5
6D70
  8
0
 10
4232.5412805815858519
 20
208.0426330332321925
 30
0.0
 40
1.679406794656509
 50
116.6742568829931059
 51
146.4116900540952031
  0
ARC
  5
6D71
  8
0
 10
4232.9420043666714264
 20
207.2587339085879989
 30
0.0
 40
2.5597774063306229
 50
89.4443597893109228
 51
116.8123595569256992
  0
ARC
  5
6D72
  8
0
 10
4235.4970163204889104
 20
102.8971843943965041
 30
0.0
 40
106.9511396072135057
 50
90.1802765400577755
 51
91.3555969118354341
  0
ARC
  5
6D73
  8
0
 10
4232.8509848977746515
 20
214.1098541513896123
 30
0.0
 40
5.486900300116039
 50
206.3973099405932885
 51
250.953694863764099
  0
LINE
  5
6D74
  8
0
 10
4241.7330482060788199
 20
217.4343031595462037
 30
0.0
 11
4242.1239168886077096
 21
228.4270724690796897
 31
0.0
  0
ARC
  5
6D75
  8
0
 10
4242.4755904427802307
 20
228.5485017732272013
 30
0.0
 40
0.1219945272336887
 50
275.5175366322367267
 51
356.2370988014959039
  0
ARC
  5
6D76
  8
0
 10
4240.2714864477593437
 20
200.9677653581017864
 30
0.0
 40
0.1619048384434258
 50
280.3398676997720145
 51
3.2848383020064031
  0
ARC
  5
6D77
  8
0
 10
4239.9632039706539217
 20
201.3836728813967909
 30
0.0
 40
0.3932233797300327
 50
9.7343843053958672
 51
35.2300822181020976
  0
ARC
  5
6D78
  8
0
 10
4110.4630208804783251
 20
178.5957691937074117
 30
0.0
 40
131.8830900124667096
 50
9.7706911649864363
 51
9.979325040432796
  0
ARC
  5
6D79
  8
0
 10
4346.6837104919195554
 20
221.6795096305980053
 30
0.0
 40
108.2754678692697041
 50
186.8493631488719018
 51
190.6816160824415078
  0
ARC
  5
6D7A
  8
0
 10
4242.0440038219758208
 20
215.4129931634352033
 30
0.0
 40
0.3885641354837128
 50
28.5730799171125405
 51
81.2863950449204964
  0
ARC
  5
6D7B
  8
0
 10
4237.6355222234260509
 20
213.6351402161845101
 30
0.0
 40
5.1396453467190488
 50
337.5257339208380927
 51
22.4618516599947711
  0
ARC
  5
6D7C
  8
0
 10
4234.9857685978467998
 20
228.3935974106242099
 30
0.0
 40
7.612970761007376
 50
1.105634767566281
 51
8.0839101351498908
  0
ARC
  5
6D7D
  8
0
 10
4242.2257885894714491
 20
229.3983151005371042
 30
0.0
 40
0.3045058232315622
 50
12.4875788084824801
 51
83.6378904146292399
  0
ARC
  5
6D7E
  8
0
 10
4234.2504836930284
 20
-248.6028569726263981
 30
0.0
 40
478.3708523731820037
 50
89.0406897282161651
 51
89.891004353282753
  0
ARC
  5
6D7F
  8
0
 10
4239.3201010081520508
 20
208.7945433888826017
 30
0.0
 40
0.1418810360240158
 50
114.8061739292423056
 51
191.3417918627438041
  0
ARC
  5
6D80
  8
0
 10
4239.2610576856441185
 20
209.0175652522501082
 30
0.0
 40
0.0942331048298925
 50
209.1133734678720941
 51
269.7064143837266101
  0
ARC
  5
6D81
  8
0
 10
4237.7797269342172513
 20
208.0426330332321925
 30
0.0
 40
1.679406794656509
 50
33.5883099459047614
 51
63.325743117006887
  0
ARC
  5
6D82
  8
0
 10
4237.3790031491344052
 20
207.2587339085879989
 30
0.0
 40
2.5597774063306229
 50
63.1876404430743008
 51
90.5556402106891056
  0
ARC
  5
6D83
  8
0
 10
4234.8239911953151022
 20
102.8971843943965041
 30
0.0
 40
106.9511396072135057
 50
88.6444030881645944
 51
89.8197234599422529
  0
ARC
  5
6D84
  8
0
 10
4237.4700226180293612
 20
214.1098541513896123
 30
0.0
 40
5.486900300116039
 50
289.046305136235901
 51
333.6026900594067115
  0
LINE
  5
6D86
  8
0
 10
4228.5951998072396236
 20
217.0600554725797906
 30
0.0
 11
4228.6007201162019555
 21
216.9057268547796866
 31
0.0
  0
LINE
  5
6D87
  8
0
 10
4228.0704687482020745
 20
216.182055472579691
 30
0.0
 11
4228.0704687482020745
 21
216.1561613828797022
 31
0.0
  0
LINE
  5
6D88
  8
0
 10
4228.3247671518993229
 20
217.135055472579694
 30
0.0
 11
4228.3247671518993229
 21
217.1150554749796981
 31
0.0
  0
LINE
  5
6D89
  8
0
 10
4228.3766853784009072
 20
217.3289036263797129
 30
0.0
 11
4228.3247671518993229
 21
217.135055472579694
 31
0.0
  0
LINE
  5
6D8A
  8
0
 10
4228.0704687482020745
 20
216.182055472579691
 30
0.0
 11
4228.2147192662023372
 21
216.7204057681796883
 31
0.0
  0
LINE
  5
6D8B
  8
0
 10
4229.3721886114017252
 20
216.9765659215796916
 30
0.0
 11
4229.3718838972017693
 21
216.9835450235796941
 31
0.0
  0
LINE
  5
6D8C
  8
0
 10
4230.1538696481020452
 20
216.9765659215796916
 30
0.0
 11
4230.1575148806023208
 21
217.0600554725797906
 31
0.0
  0
LINE
  5
6D8D
  8
0
 10
4231.6363199717652606
 20
217.0600554725797906
 30
0.0
 11
4231.6367659509951409
 21
216.9965780500143069
 31
0.0
  0
LINE
  5
6D8E
  8
0
 10
4228.8731365354024092
 20
215.8575744725796994
 30
0.0
 11
4230.290106596203259
 21
215.8575744725796994
 31
0.0
  0
LINE
  5
6D8F
  8
0
 10
4231.0847515507057324
 20
216.9545357874796991
 30
0.0
 11
4231.1176331799642867
 21
216.9545357874796991
 31
0.0
  0
LINE
  5
6D90
  8
0
 10
4228.9832075368021833
 20
216.960055472579711
 30
0.0
 11
4229.3745905405503436
 21
216.960055472579711
 31
0.0
  0
ARC
  5
6D91
  8
0
 10
4228.9922931173969118
 20
217.0536706793834014
 30
0.0
 40
0.0940550621692797
 50
207.6274095039539134
 51
264.4566680517140185
  0
ARC
  5
6D92
  8
0
 10
4229.4506722576334141
 20
216.9795537302497053
 30
0.0
 40
0.0785404973651321
 50
182.1801509947856914
 51
250.0490076946537101
  0
ARC
  5
6D93
  8
0
 10
4228.8305715328524457
 20
216.9737835845153029
 30
0.0
 40
0.0863754680810178
 50
24.8303419508343914
 51
87.1937663969091545
  0
ARC
  5
6D94
  8
0
 10
4229.2919604215312575
 20
216.9800558716517003
 30
0.0
 40
0.0799996009280788
 50
2.4997263910785619
 51
90.0000057963747508
  0
ARC
  5
6D95
  8
0
 10
4228.1241118048092176
 20
216.1597394874561928
 30
0.0
 40
0.0537622577138067
 50
183.8160960804981983
 51
265.1526141257228915
  0
ARC
  5
6D96
  8
0
 10
4230.0762339074190095
 20
216.9792508320043112
 30
0.0
 40
0.0776821535193126
 50
288.8315034143362254
 51
358.0193046513725221
  0
ARC
  5
6D97
  8
0
 10
4230.6384683642290838
 20
215.9152458737057998
 30
0.0
 40
0.1184385568488823
 50
191.8091691528204876
 51
266.1654026434583784
  0
LINE
  5
6D98
  8
0
 10
4231.1183319041010691
 20
217.0600554725797906
 30
0.0
 11
4231.1173099798015755
 21
216.9057268547796866
 31
0.0
  0
LINE
  5
6D99
  8
0
 10
4231.6084627485015517
 20
217.0600554725797906
 30
0.0
 11
4231.6082364201020027
 21
217.0270116417796942
 31
0.0
  0
LINE
  5
6D9A
  8
0
 10
4231.0843208435017004
 20
216.9057268547796866
 30
0.0
 11
4231.0851983056018071
 21
217.0051632890796895
 31
0.0
  0
LINE
  5
6D9B
  8
0
 10
4228.1195687890021873
 20
216.1061695204797104
 30
0.0
 11
4242.2014387268018254
 21
216.1061695204797104
 31
0.0
  0
ARC
  5
6D9C
  8
0
 10
4228.443167082617947
 20
215.7839790550438863
 30
0.0
 40
0.3401541499679149
 50
26.9776120012348706
 51
71.2963009917098276
  0
ARC
  5
6D9D
  8
0
 10
4228.8852623574630343
 20
216.0166329226051971
 30
0.0
 40
0.1595199864756245
 50
209.4150874705817955
 51
265.6404882972711903
  0
ARC
  5
6D9E
  8
0
 10
4230.2679857729572177
 20
215.8482313410590905
 30
0.0
 40
0.2581199136460377
 50
9.5390925836907883
 51
87.8498402829317655
  0
ARC
  5
6D9F
  8
0
 10
4230.2814157550483287
 20
216.018322440058796
 30
0.0
 40
0.1609827312745706
 50
273.094684202540293
 51
312.3662049961283742
  0
ARC
  5
6DA0
  8
0
 10
4230.6144183830701877
 20
215.6725696634624114
 30
0.0
 40
0.3191439764576584
 50
111.7569412155118016
 51
134.7094831659684075
  0
ARC
  5
6DA1
  8
0
 10
4231.8227490841536564
 20
215.9100212978696902
 30
0.0
 40
0.1139844197494063
 50
277.7292680486451104
 51
346.2531853733603953
  0
ARC
  5
6DA2
  8
0
 10
4232.157218390268099
 20
215.8402489738924999
 30
0.0
 40
0.2277852684290867
 50
121.3880464605342979
 51
169.1991580805724027
  0
ARC
  5
6DA3
  8
0
 10
4236.4754979455401553
 20
102.5469912443837046
 30
0.0
 40
113.5744085606133069
 50
90.9383314004800098
 51
92.2388964758475254
  0
LINE
  5
6DA4
  8
0
 10
4228.4603496459021699
 20
216.9057268547796866
 30
0.0
 11
4241.8606578699018428
 21
216.9057268547796866
 31
0.0
  0
ARC
  5
6DA5
  8
0
 10
4228.5080581835618432
 20
216.5870488155510998
 30
0.0
 40
0.3222294171118358
 50
98.5143826030685972
 51
155.5526327640428121
  0
LINE
  5
6DA6
  8
0
 10
4228.3797295088006649
 20
217.0600554725797906
 30
0.0
 11
4241.9412780070033477
 21
217.0600554725799043
 31
0.0
  0
ARC
  5
6DA7
  8
0
 10
4228.3850614167113235
 20
217.1203461007789031
 30
0.0
 40
0.060525937337723
 50
185.0146746278439878
 51
264.9460950741724901
  0
ARC
  5
6DA8
  8
0
 10
4228.4374950082956275
 20
217.3077076550370066
 30
0.0
 40
0.0643978282939014
 50
114.9249333262768999
 51
160.7833486016886866
  0
ARC
  5
6DA9
  8
0
 10
4231.0293436164893137
 20
217.7581175808410876
 30
0.0
 40
0.2305655229533828
 50
95.4313138468886137
 51
116.3497499410808018
  0
ARC
  5
6DAA
  8
0
 10
4229.7093803900097555
 20
225.8661747307149028
 30
0.0
 40
7.9947158116365733
 50
272.916925166826104
 51
278.7604678804210039
  0
ARC
  5
6DAB
  8
0
 10
4230.4112358485836012
 20
213.0979899659471073
 30
0.0
 40
4.792915552383314
 50
93.5289861041543702
 51
99.7721644947350939
  0
ARC
  5
6DAC
  8
0
 10
4622.8743032861293614
 20
-809.6801991532952343
 30
0.0
 40
1100.1935838331519335
 50
110.944364252611507
 51
111.0105895906535949
  0
ARC
  5
6DAD
  8
0
 10
4231.1734253887625528
 20
216.9932053817935014
 30
0.0
 40
0.0890337562372019
 50
131.336820608553893
 51
172.2814181714105928
  0
LINE
  5
6DAE
  8
0
 10
4231.6568702951008163
 20
216.9925010339796927
 30
0.0
 11
4238.6641372207050154
 21
216.9925010339796927
 31
0.0
  0
ARC
  5
6DAF
  8
0
 10
4231.6568466187209197
 20
217.0439914759982969
 30
0.0
 40
0.0514904474620232
 50
199.2546148961374115
 51
270.02634579495151
  0
LINE
  5
6DB0
  8
0
 10
4228.4103557999242184
 20
217.3661075151221098
 30
0.0
 11
4241.9106517158797942
 21
217.3661075151221098
 31
0.0
  0
ARC
  5
6DB1
  8
0
 10
4063.0935930004911825
 20
1930.8446174015609813
 30
0.0
 40
1721.8909454720781014
 50
275.5618453980118261
 51
275.6061203471617773
  0
ARC
  5
6DB2
  8
0
 10
4237.0830434897934538
 20
60.3942641041969921
 30
0.0
 40
156.9017356515201129
 50
90.7020710683107154
 51
92.1108980028218269
  0
ARC
  5
6DB3
  8
0
 10
4229.6277673806098392
 20
217.8111732910327021
 30
0.0
 40
0.0317178684292112
 50
161.2616024047675012
 51
215.6096259440857068
  0
ARC
  5
6DB4
  8
0
 10
4230.0089378081338509
 20
218.9358528815423028
 30
0.0
 40
1.2134251555002229
 50
250.4044219945421048
 51
266.1339676485883956
  0
ARC
  5
6DB5
  8
0
 10
4233.4338778224910129
 20
258.988636369680421
 30
0.0
 40
41.4121891917269807
 50
265.1424183709103772
 51
269.2130079895899257
  0
ARC
  5
6DB6
  8
0
 10
4235.262897331579552
 20
331.9617931172475096
 30
0.0
 40
114.4065699397844043
 50
268.7990620117092817
 51
269.9487204239471225
  0
LINE
  5
6DB7
  8
0
 10
4241.725807708564389
 20
217.0600554725797906
 30
0.0
 11
4241.7202873996011476
 21
216.9057268547796866
 31
0.0
  0
LINE
  5
6DB8
  8
0
 10
4242.2505387676019382
 20
216.182055472579691
 30
0.0
 11
4242.2505387676019382
 21
216.1561613828797022
 31
0.0
  0
LINE
  5
6DB9
  8
0
 10
4241.9962403639037802
 20
217.135055472579694
 30
0.0
 11
4241.9962403639037802
 21
217.1150554749796981
 31
0.0
  0
LINE
  5
6DBA
  8
0
 10
4241.9443221374021959
 20
217.3289036263797129
 30
0.0
 11
4241.9962403639037802
 21
217.135055472579694
 31
0.0
  0
LINE
  5
6DBB
  8
0
 10
4242.2505387676019382
 20
216.182055472579691
 30
0.0
 11
4242.106288249600766
 21
216.7204057681796883
 31
0.0
  0
LINE
  5
6DBC
  8
0
 10
4240.9488189044022874
 20
216.9765659215796916
 30
0.0
 11
4240.9491236186022434
 21
216.9835450235796941
 31
0.0
  0
LINE
  5
6DBD
  8
0
 10
4240.1671378677019675
 20
216.9765659215796916
 30
0.0
 11
4240.1634926352007824
 21
217.0600554725797906
 31
0.0
  0
LINE
  5
6DBE
  8
0
 10
4238.6846875440387521
 20
217.0600554725797906
 30
0.0
 11
4238.6842415648088718
 21
216.9965780500143069
 31
0.0
  0
LINE
  5
6DBF
  8
0
 10
4241.447870980400694
 20
215.8575744725796994
 30
0.0
 11
4240.0309009196007537
 21
215.8575744725796994
 31
0.0
  0
LINE
  5
6DC0
  8
0
 10
4239.2362559650982803
 20
216.9545357874796991
 30
0.0
 11
4239.2033743358388165
 21
216.9545357874796991
 31
0.0
  0
LINE
  5
6DC1
  8
0
 10
4241.3377999790018293
 20
216.960055472579711
 30
0.0
 11
4240.9464169752536691
 21
216.960055472579711
 31
0.0
  0
ARC
  5
6DC2
  8
0
 10
4241.3287143984061913
 20
217.0536706793834014
 30
0.0
 40
0.0940550621692797
 50
275.5433319482860952
 51
332.3725904960460866
  0
ARC
  5
6DC3
  8
0
 10
4240.870335258169689
 20
216.9795537302497053
 30
0.0
 40
0.0785404973651321
 50
289.9509923053461762
 51
357.8198490052142233
  0
ARC
  5
6DC4
  8
0
 10
4241.490435982951567
 20
216.9737835845153029
 30
0.0
 40
0.0863754680810178
 50
92.8062336030908455
 51
155.169658049165605
  0
ARC
  5
6DC5
  8
0
 10
4241.0290470942718457
 20
216.9800558716517003
 30
0.0
 40
0.0799996009280788
 50
89.9999942036252492
 51
177.5002736089213897
  0
ARC
  5
6DC6
  8
0
 10
4242.1968957109947951
 20
216.1597394874561928
 30
0.0
 40
0.0537622577138067
 50
274.8473858742768812
 51
356.1839039195000964
  0
ARC
  5
6DC7
  8
0
 10
4240.2447736083850032
 20
216.9792508320043112
 30
0.0
 40
0.0776821535193126
 50
181.9806953486273926
 51
251.168496585663803
  0
ARC
  5
6DC8
  8
0
 10
4239.6825391515758383
 20
215.9152458737057998
 30
0.0
 40
0.1184385568488823
 50
273.8345973565415079
 51
348.1908308471794271
  0
LINE
  5
6DC9
  8
0
 10
4239.2026756117020341
 20
217.0600554725797906
 30
0.0
 11
4239.2036975360033466
 21
216.9057268547796866
 31
0.0
  0
LINE
  5
6DCA
  8
0
 10
4238.712544767300642
 20
217.0600554725797906
 30
0.0
 11
4238.7127710957020099
 21
217.0270116417796942
 31
0.0
  0
LINE
  5
6DCB
  8
0
 10
4239.2366866723023122
 20
216.9057268547796866
 30
0.0
 11
4239.2358092102022056
 21
217.0051632890796895
 31
0.0
  0
ARC
  5
6DCC
  8
0
 10
4241.8778404331851561
 20
215.7839790550438863
 30
0.0
 40
0.3401541499679149
 50
108.7036990082902008
 51
153.0223879987651117
  0
ARC
  5
6DCD
  8
0
 10
4241.4357451583409784
 20
216.0166329226051971
 30
0.0
 40
0.1595199864756245
 50
274.3595117027288097
 51
330.5849125294182045
  0
ARC
  5
6DCE
  8
0
 10
4240.0530217428477044
 20
215.8482313410590905
 30
0.0
 40
0.2581199136460377
 50
92.1501597170682345
 51
170.4609074163091975
  0
ARC
  5
6DCF
  8
0
 10
4240.0395917607556839
 20
216.018322440058796
 30
0.0
 40
0.1609827312745706
 50
227.6337950038715974
 51
266.9053157974598207
  0
ARC
  5
6DD0
  8
0
 10
4239.7065891327329155
 20
215.6725696634624114
 30
0.0
 40
0.3191439764576584
 50
45.2905168340315996
 51
68.2430587844881273
  0
ARC
  5
6DD1
  8
0
 10
4238.4982584316503562
 20
215.9100212978696902
 30
0.0
 40
0.1139844197494063
 50
193.7468146266396047
 51
262.2707319513548896
  0
ARC
  5
6DD2
  8
0
 10
4238.1637891255350041
 20
215.8402489738924999
 30
0.0
 40
0.2277852684290867
 50
10.8008419194275405
 51
58.6119535394622915
  0
ARC
  5
6DD3
  8
0
 10
4233.8455095702638573
 20
102.5469912443837046
 30
0.0
 40
113.5744085606133069
 50
87.7611035241524746
 51
89.0616685995200044
  0
ARC
  5
6DD4
  8
0
 10
4241.8129493322421695
 20
216.5870488155510998
 30
0.0
 40
0.3222294171118358
 50
24.4473672359571488
 51
81.485617396931417
  0
ARC
  5
6DD5
  8
0
 10
4241.9359460990917796
 20
217.1203461007789031
 30
0.0
 40
0.060525937337723
 50
275.0539049258275099
 51
354.9853253721558985
  0
ARC
  5
6DD6
  8
0
 10
4241.8835125075083852
 20
217.3077076550370066
 30
0.0
 40
0.0643978282939014
 50
19.2166513983113205
 51
65.0750666737230716
  0
ARC
  5
6DD7
  8
0
 10
4239.2916638993137894
 20
217.7581175808410876
 30
0.0
 40
0.2305655229533828
 50
63.6502500589192266
 51
84.5686861531114147
  0
ARC
  5
6DD8
  8
0
 10
4240.6116271257933477
 20
225.8661747307149028
 30
0.0
 40
7.9947158116365733
 50
261.2395321195789961
 51
267.0830748331737823
  0
ARC
  5
6DD9
  8
0
 10
4239.9097716672204115
 20
213.0979899659471073
 30
0.0
 40
4.792915552383314
 50
80.2278355052649204
 51
86.4710138958456582
  0
ARC
  5
6DDA
  8
0
 10
3847.446704229675106
 20
-809.6801991532952343
 30
0.0
 40
1100.1935838331519335
 50
68.9894104093464051
 51
69.0556357473884361
  0
ARC
  5
6DDB
  8
0
 10
4239.1475821270405504
 20
216.9932053817935014
 30
0.0
 40
0.0890337562372019
 50
7.7185818285894321
 51
48.6631793914460715
  0
ARC
  5
6DDC
  8
0
 10
4238.664160897083093
 20
217.0439914759982969
 30
0.0
 40
0.0514904474620232
 50
269.97365420504849
 51
340.7453851038609969
  0
ARC
  5
6DDD
  8
0
 10
4407.2274145153123754
 20
1930.8446174015609813
 30
0.0
 40
1721.8909454720781014
 50
264.3938796528382227
 51
264.4381546019881739
  0
ARC
  5
6DDE
  8
0
 10
4233.2379640260096494
 20
60.3942641041969921
 30
0.0
 40
156.9017356515201129
 50
87.8891019971782015
 51
89.2979289316892846
  0
ARC
  5
6DDF
  8
0
 10
4240.6932401351941735
 20
217.8111732910327021
 30
0.0
 40
0.0317178684292112
 50
324.3903740559129005
 51
18.7383975952324988
  0
ARC
  5
6DE0
  8
0
 10
4240.3120697076701617
 20
218.9358528815423028
 30
0.0
 40
1.2134251555002229
 50
273.8660323514117181
 51
289.5955780054579236
  0
ARC
  5
6DE1
  8
0
 10
4236.8871296933120902
 20
258.988636369680421
 30
0.0
 40
41.4121891917269807
 50
270.7869920104100743
 51
274.8575816290895091
  0
ARC
  5
6DE2
  8
0
 10
4235.0581101842226417
 20
331.9617931172475096
 30
0.0
 40
114.4065699397844043
 50
270.0512795760528775
 51
271.2009379882384792
  0
LINE
  5
6DE3
  8
0
 10
4231.0075200355886409
 20
217.987647952886789
 30
0.0
 11
4239.3134874802135528
 21
217.987647952886789
 31
0.0
  0
ENDSEC
  0
EOF
