  0
SECTION
  2
HEADER
  9
$ACADVER
  1
AC1009
  9
$INSBASE
 10
4295.1842269761236821
 20
219.9469748433033089
 30
0.0
  9
$EXTMIN
 10
4287.5695631638818668
 20
219.9418162164496948
 30
0.0
  9
$EXTMAX
 10
4302.7988907883673164
 20
248.9056148711611911
 30
0.0
  9
$LIMMIN
 10
0.0
 20
0.0
  9
$LIMMAX
 10
11.6929133858000007
 20
8.2677165353999982
  9
$ORTHOMODE
 70
     1
  9
$REGENMODE
 70
     1
  9
$FILLMODE
 70
     1
  9
$QTEXTMODE
 70
     0
  9
$MIRRTEXT
 70
     0
  9
$DRAGMODE
 70
     2
  9
$LTSCALE
 40
0.6431102362
  9
$OSMODE
 70
  4095
  9
$ATTMODE
 70
     1
  9
$TEXTSIZE
 40
0.2
  9
$TRACEWID
 40
0.05
  9
$TEXTSTYLE
  7
STANDARD
  9
$CLAYER
  8
0
  9
$CELTYPE
  6
BYLAYER
  9
$CECOLOR
 62
   256
  9
$DIMSCALE
 40
1.0
  9
$DIMASZ
 40
0.1875
  9
$DIMEXO
 40
0.0625
  9
$DIMDLI
 40
0.4443307087
  9
$DIMRND
 40
0.0
  9
$DIMDLE
 40
0.0
  9
$DIMEXE
 40
0.125
  9
$DIMTP
 40
0.01
  9
$DIMTM
 40
0.01
  9
$DIMTXT
 40
2.0
  9
$DIMCEN
 40
0.1052362205
  9
$DIMTSZ
 40
0.0
  9
$DIMTOL
 70
     1
  9
$DIMLIM
 70
     0
  9
$DIMTIH
 70
     1
  9
$DIMTOH
 70
     1
  9
$DIMSE1
 70
     0
  9
$DIMSE2
 70
     0
  9
$DIMTAD
 70
     0
  9
$DIMZIN
 70
     0
  9
$DIMBLK
  1

  9
$DIMASO
 70
     1
  9
$DIMSHO
 70
     1
  9
$DIMPOST
  1
\X
  9
$DIMAPOST
  1

  9
$DIMALT
 70
     1
  9
$DIMALTD
 70
     2
  9
$DIMALTF
 40
25.3999999999999986
  9
$DIMLFAC
 40
1.0
  9
$DIMTOFL
 70
     0
  9
$DIMTVP
 40
0.0
  9
$DIMTIX
 70
     0
  9
$DIMSOXD
 70
     0
  9
$DIMSAH
 70
     0
  9
$DIMBLK1
  1

  9
$DIMBLK2
  1

  9
$DIMSTYLE
  2
STANDARD
  9
$DIMCLRD
 70
     0
  9
$DIMCLRE
 70
     0
  9
$DIMCLRT
 70
     0
  9
$DIMTFAC
 40
1.0
  9
$DIMGAP
 40
0.09
  9
$LUNITS
 70
     2
  9
$LUPREC
 70
     4
  9
$SKETCHINC
 40
0.1
  9
$FILLETRAD
 40
0.0
  9
$AUNITS
 70
     0
  9
$AUPREC
 70
     0
  9
$MENU
  1
.
  9
$ELEVATION
 40
0.0
  9
$PELEVATION
 40
0.0
  9
$THICKNESS
 40
0.0
  9
$LIMCHECK
 70
     0
  9
$BLIPMODE
 70
     0
  9
$CHAMFERA
 40
0.0
  9
$CHAMFERB
 40
0.0
  9
$SKPOLY
 70
     0
  9
$TDCREATE
 40
2458060.468368056230247
  9
$TDUPDATE
 40
2458994.031539352145046
  9
$TDINDWG
 40
0.3071251157
  9
$TDUSRTIMER
 40
0.3071251157
  9
$USRTIMER
 70
     1
  9
$ANGBASE
 50
0.0
  9
$ANGDIR
 70
     0
  9
$PDMODE
 70
     0
  9
$PDSIZE
 40
0.3125
  9
$PLINEWID
 40
0.0
  9
$COORDS
 70
     1
  9
$SPLFRAME
 70
     0
  9
$SPLINETYPE
 70
     6
  9
$SPLINESEGS
 70
     8
  9
$ATTDIA
 70
     1
  9
$ATTREQ
 70
     1
  9
$HANDLING
 70
     1
  9
$HANDSEED
  5
702C
  9
$SURFTAB1
 70
     6
  9
$SURFTAB2
 70
     6
  9
$SURFTYPE
 70
     6
  9
$SURFU
 70
     6
  9
$SURFV
 70
     6
  9
$UCSNAME
  2

  9
$UCSORG
 10
0.0
 20
0.0
 30
0.0
  9
$UCSXDIR
 10
1.0
 20
0.0
 30
0.0
  9
$UCSYDIR
 10
0.0
 20
1.0
 30
0.0
  9
$PUCSNAME
  2

  9
$PUCSORG
 10
0.0
 20
0.0
 30
0.0
  9
$PUCSXDIR
 10
1.0
 20
0.0
 30
0.0
  9
$PUCSYDIR
 10
0.0
 20
1.0
 30
0.0
  9
$USERI1
 70
     0
  9
$USERI2
 70
     0
  9
$USERI3
 70
     0
  9
$USERI4
 70
     0
  9
$USERI5
 70
     0
  9
$USERR1
 40
0.0
  9
$USERR2
 40
0.0
  9
$USERR3
 40
0.0
  9
$USERR4
 40
0.0
  9
$USERR5
 40
0.0
  9
$WORLDVIEW
 70
     1
  9
$SHADEDGE
 70
     3
  9
$SHADEDIF
 70
    70
  9
$TILEMODE
 70
     1
  9
$MAXACTVP
 70
    64
  9
$PLIMCHECK
 70
     0
  9
$PEXTMIN
 10
1.0000000000000000E+20
 20
1.0000000000000000E+20
 30
1.0000000000000000E+20
  9
$PEXTMAX
 10
-1.0000000000000000E+20
 20
-1.0000000000000000E+20
 30
-1.0000000000000000E+20
  9
$PLIMMIN
 10
0.0
 20
0.0
  9
$PLIMMAX
 10
12.0
 20
9.0
  9
$UNITMODE
 70
     0
  9
$VISRETAIN
 70
     1
  9
$PLINEGEN
 70
     0
  9
$PSLTSCALE
 70
     1
  0
ENDSEC
  0
SECTION
  2
TABLES
  0
TABLE
  2
VPORT
 70
     1
  0
VPORT
  2
*ACTIVE
 70
     0
 10
0.0
 20
0.0
 11
1.0
 21
1.0
 12
0.0
 22
0.0
 13
0.0
 23
0.0
 14
1.0
 24
1.0
 15
0.0
 25
0.0
 16
0.0
 26
0.0
 36
127.2397094759969036
 17
4295.18408203125
 27
234.4237126736545918
 37
0.0
 40
32.7378563857500566
 41
3.0808314087759809
 42
50.0
 43
0.0
 44
0.0
 50
0.0
 51
0.0
 71
     0
 72
   100
 73
     1
 74
     1
 75
     0
 76
     0
 77
     0
 78
     0
  0
ENDTAB
  0
TABLE
  2
LTYPE
 70
     2
  0
LTYPE
  2
CONTINUOUS
 70
     0
  3
Solid line
 72
    65
 73
     0
 40
0.0
  0
LTYPE
  2
PHANTOM2
 70
     0
  3
___ _ _ ___ _ _ ___ _ _ ___ _ _
 72
    65
 73
     6
 40
1.25
 49
0.625
 49
-0.125
 49
0.125
 49
-0.125
 49
0.125
 49
-0.125
  0
ENDTAB
  0
TABLE
  2
LAYER
 70
     2
  0
LAYER
  2
0
 70
     0
 62
   255
  6
CONTINUOUS
  0
LAYER
  2
DEFPOINTS
 70
     0
 62
     7
  6
CONTINUOUS
  0
ENDTAB
  0
TABLE
  2
STYLE
 70
     1
  0
STYLE
  2
STANDARD
 70
     0
 40
0.0
 41
0.8
 50
0.0
 71
     0
 42
0.2
  3
txt
  4

  0
ENDTAB
  0
TABLE
  2
VIEW
 70
     0
  0
ENDTAB
  0
TABLE
  2
UCS
 70
     0
  0
ENDTAB
  0
TABLE
  2
APPID
 70
     9
  0
APPID
  2
ACAD
 70
     0
  0
APPID
  2
ACAD_MLEADERVER
 70
     0
  0
APPID
  2
ACAD_EXEMPT_FROM_CAD_STANDARDS
 70
     0
  0
APPID
  2
ACAD_NAV_VCDISPLAY
 70
     0
  0
APPID
  2
ACAECLAYERSTANDARD
 70
     0
  0
APPID
  2
ACCMTRANSPARENCY
 70
     0
  0
APPID
  2
ACAD_DSTYLE_DIMJAG
 70
     0
  0
APPID
  2
ACAD_DSTYLE_DIMTALN
 70
     0
  0
APPID
  2
ACDBATTR
 70
     0
  0
ENDTAB
  0
TABLE
  2
DIMSTYLE
 70
     1
  0
DIMSTYLE
  2
STANDARD
 70
     0
  3

  4

  5

  6

  7

 40
1.0
 41
0.1875
 42
0.0625
 43
0.38
 44
0.125
 45
0.0
 46
0.0
 47
0.01
 48
0.01
140
0.15625
141
0.09
142
0.0
143
25.3999999999999986
144
1.0
145
0.0
146
1.0
147
0.09
 71
     1
 72
     0
 73
     1
 74
     1
 75
     0
 76
     0
 77
     0
 78
     4
170
     0
171
     2
172
     0
173
     0
174
     0
175
     0
176
     0
177
     0
178
     0
  0
ENDTAB
  0
ENDSEC
  0
SECTION
  2
BLOCKS
  0
BLOCK
  8
0
  2
$MODEL_SPACE
 70
     0
 10
0.0
 20
0.0
 30
0.0
  3
$MODEL_SPACE
  1

  0
ENDBLK
  5
21
  8
0
  0
BLOCK
 67
     1
  8
0
  2
$PAPER_SPACE
 70
     0
 10
0.0
 20
0.0
 30
0.0
  3
$PAPER_SPACE
  1

  0
ENDBLK
  5
1D
 67
     1
  8
0
  0
ENDSEC
  0
SECTION
  2
ENTITIES
  0
ATTDEF
  5
3930
  8
DEFPOINTS
 10
4295.1796086062740869
 20
219.9451495497831104
 30
0.0
 40
0.001
  1
402324-RA
  3

  2
MODELNUMBER
 70
     0
1001
ACDBATTR
1070
     0
1070
     1
  0
ATTDEF
  5
3931
  8
DEFPOINTS
 10
4295.1796086062740869
 20
219.9434828831163884
 30
0.0
 40
0.001
  1
WINDHAM
  3

  2
TRADENAME
 70
     0
1001
ACDBATTR
1070
     0
1070
     1
  0
ATTDEF
  5
3932
  8
DEFPOINTS
 10
4295.1796086062740869
 20
219.9418162164496948
 30
0.0
 40
0.001
  1
TOILET
  3

  2
PRODUCT
 70
     0
1001
ACDBATTR
1070
     0
1070
     1
  0
LINE
  5
6F10
  8
0
 10
4300.3242694443006258
 20
219.9469748433033089
 30
0.0
 11
4290.0441845079467384
 21
219.9469748433033089
 31
0.0
  0
LINE
  5
6F11
  8
0
 10
4288.6116825279450495
 20
236.5727882109696907
 30
0.0
 11
4288.2208138454179789
 21
247.5655575205032903
 31
0.0
  0
LINE
  5
6F12
  8
0
 10
4302.1265927718231978
 20
234.9355575205032949
 30
0.0
 11
4288.2418611804241664
 21
234.9355575205032949
 31
0.0
  0
LINE
  5
6F13
  8
0
 10
4287.857410467322552
 20
247.5655575205032903
 30
0.0
 11
4302.5110434849239027
 21
247.5655575205032903
 31
0.0
  0
ARC
  5
6F14
  8
0
 10
4287.8691402912445483
 20
247.6869868246506883
 30
0.0
 40
0.1219945272336887
 50
183.7629011985040108
 51
264.4824633677632164
  0
ARC
  5
6F15
  8
0
 10
4290.0732442862681637
 20
220.1062504095253018
 30
0.0
 40
0.1619048384434258
 50
176.715161697993608
 51
259.6601323002280992
  0
ARC
  5
6F16
  8
0
 10
4290.3815267633717667
 20
220.5221579328203916
 30
0.0
 40
0.3932233797300327
 50
144.7699177818979024
 51
170.2656156946040937
  0
ARC
  5
6F17
  8
0
 10
4419.8817098535482728
 20
197.7342542451310123
 30
0.0
 40
131.8830900124667096
 50
170.0206749595672022
 51
170.2293088350135122
  0
ARC
  5
6F18
  8
0
 10
4183.6610202421061331
 20
240.817994682021606
 30
0.0
 40
108.2754678692697041
 50
349.3183839175584922
 51
353.1506368511281266
  0
ARC
  5
6F19
  8
0
 10
4288.3007269120498677
 20
234.551478214858804
 30
0.0
 40
0.3885641354837128
 50
98.7136049550795178
 51
151.426920082887392
  0
ARC
  5
6F1A
  8
0
 10
4292.7092085105996375
 20
232.7736252676081108
 30
0.0
 40
5.1396453467190488
 50
157.5381483400051934
 51
202.4742660791619073
  0
ARC
  5
6F1B
  8
0
 10
4295.3589621361779791
 20
247.5320824620478106
 30
0.0
 40
7.612970761007376
 50
171.9160898648501075
 51
178.8943652324336995
  0
ARC
  5
6F1C
  8
0
 10
4288.1189421445542393
 20
248.5368001519607049
 30
0.0
 40
0.3045058232315622
 50
96.36210958531899
 51
167.5124211915174897
  0
ARC
  5
6F1D
  8
0
 10
4296.0942470409972884
 20
-229.4643719211998132
 30
0.0
 40
478.370852373178991
 50
90.1089956467693867
 51
90.9593102717838207
  0
ARC
  5
6F1E
  8
0
 10
4291.0246297258736377
 20
227.9330284403062024
 30
0.0
 40
0.1418810360240158
 50
348.658208137254519
 51
65.1938260707576944
  0
ARC
  5
6F1F
  8
0
 10
4291.0836730483806605
 20
228.1560503036737089
 30
0.0
 40
0.0942331048298925
 50
270.2935856162213213
 51
330.8866265321278206
  0
ARC
  5
6F20
  8
0
 10
4292.5650037998084372
 20
227.1811180846557932
 30
0.0
 40
1.679406794656509
 50
116.6742568829931059
 51
146.4116900540952031
  0
ARC
  5
6F21
  8
0
 10
4292.9657275848921927
 20
226.3972189600115996
 30
0.0
 40
2.5597774063306229
 50
89.4443597893109228
 51
116.8123595569256992
  0
ARC
  5
6F22
  8
0
 10
4295.5207395387096767
 20
122.0356694458200053
 30
0.0
 40
106.9511396072135057
 50
90.1802765400577755
 51
91.3555969118354341
  0
ARC
  5
6F23
  8
0
 10
4292.8747081159981462
 20
233.248339202813213
 30
0.0
 40
5.486900300116039
 50
206.3973099405932885
 51
250.953694863764099
  0
LINE
  5
6F24
  8
0
 10
4301.7567714243023147
 20
236.5727882109696907
 30
0.0
 11
4302.1476401068302948
 21
247.5655575205032903
 31
0.0
  0
ARC
  5
6F25
  8
0
 10
4302.4993136610028159
 20
247.6869868246506883
 30
0.0
 40
0.1219945272336887
 50
275.5175366322367267
 51
356.2370988014959039
  0
ARC
  5
6F26
  8
0
 10
4300.29520966598011
 20
220.1062504095253018
 30
0.0
 40
0.1619048384434258
 50
280.3398676997720145
 51
3.2848383020064031
  0
ARC
  5
6F27
  8
0
 10
4299.986927188874688
 20
220.5221579328203916
 30
0.0
 40
0.3932233797300327
 50
9.7343843053958672
 51
35.2300822181020976
  0
ARC
  5
6F28
  8
0
 10
4170.4867440987009104
 20
197.7342542451310123
 30
0.0
 40
131.8830900124667096
 50
9.7706911649864363
 51
9.979325040432796
  0
ARC
  5
6F29
  8
0
 10
4406.7074337101421406
 20
240.817994682021606
 30
0.0
 40
108.2754678692697041
 50
186.8493631488719018
 51
190.6816160824415078
  0
ARC
  5
6F2A
  8
0
 10
4302.067727040198406
 20
234.551478214858804
 30
0.0
 40
0.3885641354837128
 50
28.5730799171125405
 51
81.2863950449204964
  0
ARC
  5
6F2B
  8
0
 10
4297.6592454416486362
 20
232.7736252676081108
 30
0.0
 40
5.1396453467190488
 50
337.5257339208380927
 51
22.4618516599947711
  0
ARC
  5
6F2C
  8
0
 10
4295.0094918160693851
 20
247.5320824620478106
 30
0.0
 40
7.612970761007376
 50
1.105634767566281
 51
8.0839101351498908
  0
ARC
  5
6F2D
  8
0
 10
4302.2495118076931249
 20
248.5368001519607049
 30
0.0
 40
0.3045058232315622
 50
12.4875788084824801
 51
83.6378904146292399
  0
ARC
  5
6F2E
  8
0
 10
4294.2742069112509853
 20
-229.4643719212029112
 30
0.0
 40
478.3708523731820037
 50
89.0406897282161651
 51
89.891004353282753
  0
ARC
  5
6F2F
  8
0
 10
4299.3438242263728171
 20
227.9330284403062024
 30
0.0
 40
0.1418810360240158
 50
114.8061739292423056
 51
191.3417918627438041
  0
ARC
  5
6F30
  8
0
 10
4299.2847809038667037
 20
228.1560503036737089
 30
0.0
 40
0.0942331048298925
 50
209.1133734678720941
 51
269.7064143837266101
  0
ARC
  5
6F31
  8
0
 10
4297.803450152438927
 20
227.1811180846557932
 30
0.0
 40
1.679406794656509
 50
33.5883099459047614
 51
63.325743117006887
  0
ARC
  5
6F32
  8
0
 10
4297.402726367356081
 20
226.3972189600115996
 30
0.0
 40
2.5597774063306229
 50
63.1876404430743008
 51
90.5556402106891056
  0
ARC
  5
6F33
  8
0
 10
4294.847714413536778
 20
122.0356694458200053
 30
0.0
 40
106.9511396072135057
 50
88.6444030881645944
 51
89.8197234599422529
  0
ARC
  5
6F34
  8
0
 10
4297.493745836251037
 20
233.248339202813213
 30
0.0
 40
5.486900300116039
 50
289.046305136235901
 51
333.6026900594067115
  0
LINE
  5
6F36
  8
0
 10
4288.6189230254622089
 20
236.198540524003306
 30
0.0
 11
4288.6244433344236313
 21
236.0442119062032873
 31
0.0
  0
LINE
  5
6F37
  8
0
 10
4288.0941919664246598
 20
235.3205405240032917
 30
0.0
 11
4288.0941919664246598
 21
235.2946464343033028
 31
0.0
  0
LINE
  5
6F38
  8
0
 10
4288.3484903701219082
 20
236.2735405240032946
 30
0.0
 11
4288.3484903701219082
 21
236.2535405264032988
 31
0.0
  0
LINE
  5
6F39
  8
0
 10
4288.4004085966253115
 20
236.4673886778033136
 30
0.0
 11
4288.3484903701219082
 21
236.2735405240032946
 31
0.0
  0
LINE
  5
6F3A
  8
0
 10
4288.0941919664246598
 20
235.3205405240032917
 30
0.0
 11
4288.2384424844231035
 21
235.8588908196032889
 31
0.0
  0
LINE
  5
6F3B
  8
0
 10
4289.3959118296243105
 20
236.1150509730032923
 30
0.0
 11
4289.3956071154243546
 21
236.1220300750032948
 31
0.0
  0
LINE
  5
6F3C
  8
0
 10
4290.177592866323721
 20
236.1150509730032923
 30
0.0
 11
4290.1812380988230871
 21
236.198540524003306
 31
0.0
  0
LINE
  5
6F3D
  8
0
 10
4291.6600431899869363
 20
236.198540524003306
 30
0.0
 11
4291.6604891692177262
 21
236.1350631014379076
 31
0.0
  0
LINE
  5
6F3E
  8
0
 10
4288.896859753624085
 20
234.9960595240033001
 30
0.0
 11
4290.3138298144240252
 21
234.9960595240033001
 31
0.0
  0
LINE
  5
6F3F
  8
0
 10
4291.1084747689283176
 20
236.0930208389032998
 30
0.0
 11
4291.141356398186872
 21
236.0930208389032998
 31
0.0
  0
LINE
  5
6F40
  8
0
 10
4289.0069307550238591
 20
236.0985405240033117
 30
0.0
 11
4289.3983137587729288
 21
236.0985405240033117
 31
0.0
  0
ARC
  5
6F41
  8
0
 10
4289.0160163356213161
 20
236.1921557308070021
 30
0.0
 40
0.0940550621692797
 50
207.6274095039539134
 51
264.4566680517140185
  0
ARC
  5
6F42
  8
0
 10
4289.4743954758550899
 20
236.1180387816733059
 30
0.0
 40
0.0785404973651321
 50
182.1801509947856914
 51
250.0490076946537101
  0
ARC
  5
6F43
  8
0
 10
4288.854294751073212
 20
236.1122686359387899
 30
0.0
 40
0.0863754680810178
 50
24.8303419508343914
 51
87.1937663969091545
  0
ARC
  5
6F44
  8
0
 10
4289.3156836397529332
 20
236.1185409230751873
 30
0.0
 40
0.0799996009280788
 50
2.4997263910785619
 51
90.0000057963747508
  0
ARC
  5
6F45
  8
0
 10
4288.1478350230308934
 20
235.2982245388797935
 30
0.0
 40
0.0537622577138067
 50
183.8160960804981983
 51
265.1526141257228915
  0
ARC
  5
6F46
  8
0
 10
4290.0999571256406853
 20
236.1177358834277982
 30
0.0
 40
0.0776821535193126
 50
288.8315034143362254
 51
358.0193046513725221
  0
ARC
  5
6F47
  8
0
 10
4290.6621915824507596
 20
235.0537309251294005
 30
0.0
 40
0.1184385568488823
 50
191.8091691528204876
 51
266.1654026434583784
  0
LINE
  5
6F48
  8
0
 10
4291.1420551223236544
 20
236.198540524003306
 30
0.0
 11
4291.1410331980241608
 21
236.0442119062032873
 31
0.0
  0
LINE
  5
6F49
  8
0
 10
4291.632185966724137
 20
236.198540524003306
 30
0.0
 11
4291.631959638324588
 21
236.1654966932032949
 31
0.0
  0
LINE
  5
6F4A
  8
0
 10
4291.1080440617242857
 20
236.0442119062032873
 30
0.0
 11
4291.1089215238243924
 21
236.1436483405032902
 31
0.0
  0
LINE
  5
6F4B
  8
0
 10
4288.143292007223863
 20
235.2446545719033111
 30
0.0
 11
4302.2251619450244107
 21
235.2446545719033111
 31
0.0
  0
ARC
  5
6F4C
  8
0
 10
4288.4668903008387133
 20
234.922464106467487
 30
0.0
 40
0.3401541499679149
 50
26.9776120012348706
 51
71.2963009917098276
  0
ARC
  5
6F4D
  8
0
 10
4288.9089855756856196
 20
235.1551179740287978
 30
0.0
 40
0.1595199864756245
 50
209.4150874705817955
 51
265.6404882972711903
  0
ARC
  5
6F4E
  8
0
 10
4290.2917089911788935
 20
234.9867163924826059
 30
0.0
 40
0.2581199136460377
 50
9.5390925836907883
 51
87.8498402829317655
  0
ARC
  5
6F4F
  8
0
 10
4290.3051389732700045
 20
235.1568074914823967
 30
0.0
 40
0.1609827312745706
 50
273.094684202540293
 51
312.3662049961283742
  0
ARC
  5
6F50
  8
0
 10
4290.638141601290954
 20
234.8110547148860121
 30
0.0
 40
0.3191439764576584
 50
111.7569412155118016
 51
134.7094831659684075
  0
ARC
  5
6F51
  8
0
 10
4291.8464723023753322
 20
235.0485063492932909
 30
0.0
 40
0.1139844197494063
 50
277.7292680486451104
 51
346.2531853733603953
  0
ARC
  5
6F52
  8
0
 10
4292.1809416084897748
 20
234.9787340253161005
 30
0.0
 40
0.2277852684290867
 50
121.3880464605342979
 51
169.1991580805724027
  0
ARC
  5
6F53
  8
0
 10
4296.4992211637618311
 20
121.6854762958073053
 30
0.0
 40
113.5744085606133069
 50
90.9383314004800098
 51
92.2388964758475254
  0
LINE
  5
6F54
  8
0
 10
4288.4840728641238456
 20
236.0442119062032873
 30
0.0
 11
4301.8843810881244281
 21
236.0442119062032873
 31
0.0
  0
ARC
  5
6F55
  8
0
 10
4288.5317814017844285
 20
235.7255338669747005
 30
0.0
 40
0.3222294171118358
 50
98.5143826030685972
 51
155.5526327640428121
  0
LINE
  5
6F56
  8
0
 10
4288.4034527270241597
 20
236.198540524003306
 30
0.0
 11
4301.9650012252268425
 21
236.198540524003505
 31
0.0
  0
ARC
  5
6F57
  8
0
 10
4288.4087846349348183
 20
236.2588311522023901
 30
0.0
 40
0.060525937337723
 50
185.0146746278439878
 51
264.9460950741724901
  0
ARC
  5
6F58
  8
0
 10
4288.4612182265182128
 20
236.4461927064606073
 30
0.0
 40
0.0643978282939014
 50
114.9249333262768999
 51
160.7833486016886866
  0
ARC
  5
6F59
  8
0
 10
4291.053066834711899
 20
236.8966026322646883
 30
0.0
 40
0.2305655229533828
 50
95.4313138468886137
 51
116.3497499410808018
  0
ARC
  5
6F5A
  8
0
 10
4289.7331036082332503
 20
245.0046597821383898
 30
0.0
 40
7.9947158116365733
 50
272.916925166826104
 51
278.7604678804210039
  0
ARC
  5
6F5B
  8
0
 10
4290.4349590668061865
 20
232.236475017370708
 30
0.0
 40
4.792915552383314
 50
93.5289861041543702
 51
99.7721644947350939
  0
ARC
  5
6F5C
  8
0
 10
4682.8980265043510371
 20
-790.541714101871662
 30
0.0
 40
1100.1935838331519335
 50
110.944364252611507
 51
111.0105895906535949
  0
ARC
  5
6F5D
  8
0
 10
4291.197148606985138
 20
236.1316904332171021
 30
0.0
 40
0.0890337562372019
 50
131.336820608553893
 51
172.2814181714105928
  0
LINE
  5
6F5E
  8
0
 10
4291.6805935133252206
 20
236.1309860854032934
 30
0.0
 11
4298.6878604389266911
 21
236.1309860854032934
 31
0.0
  0
ARC
  5
6F5F
  8
0
 10
4291.6805698369425954
 20
236.1824765274218976
 30
0.0
 40
0.0514904474620232
 50
199.2546148961374115
 51
270.02634579495151
  0
LINE
  5
6F60
  8
0
 10
4288.4340790181468037
 20
236.5045925665457105
 30
0.0
 11
4301.9343749341005605
 21
236.5045925665457105
 31
0.0
  0
ARC
  5
6F61
  8
0
 10
4123.117316218713313
 20
1949.9831024529848946
 30
0.0
 40
1721.8909454720781014
 50
275.5618453980118261
 51
275.6061203471617773
  0
ARC
  5
6F62
  8
0
 10
4297.1067667080142201
 20
79.5327491556205644
 30
0.0
 40
156.9017356515201129
 50
90.7020710683107154
 51
92.1108980028218269
  0
ARC
  5
6F63
  8
0
 10
4289.6514905988324244
 20
236.9496583424563028
 30
0.0
 40
0.0317178684292112
 50
161.2616024047675012
 51
215.6096259440857068
  0
ARC
  5
6F64
  8
0
 10
4290.0326610263546172
 20
238.0743379329659035
 30
0.0
 40
1.2134251555002229
 50
250.4044219945421048
 51
266.1339676485883956
  0
ARC
  5
6F65
  8
0
 10
4293.4576010407154172
 20
278.1271214211038796
 30
0.0
 40
41.4121891917269807
 50
265.1424183709103772
 51
269.2130079895899257
  0
ARC
  5
6F66
  8
0
 10
4295.2866205498030467
 20
351.100278168671025
 30
0.0
 40
114.4065699397844043
 50
268.7990620117092817
 51
269.9487204239471225
  0
LINE
  5
6F67
  8
0
 10
4301.7495309267869743
 20
236.198540524003306
 30
0.0
 11
4301.7440106178246424
 21
236.0442119062032873
 31
0.0
  0
LINE
  5
6F68
  8
0
 10
4302.2742619858236139
 20
235.3205405240032917
 30
0.0
 11
4302.2742619858236139
 21
235.2946464343033028
 31
0.0
  0
LINE
  5
6F69
  8
0
 10
4302.0199635821263655
 20
236.2735405240032946
 30
0.0
 11
4302.0199635821263655
 21
236.2535405264032988
 31
0.0
  0
LINE
  5
6F6A
  8
0
 10
4301.9680453556238717
 20
236.4673886778033136
 30
0.0
 11
4302.0199635821263655
 21
236.2735405240032946
 31
0.0
  0
LINE
  5
6F6B
  8
0
 10
4302.2742619858236139
 20
235.3205405240032917
 30
0.0
 11
4302.1300114678242608
 21
235.8588908196032889
 31
0.0
  0
LINE
  5
6F6C
  8
0
 10
4300.9725421226239632
 20
236.1150509730032923
 30
0.0
 11
4300.9728468368230097
 21
236.1220300750032948
 31
0.0
  0
LINE
  5
6F6D
  8
0
 10
4300.1908610859236433
 20
236.1150509730032923
 30
0.0
 11
4300.1872158534242772
 21
236.198540524003306
 31
0.0
  0
LINE
  5
6F6E
  8
0
 10
4298.7084107622613374
 20
236.198540524003306
 30
0.0
 11
4298.7079647830296381
 21
236.1350631014379076
 31
0.0
  0
LINE
  5
6F6F
  8
0
 10
4301.4715941986241887
 20
234.9960595240033001
 30
0.0
 11
4300.0546241378242485
 21
234.9960595240033001
 31
0.0
  0
LINE
  5
6F70
  8
0
 10
4299.2599791833199561
 20
236.0930208389032998
 30
0.0
 11
4299.2270975540614018
 21
236.0930208389032998
 31
0.0
  0
LINE
  5
6F71
  8
0
 10
4301.3615231972253241
 20
236.0985405240033117
 30
0.0
 11
4300.9701401934753449
 21
236.0985405240033117
 31
0.0
  0
ARC
  5
6F72
  8
0
 10
4301.3524376166269576
 20
236.1921557308070021
 30
0.0
 40
0.0940550621692797
 50
275.5433319482860952
 51
332.3725904960460866
  0
ARC
  5
6F73
  8
0
 10
4300.8940584763931838
 20
236.1180387816733059
 30
0.0
 40
0.0785404973651321
 50
289.9509923053461762
 51
357.8198490052142233
  0
ARC
  5
6F74
  8
0
 10
4301.5141592011741523
 20
236.1122686359387899
 30
0.0
 40
0.0863754680810178
 50
92.8062336030908455
 51
155.169658049165605
  0
ARC
  5
6F75
  8
0
 10
4301.0527703124953405
 20
236.1185409230751873
 30
0.0
 40
0.0799996009280788
 50
89.9999942036252492
 51
177.5002736089213897
  0
ARC
  5
6F76
  8
0
 10
4302.2206189292182898
 20
235.2982245388797935
 30
0.0
 40
0.0537622577138067
 50
274.8473858742768812
 51
356.1839039195000964
  0
ARC
  5
6F77
  8
0
 10
4300.268496826606679
 20
236.1177358834277982
 30
0.0
 40
0.0776821535193126
 50
181.9806953486273926
 51
251.168496585663803
  0
ARC
  5
6F78
  8
0
 10
4299.7062623697984236
 20
235.0537309251294005
 30
0.0
 40
0.1184385568488823
 50
273.8345973565415079
 51
348.1908308471794271
  0
LINE
  5
6F79
  8
0
 10
4299.2263988299246193
 20
236.198540524003306
 30
0.0
 11
4299.2274207542241129
 21
236.0442119062032873
 31
0.0
  0
LINE
  5
6F7A
  8
0
 10
4298.7362679855241367
 20
236.198540524003306
 30
0.0
 11
4298.7364943139236857
 21
236.1654966932032949
 31
0.0
  0
LINE
  5
6F7B
  8
0
 10
4299.260409890523988
 20
236.0442119062032873
 30
0.0
 11
4299.2595324284238814
 21
236.1436483405032902
 31
0.0
  0
ARC
  5
6F7C
  8
0
 10
4301.9015636514086509
 20
234.922464106467487
 30
0.0
 40
0.3401541499679149
 50
108.7036990082902008
 51
153.0223879987651117
  0
ARC
  5
6F7D
  8
0
 10
4301.4594683765626542
 20
235.1551179740287978
 30
0.0
 40
0.1595199864756245
 50
274.3595117027288097
 51
330.5849125294182045
  0
ARC
  5
6F7E
  8
0
 10
4300.0767449610693802
 20
234.9867163924826059
 30
0.0
 40
0.2581199136460377
 50
92.1501597170682345
 51
170.4609074163091975
  0
ARC
  5
6F7F
  8
0
 10
4300.0633149789782692
 20
235.1568074914823967
 30
0.0
 40
0.1609827312745706
 50
227.6337950038715974
 51
266.9053157974598207
  0
ARC
  5
6F80
  8
0
 10
4299.7303123509564102
 20
234.8110547148860121
 30
0.0
 40
0.3191439764576584
 50
45.2905168340315996
 51
68.2430587844881273
  0
ARC
  5
6F81
  8
0
 10
4298.521981649872032
 20
235.0485063492932909
 30
0.0
 40
0.1139844197494063
 50
193.7468146266396047
 51
262.2707319513548896
  0
ARC
  5
6F82
  8
0
 10
4298.1875123437575894
 20
234.9787340253161005
 30
0.0
 40
0.2277852684290867
 50
10.8008419194275405
 51
58.6119535394622915
  0
ARC
  5
6F83
  8
0
 10
4293.8692327884864426
 20
121.6854762958073053
 30
0.0
 40
113.5744085606133069
 50
87.7611035241524746
 51
89.0616685995200044
  0
ARC
  5
6F84
  8
0
 10
4301.8366725504638453
 20
235.7255338669747005
 30
0.0
 40
0.3222294171118358
 50
24.4473672359571488
 51
81.485617396931417
  0
ARC
  5
6F85
  8
0
 10
4301.9596693173143649
 20
236.2588311522023901
 30
0.0
 40
0.060525937337723
 50
275.0539049258275099
 51
354.9853253721558985
  0
ARC
  5
6F86
  8
0
 10
4301.9072357257300609
 20
236.4461927064606073
 30
0.0
 40
0.0643978282939014
 50
19.2166513983113205
 51
65.0750666737230716
  0
ARC
  5
6F87
  8
0
 10
4299.3153871175372842
 20
236.8966026322646883
 30
0.0
 40
0.2305655229533828
 50
63.6502500589192266
 51
84.5686861531114147
  0
ARC
  5
6F88
  8
0
 10
4300.6353503440150234
 20
245.0046597821383898
 30
0.0
 40
7.9947158116365733
 50
261.2395321195789961
 51
267.0830748331737823
  0
ARC
  5
6F89
  8
0
 10
4299.9334948854420873
 20
232.236475017370708
 30
0.0
 40
4.792915552383314
 50
80.2278355052649204
 51
86.4710138958456582
  0
ARC
  5
6F8A
  8
0
 10
3907.4704274478967818
 20
-790.541714101871662
 30
0.0
 40
1100.1935838331519335
 50
68.9894104093464051
 51
69.0556357473884361
  0
ARC
  5
6F8B
  8
0
 10
4299.1713053452640452
 20
236.1316904332171021
 30
0.0
 40
0.0890337562372019
 50
7.7185818285894321
 51
48.6631793914460715
  0
ARC
  5
6F8C
  8
0
 10
4298.6878841153047688
 20
236.1824765274218976
 30
0.0
 40
0.0514904474620232
 50
269.97365420504849
 51
340.7453851038609969
  0
ARC
  5
6F8D
  8
0
 10
4467.2511377335340512
 20
1949.9831024529848946
 30
0.0
 40
1721.8909454720781014
 50
264.3938796528382227
 51
264.4381546019881739
  0
ARC
  5
6F8E
  8
0
 10
4293.2616872442331442
 20
79.5327491556205644
 30
0.0
 40
156.9017356515201129
 50
87.8891019971782015
 51
89.2979289316892846
  0
ARC
  5
6F8F
  8
0
 10
4300.7169633534167588
 20
236.9496583424563028
 30
0.0
 40
0.0317178684292112
 50
324.3903740559129005
 51
18.7383975952324988
  0
ARC
  5
6F90
  8
0
 10
4300.3357929258918375
 20
238.0743379329659035
 30
0.0
 40
1.2134251555002229
 50
273.8660323514117181
 51
289.5955780054579236
  0
ARC
  5
6F91
  8
0
 10
4296.910852911533766
 20
278.1271214211038796
 30
0.0
 40
41.4121891917269807
 50
270.7869920104100743
 51
274.8575816290895091
  0
ARC
  5
6F92
  8
0
 10
4295.081833402445227
 20
351.100278168671025
 30
0.0
 40
114.4065699397844043
 50
270.0512795760528775
 51
271.2009379882384792
  0
LINE
  5
6F93
  8
0
 10
4291.0312432538121357
 20
237.1261330043103897
 30
0.0
 11
4299.3372106984352286
 21
237.1261330043103897
 31
0.0
  0
LINE
  5
6F94
  8
0
 10
4299.8198763758146015
 20
245.8706923933642088
 30
0.0
 11
4301.6384404950149474
 21
246.044965455670507
 31
0.0
  0
LINE
  5
6F95
  8
0
 10
4299.8196480187161796
 20
246.3082657827642947
 30
0.0
 11
4301.6438137421146166
 21
246.1522435719641919
 31
0.0
  0
LINE
  5
6F96
  8
0
 10
4301.5883985649152237
 20
246.1801175974642035
 30
0.0
 11
4299.7880154688145922
 21
246.3329496390641964
 31
0.0
  0
LINE
  5
6F97
  8
0
 10
4299.7584870242162651
 20
245.8735413335641908
 30
0.0
 11
4299.7215408003148696
 21
245.8805867178141966
 31
0.0
  0
LINE
  5
6F98
  8
0
 10
4301.6438137421146166
 20
246.1522435719641919
 30
0.0
 11
4301.5940188778158699
 21
246.1784727185641941
 31
0.0
  0
ARC
  5
6F99
  8
0
 10
4299.7991460119155818
 20
246.0868292141641973
 30
0.0
 40
0.2171287022
 50
259.2072192755858282
 51
275.4786598517094944
  0
ARC
  5
6F9A
  8
0
 10
4301.5871535848118583
 20
246.165439343763893
 30
0.0
 40
0.0147309574582822
 50
62.2221091775027801
 51
85.1518903703916834
  0
ARC
  5
6F9B
  8
0
 10
4301.623966390602618
 20
246.129476290614889
 30
0.0
 40
0.0302037491398207
 50
6.2180358285400832
 51
48.9197468333242824
  0
ARC
  5
6F9C
  8
0
 10
4301.3972033150430434
 20
246.1031301072582949
 30
0.0
 40
0.2584915135500468
 50
348.9166331325433248
 51
6.5793255187109034
  0
ARC
  5
6F9D
  8
0
 10
4301.6366419384712572
 20
246.0609631262026085
 30
0.0
 40
0.0160984554567532
 50
276.4146084140515995
 51
332.1333114873756926
  0
ARC
  5
6F9E
  8
0
 10
4299.3334837302327287
 20
244.8505929621456971
 30
0.0
 40
1.540608191317528
 50
74.9783929918289402
 51
75.5340450237086571
  0
ARC
  5
6F9F
  8
0
 10
4300.2812640336260301
 20
251.4673711041180866
 30
0.0
 40
5.1580595118286263
 50
263.8959336515225118
 51
264.5126047281721071
  0
ARC
  5
6FA0
  8
0
 10
4299.7315046577878093
 20
246.111552707541307
 30
0.0
 40
0.2311808099006203
 50
93.2657616556781193
 51
267.5297955079261101
  0
ARC
  5
6FA1
  8
0
 10
4299.7024933696466178
 20
246.1240586936320085
 30
0.0
 40
0.7139502122846137
 50
12.7057085112666694
 51
89.6716103508289279
  0
ARC
  5
6FA2
  8
0
 10
4299.7031040842712173
 20
246.1219615698549035
 30
0.0
 40
0.7160440721200897
 50
89.721438946010025
 51
281.3911703583229951
  0
ARC
  5
6FA3
  8
0
 10
4299.6999946511186863
 20
246.1213391602950935
 30
0.0
 40
0.7158752652604056
 50
281.6494508504977148
 51
344.0968606717905232
  0
ARC
  5
6FA4
  8
0
 10
4299.7351594504798413
 20
246.1122717560610056
 30
0.0
 40
0.3401490165247856
 50
36.4162485817494002
 51
318.5258204751303879
  0
ARC
  5
6FA5
  8
0
 10
4299.8023901718770503
 20
246.0887702802652086
 30
0.0
 40
0.2201677452394088
 50
85.5008923780977739
 51
255.2474952094769947
  0
ENDSEC
  0
EOF
