  0
SECTION
  2
HEADER
  9
$ACADVER
  1
AC1009
  9
$INSBASE
 10
4239.0864888381165656
 20
215.3477219432213019
 30
0.0
  9
$EXTMIN
 10
4210.5604078381556974
 20
215.3477219432213019
 30
0.0
  9
$EXTMAX
 10
4239.0933332024933407
 20
244.4647884609344999
 30
0.0
  9
$LIMMIN
 10
0.0
 20
0.0
  9
$LIMMAX
 10
11.6929133858000007
 20
8.2677165353999982
  9
$ORTHOMODE
 70
     1
  9
$REGENMODE
 70
     1
  9
$FILLMODE
 70
     1
  9
$QTEXTMODE
 70
     0
  9
$MIRRTEXT
 70
     0
  9
$DRAGMODE
 70
     2
  9
$LTSCALE
 40
0.6431102362
  9
$OSMODE
 70
  4095
  9
$ATTMODE
 70
     1
  9
$TEXTSIZE
 40
0.2
  9
$TRACEWID
 40
0.05
  9
$TEXTSTYLE
  7
STANDARD
  9
$CLAYER
  8
0
  9
$CELTYPE
  6
BYLAYER
  9
$CECOLOR
 62
   256
  9
$DIMSCALE
 40
1.0
  9
$DIMASZ
 40
0.1875
  9
$DIMEXO
 40
0.0625
  9
$DIMDLI
 40
0.4443307087
  9
$DIMRND
 40
0.0
  9
$DIMDLE
 40
0.0
  9
$DIMEXE
 40
0.125
  9
$DIMTP
 40
0.01
  9
$DIMTM
 40
0.01
  9
$DIMTXT
 40
2.0
  9
$DIMCEN
 40
0.1052362205
  9
$DIMTSZ
 40
0.0
  9
$DIMTOL
 70
     1
  9
$DIMLIM
 70
     0
  9
$DIMTIH
 70
     1
  9
$DIMTOH
 70
     1
  9
$DIMSE1
 70
     0
  9
$DIMSE2
 70
     0
  9
$DIMTAD
 70
     0
  9
$DIMZIN
 70
     0
  9
$DIMBLK
  1

  9
$DIMASO
 70
     1
  9
$DIMSHO
 70
     1
  9
$DIMPOST
  1
\X
  9
$DIMAPOST
  1

  9
$DIMALT
 70
     1
  9
$DIMALTD
 70
     2
  9
$DIMALTF
 40
25.3999999999999986
  9
$DIMLFAC
 40
1.0
  9
$DIMTOFL
 70
     0
  9
$DIMTVP
 40
0.0
  9
$DIMTIX
 70
     0
  9
$DIMSOXD
 70
     0
  9
$DIMSAH
 70
     0
  9
$DIMBLK1
  1

  9
$DIMBLK2
  1

  9
$DIMSTYLE
  2
STANDARD
  9
$DIMCLRD
 70
     0
  9
$DIMCLRE
 70
     0
  9
$DIMCLRT
 70
     0
  9
$DIMTFAC
 40
1.0
  9
$DIMGAP
 40
0.09
  9
$LUNITS
 70
     2
  9
$LUPREC
 70
     4
  9
$SKETCHINC
 40
0.1
  9
$FILLETRAD
 40
0.0
  9
$AUNITS
 70
     0
  9
$AUPREC
 70
     0
  9
$MENU
  1
.
  9
$ELEVATION
 40
0.0
  9
$PELEVATION
 40
0.0
  9
$THICKNESS
 40
0.0
  9
$LIMCHECK
 70
     0
  9
$BLIPMODE
 70
     0
  9
$CHAMFERA
 40
0.0
  9
$CHAMFERB
 40
0.0
  9
$SKPOLY
 70
     0
  9
$TDCREATE
 40
2458060.468368056230247
  9
$TDUPDATE
 40
2458994.0164814819581807
  9
$TDINDWG
 40
0.3047987269
  9
$TDUSRTIMER
 40
0.3047987269
  9
$USRTIMER
 70
     1
  9
$ANGBASE
 50
0.0
  9
$ANGDIR
 70
     0
  9
$PDMODE
 70
     0
  9
$PDSIZE
 40
0.3125
  9
$PLINEWID
 40
0.0
  9
$COORDS
 70
     1
  9
$SPLFRAME
 70
     0
  9
$SPLINETYPE
 70
     6
  9
$SPLINESEGS
 70
     8
  9
$ATTDIA
 70
     1
  9
$ATTREQ
 70
     1
  9
$HANDLING
 70
     1
  9
$HANDSEED
  5
6E82
  9
$SURFTAB1
 70
     6
  9
$SURFTAB2
 70
     6
  9
$SURFTYPE
 70
     6
  9
$SURFU
 70
     6
  9
$SURFV
 70
     6
  9
$UCSNAME
  2

  9
$UCSORG
 10
0.0
 20
0.0
 30
0.0
  9
$UCSXDIR
 10
1.0
 20
0.0
 30
0.0
  9
$UCSYDIR
 10
0.0
 20
1.0
 30
0.0
  9
$PUCSNAME
  2

  9
$PUCSORG
 10
0.0
 20
0.0
 30
0.0
  9
$PUCSXDIR
 10
1.0
 20
0.0
 30
0.0
  9
$PUCSYDIR
 10
0.0
 20
1.0
 30
0.0
  9
$USERI1
 70
     0
  9
$USERI2
 70
     0
  9
$USERI3
 70
     0
  9
$USERI4
 70
     0
  9
$USERI5
 70
     0
  9
$USERR1
 40
0.0
  9
$USERR2
 40
0.0
  9
$USERR3
 40
0.0
  9
$USERR4
 40
0.0
  9
$USERR5
 40
0.0
  9
$WORLDVIEW
 70
     1
  9
$SHADEDGE
 70
     3
  9
$SHADEDIF
 70
    70
  9
$TILEMODE
 70
     1
  9
$MAXACTVP
 70
    64
  9
$PLIMCHECK
 70
     0
  9
$PEXTMIN
 10
1.0000000000000000E+20
 20
1.0000000000000000E+20
 30
1.0000000000000000E+20
  9
$PEXTMAX
 10
-1.0000000000000000E+20
 20
-1.0000000000000000E+20
 30
-1.0000000000000000E+20
  9
$PLIMMIN
 10
0.0
 20
0.0
  9
$PLIMMAX
 10
12.0
 20
9.0
  9
$UNITMODE
 70
     0
  9
$VISRETAIN
 70
     1
  9
$PLINEGEN
 70
     0
  9
$PSLTSCALE
 70
     1
  0
ENDSEC
  0
SECTION
  2
TABLES
  0
TABLE
  2
VPORT
 70
     1
  0
VPORT
  2
*ACTIVE
 70
     0
 10
0.0
 20
0.0
 11
1.0
 21
1.0
 12
0.0
 22
0.0
 13
0.0
 23
0.0
 14
1.0
 24
1.0
 15
0.0
 25
0.0
 16
0.0
 26
0.0
 36
152.597495759315791
 17
4224.8269400389035582
 27
229.9059066772460938
 37
0.0
 40
40.8171524505843735
 41
2.9513274336283182
 42
50.0
 43
0.0
 44
0.0
 50
0.0
 51
0.0
 71
     0
 72
   100
 73
     1
 74
     1
 75
     0
 76
     0
 77
     0
 78
     0
  0
ENDTAB
  0
TABLE
  2
LTYPE
 70
     2
  0
LTYPE
  2
CONTINUOUS
 70
     0
  3
Solid line
 72
    65
 73
     0
 40
0.0
  0
LTYPE
  2
PHANTOM2
 70
     0
  3
___ _ _ ___ _ _ ___ _ _ ___ _ _
 72
    65
 73
     6
 40
1.25
 49
0.625
 49
-0.125
 49
0.125
 49
-0.125
 49
0.125
 49
-0.125
  0
ENDTAB
  0
TABLE
  2
LAYER
 70
     2
  0
LAYER
  2
0
 70
     0
 62
   255
  6
CONTINUOUS
  0
LAYER
  2
DEFPOINTS
 70
     0
 62
     7
  6
CONTINUOUS
  0
ENDTAB
  0
TABLE
  2
STYLE
 70
     1
  0
STYLE
  2
STANDARD
 70
     0
 40
0.0
 41
0.8
 50
0.0
 71
     0
 42
0.2
  3
txt
  4

  0
ENDTAB
  0
TABLE
  2
VIEW
 70
     0
  0
ENDTAB
  0
TABLE
  2
UCS
 70
     0
  0
ENDTAB
  0
TABLE
  2
APPID
 70
     9
  0
APPID
  2
ACAD
 70
     0
  0
APPID
  2
ACAD_MLEADERVER
 70
     0
  0
APPID
  2
ACAD_EXEMPT_FROM_CAD_STANDARDS
 70
     0
  0
APPID
  2
ACAD_NAV_VCDISPLAY
 70
     0
  0
APPID
  2
ACAECLAYERSTANDARD
 70
     0
  0
APPID
  2
ACCMTRANSPARENCY
 70
     0
  0
APPID
  2
ACAD_DSTYLE_DIMJAG
 70
     0
  0
APPID
  2
ACAD_DSTYLE_DIMTALN
 70
     0
  0
APPID
  2
ACDBATTR
 70
     0
  0
ENDTAB
  0
TABLE
  2
DIMSTYLE
 70
     1
  0
DIMSTYLE
  2
STANDARD
 70
     0
  3

  4

  5

  6

  7

 40
1.0
 41
0.1875
 42
0.0625
 43
0.38
 44
0.125
 45
0.0
 46
0.0
 47
0.01
 48
0.01
140
0.15625
141
0.09
142
0.0
143
25.3999999999999986
144
1.0
145
0.0
146
1.0
147
0.09
 71
     1
 72
     0
 73
     1
 74
     1
 75
     0
 76
     0
 77
     0
 78
     4
170
     0
171
     2
172
     0
173
     0
174
     0
175
     0
176
     0
177
     0
178
     0
  0
ENDTAB
  0
ENDSEC
  0
SECTION
  2
BLOCKS
  0
BLOCK
  8
0
  2
$MODEL_SPACE
 70
     0
 10
0.0
 20
0.0
 30
0.0
  3
$MODEL_SPACE
  1

  0
ENDBLK
  5
21
  8
0
  0
BLOCK
 67
     1
  8
0
  2
$PAPER_SPACE
 70
     0
 10
0.0
 20
0.0
 30
0.0
  3
$PAPER_SPACE
  1

  0
ENDBLK
  5
1D
 67
     1
  8
0
  0
ENDSEC
  0
SECTION
  2
ENTITIES
  0
ATTDEF
  5
3930
  8
DEFPOINTS
 10
4239.0826665358235914
 20
215.3597965123938138
 30
0.0
 40
0.001
  1
402323
  3

  2
MODELNUMBER
 70
     0
1001
ACDBATTR
1070
     0
1070
     1
  0
ATTDEF
  5
3931
  8
DEFPOINTS
 10
4239.0826665358235914
 20
215.3581298457270918
 30
0.0
 40
0.001
  1
WINDHAM
  3

  2
TRADENAME
 70
     0
1001
ACDBATTR
1070
     0
1070
     1
  0
ATTDEF
  5
3932
  8
DEFPOINTS
 10
4239.0826665358235914
 20
215.3564631790603983
 30
0.0
 40
0.001
  1
TOILET
  3

  2
PRODUCT
 70
     0
1001
ACDBATTR
1070
     0
1070
     1
  0
LINE
  5
6D21
  8
0
 10
4236.991501494617296
 20
215.3477219432213019
 30
0.0
 11
4213.051712486318138
 21
215.3477219432213019
 31
0.0
  0
LINE
  5
6D22
  8
0
 10
4210.9034563843169963
 20
230.882704946921308
 30
0.0
 11
4210.9034563847171739
 21
230.8577049495212918
 31
0.0
  0
LINE
  5
6D23
  8
0
 10
4211.0064563968171569
 20
232.0567057254212955
 30
0.0
 11
4211.0064563968171569
 21
232.0055761570212951
 31
0.0
  0
LINE
  5
6D24
  8
0
 10
4211.0475200163173213
 20
231.42035744392129
 30
0.0
 11
4210.9034563843169963
 21
230.882704946921308
 31
0.0
  0
LINE
  5
6D25
  8
0
 10
4236.3818181565184204
 20
216.52754494612131
 30
0.0
 11
4222.876056630817402
 21
216.2918010018213124
 31
0.0
  0
LINE
  5
6D26
  8
0
 10
4227.660307582016685
 20
218.6782688044212932
 30
0.0
 11
4232.0804563961182794
 21
218.6782688044212932
 31
0.0
  0
LINE
  5
6D27
  8
0
 10
4214.2642171485167637
 20
231.677215395721305
 30
0.0
 11
4214.2639124343177173
 21
231.6841944977213075
 31
0.0
  0
LINE
  5
6D28
  8
0
 10
4215.4302248592166507
 20
231.677215395721305
 30
0.0
 11
4215.4315445770171209
 21
231.7074419040212945
 31
0.0
  0
LINE
  5
6D29
  8
0
 10
4211.0290336541283978
 20
232.0667569892636948
 30
0.0
 11
4211.4254052475171193
 21
232.2432329927212891
 31
0.0
  0
LINE
  5
6D2A
  8
0
 10
4229.9308647133166232
 20
226.509879814121291
 30
0.0
 11
4232.4262159254167273
 21
227.0770400848672921
 31
0.0
  0
LINE
  5
6D2B
  8
0
 10
4233.1959008950170755
 20
227.2636728113212996
 30
0.0
 11
4234.5680666335174465
 21
227.580462233321299
 31
0.0
  0
LINE
  5
6D2C
  8
0
 10
4232.8712223339171032
 20
227.4368629498212897
 30
0.0
 11
4232.8416904164168955
 21
227.4312359066213105
 31
0.0
  0
LINE
  5
6D2D
  8
0
 10
4223.7239669691161907
 20
218.5544929046212985
 30
0.0
 11
4223.8073536267165764
 21
217.0792394485212924
 31
0.0
  0
LINE
  5
6D2E
  8
0
 10
4236.4002825599818607
 20
229.8877219432212939
 30
0.0
 11
4235.3675187017170174
 21
229.7253553593212985
 31
0.0
  0
LINE
  5
6D2F
  8
0
 10
4226.0293813443686304
 20
218.8783609871570945
 30
0.0
 11
4226.1784189653171779
 21
218.3221442035213045
 31
0.0
  0
LINE
  5
6D30
  8
0
 10
4225.0906622509173758
 20
229.6877219432213053
 30
0.0
 11
4233.0070363549166359
 21
229.6877219432213053
 31
0.0
  0
LINE
  5
6D31
  8
0
 10
4233.6364847357172039
 20
229.8877219432212939
 30
0.0
 11
4237.1761338595169946
 21
229.8877219432212939
 31
0.0
  0
LINE
  5
6D32
  8
0
 10
4227.2264463537167103
 20
218.9866844796212888
 30
0.0
 11
4227.2721317348177763
 21
218.8161824187019988
 31
0.0
  0
LINE
  5
6D33
  8
0
 10
4226.3220741463173908
 20
230.9093032834213091
 30
0.0
 11
4226.9022322344171698
 21
231.0032406540213117
 31
0.0
  0
LINE
  5
6D34
  8
0
 10
4226.9576042628177674
 20
231.0131712400213075
 30
0.0
 11
4226.9121582438137921
 21
231.0058162888495019
 31
0.0
  0
LINE
  5
6D35
  8
0
 10
4225.7077345336556391
 20
230.8108935769083985
 30
0.0
 11
4226.2898298488316868
 21
230.9050991084876898
 31
0.0
  0
LINE
  5
6D36
  8
0
 10
4221.6097353093173297
 20
230.5582239467213128
 30
0.0
 11
4222.1102716212171799
 21
230.5582239467213128
 31
0.0
  0
LINE
  5
6D37
  8
0
 10
4226.9484412983183574
 20
231.0575335594213016
 30
0.0
 11
4226.9484412983183574
 21
231.0866994595212986
 31
0.0
  0
LINE
  5
6D38
  8
0
 10
4225.8830952597190844
 20
230.8392737235720915
 30
0.0
 11
4225.8732308551170718
 21
230.4977219432213076
 31
0.0
  0
LINE
  5
6D39
  8
0
 10
4227.3686646112109884
 20
229.6877219432213053
 30
0.0
 11
4226.6825337336176744
 21
229.1328610193212967
 31
0.0
  0
LINE
  5
6D3A
  8
0
 10
4211.2315843864171256
 20
231.7607049467212903
 30
0.0
 11
4225.1589565181129728
 21
231.7607049467212903
 31
0.0
  0
LINE
  5
6D3B
  8
0
 10
4226.9576042628177674
 20
231.0131712400213075
 30
0.0
 11
4226.9484412983183574
 21
231.0866994595212986
 31
0.0
  0
LINE
  5
6D3C
  8
0
 10
4226.9484412983183574
 20
231.0866994595212986
 30
0.0
 11
4226.8036259496166167
 21
232.2484808129212865
 31
0.0
  0
LINE
  5
6D3D
  8
0
 10
4227.019883223017132
 20
230.4977219432213076
 30
0.0
 11
4226.9566116452360802
 21
231.013010595502692
 31
0.0
  0
LINE
  5
6D3E
  8
0
 10
4226.9650254152165871
 20
231.070781598721311
 30
0.0
 11
4227.0324922771178535
 21
230.521308103221287
 31
0.0
  0
LINE
  5
6D3F
  8
0
 10
4230.9578348588165682
 20
231.0885131378213089
 30
0.0
 11
4230.3901233312171826
 21
243.1277246035213011
 31
0.0
  0
LINE
  5
6D40
  8
0
 10
4229.9189563968184302
 20
229.6877219432213053
 30
0.0
 11
4229.9189563968184302
 21
229.1027556837213126
 31
0.0
  0
LINE
  5
6D41
  8
0
 10
4230.2189563968167931
 20
229.1027556837213126
 30
0.0
 11
4230.2189563968167931
 21
229.6877219432213053
 31
0.0
  0
LINE
  5
6D42
  8
0
 10
4232.6579190905176802
 20
226.4822032557212879
 30
0.0
 11
4232.6579191008177077
 21
226.8880987472213064
 31
0.0
  0
LINE
  5
6D43
  8
0
 10
4233.0549936882171096
 20
227.0719913567212984
 30
0.0
 11
4233.0549936545166929
 21
226.4947627925212998
 31
0.0
  0
LINE
  5
6D44
  8
0
 10
4233.6564563968167931
 20
229.7663472384213037
 30
0.0
 11
4233.6564563968167931
 21
229.8177219441213026
 31
0.0
  0
LINE
  5
6D45
  8
0
 10
4235.1131775406165616
 20
225.9574551716212909
 30
0.0
 11
4234.9938855591162792
 21
227.4732035116213069
 31
0.0
  0
LINE
  5
6D46
  8
0
 10
4234.2809121551163116
 20
220.8787219432213078
 30
0.0
 11
4234.2809121551163116
 21
220.9909293346213133
 31
0.0
  0
LINE
  5
6D47
  8
0
 10
4230.7794446051184423
 20
221.4594233798212883
 30
0.0
 11
4231.5207386375168426
 21
222.4081006140212935
 31
0.0
  0
LINE
  5
6D48
  8
0
 10
4235.8125997854167508
 20
228.9100720344212903
 30
0.0
 11
4236.152757052817833
 21
224.5879641525212946
 31
0.0
  0
LINE
  5
6D49
  8
0
 10
4230.1995728451165633
 20
242.2797357381213033
 30
0.0
 11
4230.4294557283819813
 21
242.293619562673797
 31
0.0
  0
LINE
  5
6D4A
  8
0
 10
4230.2596336250171589
 20
241.0391246070213072
 30
0.0
 11
4230.4887786552335456
 21
241.0355840527091971
 31
0.0
  0
LINE
  5
6D4B
  8
0
 10
4237.8041369412176209
 20
231.1069019591213021
 30
0.0
 11
4238.0158626983165959
 21
243.236662460921309
 31
0.0
  0
LINE
  5
6D4C
  8
0
 10
4230.0315041672165535
 20
243.127721943221303
 30
0.0
 11
4237.4231768911176914
 21
243.1277221046213128
 31
0.0
  0
LINE
  5
6D4D
  8
0
 10
4238.0025372251166118
 20
243.377721943221303
 30
0.0
 11
4237.9060637590173428
 21
243.377721943221303
 31
0.0
  0
LINE
  5
6D4E
  8
0
 10
4237.2025870409170238
 20
230.2753676568212882
 30
0.0
 11
4237.2727264421173459
 21
230.0136038478212868
 31
0.0
  0
LINE
  5
6D4F
  8
0
 10
4238.066569948517099
 20
244.1402640467213132
 30
0.0
 11
4238.1416078380943873
 21
243.4954977183213032
 31
0.0
  0
LINE
  5
6D50
  8
0
 10
4236.7351346532650496
 20
216.8100294716527117
 30
0.0
 11
4237.1304126380173329
 21
218.7607839985213047
 31
0.0
  0
ARC
  5
6D51
  8
0
 10
4213.5844827493347111
 20
230.6087649079408095
 30
0.0
 40
0.1110472594581441
 50
188.8755098169839926
 51
269.4960894176288093
  0
ARC
  5
6D52
  8
0
 10
4214.3420623214333318
 20
231.6799756891821005
 30
0.0
 40
0.0778940958375157
 50
182.0307865768633064
 51
250.885212247658103
  0
ARC
  5
6D53
  8
0
 10
4215.351522811641189
 20
231.6802802748244119
 30
0.0
 40
0.0787617024736841
 50
290.2281323309874779
 51
357.7698680939445808
  0
ARC
  5
6D54
  8
0
 10
4214.1716153821189437
 20
231.6677797391232048
 30
0.0
 40
0.0937453473471374
 50
10.0844454364775196
 51
82.4155545759262793
  0
ARC
  5
6D55
  8
0
 10
4211.2388317081886271
 20
231.8364634620313041
 30
0.0
 40
0.0761043777639052
 50
236.9707448137016002
 51
264.5355163507587122
  0
ARC
  5
6D56
  8
0
 10
4211.0994167454782655
 20
232.0139521221614984
 30
0.0
 40
0.0933369338215862
 50
185.1485933899126053
 51
196.4262045250627011
  0
ARC
  5
6D57
  8
0
 10
4227.6601980863106292
 20
216.2832917553795937
 30
0.0
 40
2.3949770515446951
 50
89.9973805002018423
 51
94.8467219814557723
  0
ARC
  5
6D58
  8
0
 10
4227.6602987139167453
 20
216.2787431737212955
 30
0.0
 40
2.3995250835999991
 50
129.5739941740058896
 51
174.4306339458975117
  0
ARC
  5
6D59
  8
0
 10
4225.6982899489166812
 20
230.9309260743212917
 30
0.0
 40
0.12
 50
279.1929999999974257
 51
41.8451389302057066
  0
ARC
  5
6D5A
  8
0
 10
4226.2418162780932107
 20
231.3990958604387913
 30
0.0
 40
0.4963245852399088
 50
221.7277167338220067
 51
279.3058394299372935
  0
ARC
  5
6D5B
  8
0
 10
4227.0934560805762885
 20
231.0377056694603937
 30
0.0
 40
0.1354992408095991
 50
99.7427725308070876
 51
159.0682107353360095
  0
ARC
  5
6D5C
  8
0
 10
4227.100791115384709
 20
230.6072616090021938
 30
0.0
 40
0.109784955598979
 50
231.5292715647422881
 51
266.169223013167823
  0
ARC
  5
6D5D
  8
0
 10
4226.8934412983171569
 20
231.0575335582213086
 30
0.0
 40
0.055
 50
279.1973308463893773
 51
0.0000006163009151
  0
ARC
  5
6D5E
  8
0
 10
4226.9967902474127186
 20
231.074680552797588
 30
0.0
 40
0.0320032249521875
 50
159.0687533978822046
 51
186.9977309947576032
  0
ARC
  5
6D5F
  8
0
 10
4230.0402843843394294
 20
243.2462403308759065
 30
0.0
 40
0.1188431757609017
 50
182.4571718379968956
 51
265.7630872423345068
  0
ARC
  5
6D60
  8
0
 10
4232.9250461651163278
 20
222.5577944810212898
 30
0.0
 40
3.7913061708999991
 50
26.6674270646999005
 51
30.8359658696965013
  0
ARC
  5
6D61
  8
0
 10
4232.9162831433814063
 20
222.6246957512389031
 30
0.0
 40
3.3614983928188602
 50
90.7680708678189063
 51
91.2715160946246016
  0
ARC
  5
6D62
  8
0
 10
4232.080444948940567
 20
220.8787360106124993
 30
0.0
 40
2.2004672062209401
 50
270.0002980616346804
 51
359.9996337131765927
  0
ARC
  5
6D63
  8
0
 10
4233.819127575316088
 20
228.7531823690212889
 30
0.0
 40
1.9996364218
 50
4.5000000000004361
 51
23.0169166728969401
  0
ARC
  5
6D64
  8
0
 10
4233.7276988113972038
 20
229.8172549112360912
 30
0.0
 40
0.0712439453847517
 50
98.4692589306175563
 51
179.6244010187901097
  0
ARC
  5
6D65
  8
0
 10
4237.0449819930618105
 20
231.2594230137580951
 30
0.0
 40
0.7743248074396841
 50
280.3600488664444015
 51
348.6399980727283037
  0
ARC
  5
6D66
  8
0
 10
4236.8888213045256634
 20
230.1664601879753889
 30
0.0
 40
0.3321291527109101
 50
19.1417870794864307
 51
85.8582129204977917
  0
ARC
  5
6D67
  8
0
 10
4237.1646328522792828
 20
229.9965469764630939
 30
0.0
 40
0.1094310788923579
 50
276.0328231626897946
 51
8.9671768371100136
  0
ARC
  5
6D68
  8
0
 10
4237.7276562721426671
 20
244.0655133294297059
 30
0.0
 40
0.3470592885499826
 50
12.4380059047268308
 51
78.7125735597642091
  0
ARC
  5
6D69
  8
0
 10
4237.86372254923117
 20
243.2315012716578053
 30
0.0
 40
0.1522276677829501
 50
1.942951961918203
 51
73.8505370221529631
  0
ARC
  5
6D6A
  8
0
 10
4237.9822927065197291
 20
243.542622593667403
 30
0.0
 40
0.1661386922146096
 50
276.9990636954794923
 51
343.5219616511516278
  0
ARC
  5
6D6B
  8
0
 10
4256.9998404829602805
 20
226.4989526238935866
 30
0.0
 40
22.030949438575341
 50
172.8757173121883
 51
175.7405174370555869
  0
LINE
  5
6D6C
  8
0
 10
4237.1304564011170442
 20
220.941653107221299
 30
0.0
 11
4237.1304126380173329
 21
218.7607839985213047
 31
0.0
  0
LINE
  5
6D6D
  8
0
 10
4210.9536821402889473
 20
230.8068189946212954
 30
0.0
 11
4225.6678740487732284
 21
230.8068189946212954
 31
0.0
  0
LINE
  5
6D6E
  8
0
 10
4211.2891614634945654
 20
231.6063763289213
 30
0.0
 11
4225.1320862788352315
 21
231.6063763289213
 31
0.0
  0
LINE
  5
6D6F
  8
0
 10
4211.0290336541283978
 20
232.0667569892636948
 30
0.0
 11
4226.8262777152121998
 21
232.0667569892636948
 31
0.0
  0
LINE
  5
6D70
  8
0
 10
4211.1693642473155705
 20
230.4977219432213076
 30
0.0
 11
4237.1842313613169608
 21
230.4977219432213076
 31
0.0
  0
ARC
  5
6D71
  8
0
 10
4211.1931073708237818
 20
230.1657998486197982
 30
0.0
 40
0.3327702102030571
 50
94.0915250818884203
 51
159.3585658834822993
  0
ARC
  5
6D72
  8
0
 10
4216.1623912857266987
 20
228.4132113274997096
 30
0.0
 40
5.601983447571345
 50
160.5009149950581104
 51
184.3938605866885041
  0
ARC
  5
6D73
  8
0
 10
4214.8568846090793159
 20
228.200614447035889
 30
0.0
 40
4.2854887849910721
 50
182.8968924502129028
 51
259.0259680659106039
  0
ARC
  5
6D74
  8
0
 10
4213.9762844347187638
 20
223.8043731579001019
 30
0.0
 40
0.1999114564635019
 50
353.0426841456030047
 51
71.0871959153049744
  0
ARC
  5
6D75
  8
0
 10
4070.6499945117298012
 20
241.6436364615884997
 30
0.0
 40
144.6321257718963977
 50
349.5950152391367851
 51
352.9052957929903869
  0
ARC
  5
6D76
  8
0
 10
4213.0651992398770744
 20
215.5091461187751065
 30
0.0
 40
0.161986595046699
 50
175.3094271451651025
 51
265.224113352781103
  0
ARC
  5
6D77
  8
0
 10
4214.461994842610693
 20
222.2056393900720934
 30
0.0
 40
1.83673213575854
 50
77.6414245627152297
 51
103.2478725928349945
  0
ARC
  5
6D78
  8
0
 10
4223.6852104093668459
 20
268.7556067969856031
 30
0.0
 40
45.6185498159234299
 50
258.839161076977291
 51
264.2880095065505088
  0
ARC
  5
6D79
  8
0
 10
4219.6071117274150311
 20
232.6355215495152038
 30
0.0
 40
9.2834718564816363
 50
267.146065232100284
 51
282.2413181802318718
  0
ARC
  5
6D7A
  8
0
 10
4221.7947829246395486
 20
222.8869537586064951
 30
0.0
 40
0.7108454048851345
 50
55.1806497715803985
 51
107.9692487555744975
  0
ARC
  5
6D7B
  8
0
 10
4220.832159520762616
 20
222.0593733427230916
 30
0.0
 40
1.9657499457451
 50
31.6736651304976284
 51
45.8789276474210723
  0
ARC
  5
6D7C
  8
0
 10
4229.6076882876313903
 20
223.3021958475355859
 30
0.0
 40
7.1056952144695247
 50
181.698759138816996
 51
196.8302145246088912
  0
ARC
  5
6D7D
  8
0
 10
4219.2782727485946452
 20
232.8368029448016898
 30
0.0
 40
12.1169721460519408
 50
286.9279172103989026
 51
305.4204516282362079
  0
ARC
  5
6D7E
  8
0
 10
4210.9160566800255765
 20
238.9978678598677106
 30
0.0
 40
22.2222794058386199
 50
313.8138475788670121
 51
323.6059453666384798
  0
ARC
  5
6D7F
  8
0
 10
4230.6152958743432464
 20
224.1445749259092111
 30
0.0
 40
2.462338975117552
 50
106.1384747312361014
 51
137.357922692025511
  0
ARC
  5
6D80
  8
0
 10
4230.7998539945647281
 20
226.1060393336632899
 30
0.0
 40
1.8957597941336
 50
3.5888893517662348
 51
11.4448041088177792
  0
ARC
  5
6D81
  8
0
 10
4233.0501036828918586
 20
226.2390831985692898
 30
0.0
 40
0.3584960172351155
 50
182.2980697643158123
 51
211.6646692859621055
  0
ARC
  5
6D82
  8
0
 10
4232.8558581360766766
 20
226.1104162731301983
 30
0.0
 40
0.125849867313392
 50
208.2278992790159009
 51
263.5361469208893936
  0
ARC
  5
6D83
  8
0
 10
4232.8577793538142942
 20
226.095200834193804
 30
0.0
 40
0.1101322466858847
 50
277.0111540460588913
 51
321.5672947386535725
  0
ARC
  5
6D84
  8
0
 10
4232.6562280055031806
 20
226.2513317896737135
 30
0.0
 40
0.3650776182768019
 50
322.0349670502403114
 51
357.7207864947620806
  0
ARC
  5
6D85
  8
0
 10
4234.8679309709650624
 20
226.124752236816505
 30
0.0
 40
1.8503106562689231
 50
168.4646709572726877
 51
176.5278612863347121
  0
ARC
  5
6D86
  8
0
 10
4233.256087586409194
 20
227.071796928437692
 30
0.0
 40
0.2010939886049982
 50
107.415343571585197
 51
179.9446031792340079
  0
ARC
  5
6D87
  8
0
 10
4232.469053627928588
 20
226.8930307832837912
 30
0.0
 40
0.1889298595400028
 50
358.5041171364999855
 51
103.1051385057821932
  0
ARC
  5
6D88
  8
0
 10
4232.5108185843309911
 20
226.9941373207219897
 30
0.0
 40
0.1813359893142159
 50
324.2137525961476854
 51
3.060193844700235
  0
ARC
  5
6D89
  8
0
 10
4233.8839838936683009
 20
226.8792358483875091
 30
0.0
 40
1.198580107721108
 50
156.6623053560419123
 51
174.0338198978386117
  0
ARC
  5
6D8A
  8
0
 10
4232.9309692637079934
 20
227.3033309888496092
 30
0.0
 40
0.1559819879467094
 50
124.9154066988997016
 51
161.0236214078070986
  0
ARC
  5
6D8B
  8
0
 10
4232.8445812101035699
 20
227.3123598836745884
 30
0.0
 40
0.1273214944849496
 50
32.1218434882281514
 51
77.9220097148920274
  0
ARC
  5
6D8C
  8
0
 10
4232.4856728578752154
 20
227.1130042664711937
 30
0.0
 40
0.537739829545118
 50
5.4105117747473903
 51
29.7769803077604287
  0
ARC
  5
6D8D
  8
0
 10
4233.1628024033980182
 20
227.1640812803680092
 30
0.0
 40
0.141786008431332
 50
180.1507327450738103
 51
220.5038669828961133
  0
ARC
  5
6D8E
  8
0
 10
4234.4251919901607835
 20
228.168846191741892
 30
0.0
 40
0.6054823252918057
 50
283.6487084245700885
 51
356.8210290467927166
  0
ARC
  5
6D8F
  8
0
 10
4235.4147941712490137
 20
229.2085853940594973
 30
0.0
 40
0.2767441648491171
 50
123.8581847483660994
 51
175.2970359821729005
  0
ARC
  5
6D90
  8
0
 10
4233.9963857280954471
 20
231.7746841393147861
 30
0.0
 40
2.656405263922081
 50
298.4189498633646167
 51
309.0326381147751817
  0
ARC
  5
6D91
  8
0
 10
4235.246544052210993
 20
229.9491848454412093
 30
0.0
 40
0.4851201898853414
 50
330.6250245324657158
 51
339.2965193932016064
  0
ARC
  5
6D92
  8
0
 10
4235.843668612806141
 20
229.6132456070075136
 30
0.0
 40
0.2000170023769471
 50
150.6698670338114141
 51
203.0145474985984038
  0
ARC
  5
6D93
  8
0
 10
4236.3535726516829527
 20
224.6041120939572124
 30
0.0
 40
0.2014637951611807
 50
184.5973641867965114
 51
210.7352575126930105
  0
ARC
  5
6D94
  8
0
 10
4229.9560297847328911
 20
220.9336193860293918
 30
0.0
 40
7.1744311143503756
 50
0.0641581760202995
 51
27.6168500121257914
  0
ARC
  5
6D95
  8
0
 10
4236.9243492098048591
 20
216.7383846753575938
 30
0.0
 40
0.2023243070966844
 50
159.2611717691636954
 51
250.3932329943019965
  0
ARC
  5
6D96
  8
0
 10
4236.6548595971662508
 20
216.1177163053075105
 30
0.0
 40
0.4749801292983266
 50
6.2890382330810484
 51
64.8852399784286149
  0
ARC
  5
6D97
  8
0
 10
4249.0241805566247422
 20
216.093623198333205
 30
0.0
 40
11.8974428321420795
 50
179.6333971404453962
 51
182.8242895517176123
  0
ARC
  5
6D98
  8
0
 10
4236.964033625105003
 20
215.5234715577801978
 30
0.0
 40
0.1778831382483746
 50
278.8828843358576819
 51
354.8157392267265777
  0
ARC
  5
6D99
  8
0
 10
4226.2642352182156174
 20
232.1391391403201112
 30
0.0
 40
0.5503616651703376
 50
11.4593353014034296
 51
86.2103960533517863
  0
ARC
  5
6D9A
  8
0
 10
4235.139309430243884
 20
-325.3200450147696756
 30
0.0
 40
558.0783393385636373
 50
90.9074735583143934
 51
92.4290595635211645
  0
ARC
  5
6D9B
  8
0
 10
4211.4912880716155996
 20
232.0913444361702886
 30
0.0
 40
0.1655617109189129
 50
91.6169213020847337
 51
113.4491579770506036
  0
ARC
  5
6D9C
  8
0
 10
4211.0379212745538098
 20
232.0164112489246975
 30
0.0
 40
0.051124195515544
 50
100.0113768938202981
 51
127.9853243948087993
  0
ARC
  5
6D9D
  8
0
 10
4211.5122759519772444
 20
232.2365847483272887
 30
0.0
 40
0.5607195763084115
 50
206.367014133671006
 51
235.8302523096722041
  0
ARC
  5
6D9E
  8
0
 10
4225.136782114925154
 20
231.2185902570018925
 30
0.0
 40
0.5425680058446588
 50
34.1190124234224186
 51
87.6577062135907141
  0
ARC
  5
6D9F
  8
0
 10
4228.0476767336467674
 20
232.7532747926755974
 30
0.0
 40
2.752055798691031
 50
206.5555993492583866
 51
217.7413699611593927
  0
ARC
  5
6DA0
  8
0
 10
4226.9959961542681413
 20
230.9475652148178995
 30
0.0
 40
0.0313830311270484
 50
194.4955548400666032
 51
246.9323640099264878
  0
ARC
  5
6DA1
  8
0
 10
4227.0756071772220821
 20
231.141515909359299
 30
0.0
 40
0.0301657388510065
 50
83.2404374415164625
 51
99.6968661291673754
  0
ARC
  5
6DA2
  8
0
 10
4226.0629726464194391
 20
221.2496696400546909
 30
0.0
 40
9.9737051048584426
 50
75.8803263022916639
 51
84.1521905470789022
  0
ARC
  5
6DA3
  8
0
 10
4228.4657360533146857
 20
230.8555495977047087
 30
0.0
 40
0.0730809587072181
 50
307.5840625279261076
 51
65.5033970224232434
  0
LINE
  5
6DA4
  8
0
 10
4228.3872595383172666
 20
230.4977219432213076
 30
0.0
 11
4228.3944891434757665
 21
230.6341660370395914
 31
0.0
  0
ARC
  5
6DA5
  8
0
 10
4228.5879160837603195
 20
230.6117373529764052
 30
0.0
 40
0.194722949587588
 50
127.0265823192698065
 51
173.3858461758723877
  0
ARC
  5
6DA6
  8
0
 10
4226.6505894333677134
 20
233.1791631115291068
 30
0.0
 40
3.0216274044627851
 50
307.0381536802801179
 51
307.9860669308138199
  0
ARC
  5
6DA7
  8
0
 10
4222.2766349103840184
 20
223.2550380233574003
 30
0.0
 40
0.2284868341362881
 50
109.4189600527534054
 51
171.4514176382905077
  0
LINE
  5
6DA8
  8
0
 10
4222.0506865245415611
 20
223.2890021265943119
 30
0.0
 11
4222.0506865245415611
 21
217.0482780614213141
 31
0.0
  0
ARC
  5
6DA9
  8
0
 10
4222.9127340573159017
 20
217.1603258567211014
 30
0.0
 40
0.8692989458139692
 50
187.405710546422398
 51
267.581860944313803
  0
LINE
  5
6DAA
  8
0
 10
4236.3818181565184204
 20
216.52754494612131
 30
0.0
 11
4236.8564566926270345
 21
216.5477915711973935
 31
0.0
  0
ARC
  5
6DAB
  8
0
 10
4214.4570921071626799
 20
230.6094317550914923
 30
0.0
 40
0.1117098243010156
 50
270.0270297089875839
 51
345.5129975088154879
  0
ARC
  5
6DAC
  8
0
 10
4214.8068994506165836
 20
230.521156941964307
 30
0.0
 40
0.2490664034383114
 50
106.9062420893139063
 51
165.9822593989109976
  0
ARC
  5
6DAD
  8
0
 10
4213.2065612157257419
 20
230.5435070216352074
 30
0.0
 40
0.2724873308515022
 50
10.1724983497365802
 51
75.0891560635530766
  0
ARC
  5
6DAE
  8
0
 10
4304.0588359672738079
 20
2609.7336437496069266
 30
0.0
 40
2380.6505441510889796
 50
267.8497008547773817
 51
268.0247067945118147
  0
ARC
  5
6DAF
  8
0
 10
4221.6380509205237104
 20
230.747855508569387
 30
0.0
 40
0.1917339382763405
 50
219.1173250937351895
 51
261.5073932911511747
  0
ARC
  5
6DB0
  8
0
 10
4221.0968788563786802
 20
230.3620452985462919
 30
0.0
 40
0.4734246100674282
 50
34.0157067890222393
 51
69.9646743881489783
  0
ARC
  5
6DB1
  8
0
 10
4222.0989289971075777
 20
230.7157588677630997
 30
0.0
 40
0.1579427316128203
 50
274.1182294303256981
 51
329.8573829437819995
  0
ARC
  5
6DB2
  8
0
 10
4222.5200519589607211
 20
230.4859958825234969
 30
0.0
 40
0.3218652397728002
 50
94.6118832545229651
 51
152.1320111531591976
  0
ARC
  5
6DB3
  8
0
 10
4225.665150139000616
 20
231.0304754428277079
 30
0.0
 40
0.2236730348270095
 50
270.6977702598526889
 51
280.9753586003106989
  0
ARC
  5
6DB4
  8
0
 10
4224.3744452549080961
 20
230.4035599817254933
 30
0.0
 40
0.3504013774428241
 50
111.3658918147210954
 51
164.4115293491105945
  0
ARC
  5
6DB5
  8
0
 10
4224.7534527036796135
 20
229.1454877130960028
 30
0.0
 40
1.6634324773477831
 50
92.8801428763863157
 51
107.7335584487246933
  0
ARC
  5
6DB6
  8
0
 10
4225.1269875190337189
 20
231.0960231929157942
 30
0.0
 40
0.5103786053335241
 50
30.3164787440513415
 51
89.4275969371821162
  0
ARC
  5
6DB7
  8
0
 10
4228.0893785569433021
 20
232.7314901486969063
 30
0.0
 40
2.8736651550461771
 50
208.6508810379336865
 51
216.7780036029903101
  0
ARC
  5
6DB8
  8
0
 10
4215.4890255876307492
 20
231.7038254478424903
 30
0.0
 40
0.0575946641317942
 50
99.0385783828316448
 51
176.3999428887973977
  0
ARC
  5
6DB9
  8
0
 10
4217.4562509637098628
 20
278.4835567884888974
 30
0.0
 40
46.8596673691347689
 50
262.1165266479873139
 51
265.6206319310849153
  0
ARC
  5
6DBA
  8
0
 10
4210.9548938008647383
 20
230.8582449733090982
 30
0.0
 40
0.0514402508289682
 50
180.6015064132473924
 51
268.650289273807573
  0
ARC
  5
6DBB
  8
0
 10
4211.3057228095212849
 20
231.3349054247370873
 30
0.0
 40
0.2719756055251338
 50
93.4910580125709032
 51
161.6880774159481007
  0
ARC
  5
6DBC
  8
0
 10
4235.4633877781097908
 20
229.837736446543289
 30
0.0
 40
0.1477172588882797
 50
160.221410792257501
 51
229.5334581311045952
  0
ARC
  5
6DBD
  8
0
 10
4233.0356864557379595
 20
230.6581719274979037
 30
0.0
 40
0.9708728033370158
 50
268.308977042889012
 51
305.77127619624099
  0
ARC
  5
6DBE
  8
0
 10
4233.6705564328458422
 20
229.781411163886105
 30
0.0
 40
0.1116371907030583
 50
107.7702110823802997
 51
127.1031330354012994
  0
LINE
  5
6DBF
  8
0
 10
4223.5048496857170903
 20
229.8132384453213035
 30
0.0
 11
4223.296038283917369
 21
230.4977219432213076
 31
0.0
  0
ARC
  5
6DC0
  8
0
 10
4240.2856586414491176
 20
431.7463654050237096
 30
0.0
 40
202.6291768549930907
 50
265.2495885736074115
 51
265.6993992235692872
  0
ARC
  5
6DC1
  8
0
 10
4226.6683087658211662
 20
229.156508764706814
 30
0.0
 40
0.0275964775036262
 50
209.0567243175684951
 51
301.02841899020558
  0
ARC
  5
6DC2
  8
0
 10
4233.3322757045198159
 20
230.5845416776249976
 30
0.0
 40
6.841658170663413
 50
187.5321340750504078
 51
192.1625073272566908
  0
ARC
  5
6DC3
  8
0
 10
4230.0689563968171569
 20
229.0774575007010867
 30
0.0
 40
0.1521183685954264
 50
170.4268944296676978
 51
9.5731055702246604
  0
ARC
  5
6DC4
  8
0
 10
4208.9898061260973918
 20
248.9181214800148894
 30
0.0
 40
29.149191687271351
 50
297.6235243573718776
 51
304.9477532375723854
  0
ARC
  5
6DC5
  8
0
 10
4223.1872246981911303
 20
228.4685980544209087
 30
0.0
 40
4.255231083820652
 50
305.9821672407920801
 51
353.2801905993028981
  0
ARC
  5
6DC6
  8
0
 10
4214.1198583994773799
 20
227.3574235358169915
 30
0.0
 40
13.3075028502861894
 50
2.641308876096033
 51
9.6299026624286626
  0
ARC
  5
6DC7
  8
0
 10
4223.1537966574805978
 20
221.1616372878260108
 30
0.0
 40
0.1920725458852579
 50
124.2520740848063951
 51
186.4984397188842991
  0
ARC
  5
6DC8
  8
0
 10
4183.2431283290370629
 20
218.0001653959766088
 30
0.0
 40
39.8437299064636008
 50
2.9298464513154259
 51
4.5196621952274239
  0
ARC
  5
6DC9
  8
0
 10
4225.3472860953106647
 20
220.2106273819528042
 30
0.0
 40
2.3190399699395452
 50
184.301074971104299
 51
225.573302264599107
  0
ARC
  5
6DCA
  8
0
 10
4224.02788417595184
 20
218.5581718927514885
 30
0.0
 40
0.3039394736665743
 50
90.063318318227374
 51
180.6935441762809944
  0
ARC
  5
6DCB
  8
0
 10
4224.470022415591302
 20
226.8656882408041042
 30
0.0
 40
8.0157987192925653
 50
266.8356500173476888
 51
276.6790780157327276
  0
ARC
  5
6DCC
  8
0
 10
4225.3530220434786315
 20
219.3735152797042076
 30
0.0
 40
0.4718070750228102
 50
275.9981863252676249
 51
299.7867492531050857
  0
ARC
  5
6DCD
  8
0
 10
4225.8401761863624415
 20
218.5206661665723971
 30
0.0
 40
0.5103698369479486
 50
88.1723933695218705
 51
119.6878318913520047
  0
ARC
  5
6DCE
  8
0
 10
4225.8386806421412984
 20
218.8363034073423989
 30
0.0
 40
0.1952833783241839
 50
12.4370546074699995
 51
84.7783757045115038
  0
ARC
  5
6DCF
  8
0
 10
4225.9737987859507484
 20
218.2689730500395058
 30
0.0
 40
0.2114156790925444
 50
318.2891610634551967
 51
14.5663230753386905
  0
ARC
  5
6DD0
  8
0
 10
4225.057870451953022
 20
216.5457657093151056
 30
0.0
 40
0.2169346062111722
 50
276.736745350164199
 51
350.9436477017504217
  0
ARC
  5
6DD1
  8
0
 10
4224.7065468777846036
 20
217.2335324574075912
 30
0.0
 40
0.9123348263418098
 50
189.7365906016657959
 51
266.5964127726954871
  0
ARC
  5
6DD2
  8
0
 10
4227.4267431018888601
 20
219.0340193479665913
 30
0.0
 40
0.2058139380352343
 50
112.6626288169705958
 51
193.2964031217638023
  0
ARC
  5
6DD3
  8
0
 10
4227.4769920535636629
 20
218.8849491804317893
 30
0.0
 40
0.2160940020352545
 50
198.555683663378602
 51
264.9167619377518008
  0
ARC
  5
6DD4
  8
0
 10
4225.5026134842828469
 20
221.5641927560529041
 30
0.0
 40
3.4929917254392189
 50
280.374282232418409
 51
304.0391021170063937
  0
ARC
  5
6DD5
  8
0
 10
4227.1795201464938145
 20
214.6692524871801027
 30
0.0
 40
4.5577842388425376
 50
87.8885796615104766
 51
106.8751595158999947
  0
ARC
  5
6DD6
  8
0
 10
4225.7980763588866466
 20
225.3548085744720879
 30
0.0
 40
6.3236109478088007
 50
284.1825914472594832
 51
321.9749120802882203
  0
ARC
  5
6DD7
  8
0
 10
4232.8968516247696243
 20
222.587885867906806
 30
0.0
 40
0.9692485859616496
 50
24.7377565702551614
 51
140.7663632138196874
  0
ARC
  5
6DD8
  8
0
 10
4230.0629312579958423
 20
220.9945036158547111
 30
0.0
 40
4.2179824115287854
 50
359.9514480540701129
 51
28.2889510197944816
  0
ARC
  5
6DD9
  8
0
 10
4225.8327982387272641
 20
227.5376691149419912
 30
0.0
 40
7.6593171357393981
 50
317.9548379160694935
 51
325.5139419929079168
  0
ARC
  5
6DDA
  8
0
 10
4232.8441798637868487
 20
222.5804054614391987
 30
0.0
 40
1.020331021871381
 50
167.9052922427075885
 51
23.8815219673219516
  0
ARC
  5
6DDB
  8
0
 10
4227.0549269455768808
 20
216.5587013681279132
 30
0.0
 40
0.6830275105914688
 50
26.8087836864419486
 51
155.2967882887411122
  0
ARC
  5
6DDC
  8
0
 10
4225.8934478861792741
 20
216.2129549928326924
 30
0.0
 40
1.8879155728608461
 50
4.9939278075714446
 51
20.2617045415942485
  0
ARC
  5
6DDD
  8
0
 10
4228.6707627756486545
 20
216.1164710462421965
 30
0.0
 40
2.3517664981362629
 50
161.9758162872722096
 51
174.2496490522038073
  0
ARC
  5
6DDE
  8
0
 10
4226.4506489685500128
 20
222.7542953183013026
 30
0.0
 40
0.2563875693792314
 50
125.7287865502339059
 51
161.3322512780534055
  0
ARC
  5
6DDF
  8
0
 10
4234.1379865535809586
 20
220.812766048019995
 30
0.0
 40
8.1843501066919586
 50
165.6850639633782976
 51
169.7412083073290887
  0
ARC
  5
6DE0
  8
0
 10
4226.282785845834951
 20
222.2406821798793999
 30
0.0
 40
0.2005168534779661
 50
171.4902792784666019
 51
276.0006978952707186
  0
ARC
  5
6DE1
  8
0
 10
4225.9826791131799837
 20
225.7065785046956989
 30
0.0
 40
3.6793498603410919
 50
275.0061340849653106
 51
316.0750355609545181
  0
ARC
  5
6DE2
  8
0
 10
4170.2260782553203171
 20
270.1696204471073202
 30
0.0
 40
74.9786004796641095
 50
321.1670585187521283
 51
322.8480095726288255
  0
ARC
  5
6DE3
  8
0
 10
4232.9092286730501655
 20
222.6033256735505006
 30
0.0
 40
3.709343556522013
 50
96.6293452741347636
 51
141.9870927067561865
  0
ARC
  5
6DE4
  8
0
 10
4232.4580607848884028
 20
226.4864506000614881
 30
0.0
 40
0.1999034323433812
 50
276.5893258594682038
 51
358.7825460749263016
  0
ARC
  5
6DE5
  8
0
 10
4233.2551393945077507
 20
226.4992771349328962
 30
0.0
 40
0.2001966446362584
 50
181.2921030369294897
 51
265.0956324815359721
  0
ARC
  5
6DE6
  8
0
 10
4232.9188369595185577
 20
222.562748935340494
 30
0.0
 40
3.7506708183300579
 50
58.987610051024177
 51
85.1181486367196811
  0
ARC
  5
6DE7
  8
0
 10
4211.7500780406408012
 20
200.386376138913505
 30
0.0
 40
34.3272962254246607
 50
44.6275682701292027
 51
47.7034019368835018
  0
ARC
  5
6DE8
  8
0
 10
4234.877615602804326
 20
226.0194336493707965
 30
0.0
 40
0.2435790595489581
 50
263.7908170514738231
 51
345.2590545188775195
  0
ARC
  5
6DE9
  8
0
 10
4234.7633076105748842
 20
227.4154619121418079
 30
0.0
 40
0.237697881068919
 50
14.0589529536999294
 51
95.449250300230247
  0
ARC
  5
6DEA
  8
0
 10
4237.4231769739808442
 20
243.5801509047009858
 30
0.0
 40
0.4524287977797285
 50
269.9999894932793154
 51
312.7718306617520057
  0
ARC
  5
6DEB
  8
0
 10
4238.0234955184514547
 20
243.0348657379797999
 30
0.0
 40
0.3624094308878011
 50
108.9068568879829968
 51
143.969775548646993
  0
ARC
  5
6DEC
  8
0
 10
4237.3236338113174497
 20
243.1111469971816064
 30
0.0
 40
7.403224783305598
 50
171.7903525994250913
 51
178.9938530430559922
  0
ARC
  5
6DED
  8
0
 10
4230.2729314356829491
 20
244.1251478279754963
 30
0.0
 40
0.2800000234549043
 50
91.7950768349818134
 51
171.1356021033822969
  0
ARC
  5
6DEE
  8
0
 10
4234.0433402600110639
 20
124.9745996469267055
 30
0.0
 40
119.4901888140076949
 50
88.2004947442770799
 51
91.8124263571606889
  0
ARC
  5
6DEF
  8
0
 10
4231.6145188521568343
 20
231.1568945531764996
 30
0.0
 40
0.6602347196827888
 50
185.9448633951799934
 51
266.7496406231983883
  0
ARC
  5
6DF0
  8
0
 10
4233.6752007769464399
 20
241.8077139310794053
 30
0.0
 40
3.628583304820153
 50
175.9106320971530977
 51
188.4043127251233898
  0
ARC
  5
6DF1
  8
0
 10
4230.2780267289981566
 20
242.071809356987103
 30
0.0
 40
0.2222349924460981
 50
110.6722776122379059
 51
181.3749658777975071
  0
ARC
  5
6DF2
  8
0
 10
4230.3965944175160985
 20
241.3218801070360939
 30
0.0
 40
0.3141797757190238
 50
188.1446707421729059
 51
244.1554323694278992
  0
ARC
  5
6DF3
  8
0
 10
4233.5075591753993649
 20
229.7476855443055967
 30
0.0
 40
0.1500621250458079
 50
182.0872640941281873
 51
7.1437858819917261
  0
ARC
  5
6DF4
  8
0
 10
4233.5981686461245772
 20
243.2624782891280972
 30
0.0
 40
13.9236803882062006
 50
266.6384229537944748
 51
276.8572816118114019
  0
ARC
  5
6DF5
  8
0
 10
4233.3318654727409012
 20
233.7911125531146013
 30
0.0
 40
4.462398489048355
 50
246.8601246288640141
 51
262.918376669935526
  0
LINE
  5
6DF7
  8
0
 10
4222.3235310210666285
 20
231.6605120877773913
 30
0.0
 11
4223.4160414034668065
 21
231.6605120877773913
 31
0.0
  0
ARC
  5
6DF8
  8
0
 10
4222.3338723401357129
 20
231.7530446254594949
 30
0.0
 40
0.0931086108260661
 50
197.1503494864024901
 51
263.6231574388954755
  0
ARC
  5
6DF9
  8
0
 10
4223.4148497436754042
 20
231.736917635641106
 30
0.0
 40
0.0764148401648312
 50
270.8935416778865033
 51
351.4741797908905028
  0
ARC
  5
6DFA
  8
0
 10
4222.1865245686476555
 20
231.7083749890286128
 30
0.0
 40
0.0608642476247804
 50
16.4287118406973818
 51
59.2920651579361007
  0
ARC
  5
6DFB
  8
0
 10
4223.584198875398215
 20
231.6730706338248069
 30
0.0
 40
0.1074830417740241
 50
125.3798439799835052
 51
150.7502350950676941
  0
ENDSEC
  0
EOF
