  0
SECTION
  2
HEADER
  9
$ACADVER
  1
AC1009
  9
$INSBASE
 10
4264.4277302229957058
 20
220.8621463173014092
 30
0.0
  9
$EXTMIN
 10
4256.8644841307777824
 20
192.3360927533013864
 30
0.0
  9
$EXTMAX
 10
4271.9909763152154483
 20
220.8677237462478047
 30
0.0
  9
$LIMMIN
 10
0.0
 20
0.0
  9
$LIMMAX
 10
11.6929133858000007
 20
8.2677165353999982
  9
$ORTHOMODE
 70
     1
  9
$REGENMODE
 70
     1
  9
$FILLMODE
 70
     1
  9
$QTEXTMODE
 70
     0
  9
$MIRRTEXT
 70
     0
  9
$DRAGMODE
 70
     2
  9
$LTSCALE
 40
0.6431102362
  9
$OSMODE
 70
  4095
  9
$ATTMODE
 70
     1
  9
$TEXTSIZE
 40
0.2
  9
$TRACEWID
 40
0.05
  9
$TEXTSTYLE
  7
STANDARD
  9
$CLAYER
  8
0
  9
$CELTYPE
  6
BYLAYER
  9
$CECOLOR
 62
   256
  9
$DIMSCALE
 40
1.0
  9
$DIMASZ
 40
0.1875
  9
$DIMEXO
 40
0.0625
  9
$DIMDLI
 40
0.4443307087
  9
$DIMRND
 40
0.0
  9
$DIMDLE
 40
0.0
  9
$DIMEXE
 40
0.125
  9
$DIMTP
 40
0.01
  9
$DIMTM
 40
0.01
  9
$DIMTXT
 40
2.0
  9
$DIMCEN
 40
0.1052362205
  9
$DIMTSZ
 40
0.0
  9
$DIMTOL
 70
     1
  9
$DIMLIM
 70
     0
  9
$DIMTIH
 70
     1
  9
$DIMTOH
 70
     1
  9
$DIMSE1
 70
     0
  9
$DIMSE2
 70
     0
  9
$DIMTAD
 70
     0
  9
$DIMZIN
 70
     0
  9
$DIMBLK
  1

  9
$DIMASO
 70
     1
  9
$DIMSHO
 70
     1
  9
$DIMPOST
  1
\X
  9
$DIMAPOST
  1

  9
$DIMALT
 70
     1
  9
$DIMALTD
 70
     2
  9
$DIMALTF
 40
25.3999999999999986
  9
$DIMLFAC
 40
1.0
  9
$DIMTOFL
 70
     0
  9
$DIMTVP
 40
0.0
  9
$DIMTIX
 70
     0
  9
$DIMSOXD
 70
     0
  9
$DIMSAH
 70
     0
  9
$DIMBLK1
  1

  9
$DIMBLK2
  1

  9
$DIMSTYLE
  2
STANDARD
  9
$DIMCLRD
 70
     0
  9
$DIMCLRE
 70
     0
  9
$DIMCLRT
 70
     0
  9
$DIMTFAC
 40
1.0
  9
$DIMGAP
 40
0.09
  9
$LUNITS
 70
     2
  9
$LUPREC
 70
     4
  9
$SKETCHINC
 40
0.1
  9
$FILLETRAD
 40
0.0
  9
$AUNITS
 70
     0
  9
$AUPREC
 70
     0
  9
$MENU
  1
.
  9
$ELEVATION
 40
0.0
  9
$PELEVATION
 40
0.0
  9
$THICKNESS
 40
0.0
  9
$LIMCHECK
 70
     0
  9
$BLIPMODE
 70
     0
  9
$CHAMFERA
 40
0.0
  9
$CHAMFERB
 40
0.0
  9
$SKPOLY
 70
     0
  9
$TDCREATE
 40
2458060.468368056230247
  9
$TDUPDATE
 40
2458994.0218171300366521
  9
$TDINDWG
 40
0.3068704861
  9
$TDUSRTIMER
 40
0.3068704861
  9
$USRTIMER
 70
     1
  9
$ANGBASE
 50
0.0
  9
$ANGDIR
 70
     0
  9
$PDMODE
 70
     0
  9
$PDSIZE
 40
0.3125
  9
$PLINEWID
 40
0.0
  9
$COORDS
 70
     1
  9
$SPLFRAME
 70
     0
  9
$SPLINETYPE
 70
     6
  9
$SPLINESEGS
 70
     8
  9
$ATTDIA
 70
     1
  9
$ATTREQ
 70
     1
  9
$HANDLING
 70
     1
  9
$HANDSEED
  5
6FCC
  9
$SURFTAB1
 70
     6
  9
$SURFTAB2
 70
     6
  9
$SURFTYPE
 70
     6
  9
$SURFU
 70
     6
  9
$SURFV
 70
     6
  9
$UCSNAME
  2

  9
$UCSORG
 10
0.0
 20
0.0
 30
0.0
  9
$UCSXDIR
 10
1.0
 20
0.0
 30
0.0
  9
$UCSYDIR
 10
0.0
 20
1.0
 30
0.0
  9
$PUCSNAME
  2

  9
$PUCSORG
 10
0.0
 20
0.0
 30
0.0
  9
$PUCSXDIR
 10
1.0
 20
0.0
 30
0.0
  9
$PUCSYDIR
 10
0.0
 20
1.0
 30
0.0
  9
$USERI1
 70
     0
  9
$USERI2
 70
     0
  9
$USERI3
 70
     0
  9
$USERI4
 70
     0
  9
$USERI5
 70
     0
  9
$USERR1
 40
0.0
  9
$USERR2
 40
0.0
  9
$USERR3
 40
0.0
  9
$USERR4
 40
0.0
  9
$USERR5
 40
0.0
  9
$WORLDVIEW
 70
     1
  9
$SHADEDGE
 70
     3
  9
$SHADEDIF
 70
    70
  9
$TILEMODE
 70
     1
  9
$MAXACTVP
 70
    64
  9
$PLIMCHECK
 70
     0
  9
$PEXTMIN
 10
1.0000000000000000E+20
 20
1.0000000000000000E+20
 30
1.0000000000000000E+20
  9
$PEXTMAX
 10
-1.0000000000000000E+20
 20
-1.0000000000000000E+20
 30
-1.0000000000000000E+20
  9
$PLIMMIN
 10
0.0
 20
0.0
  9
$PLIMMAX
 10
12.0
 20
9.0
  9
$UNITMODE
 70
     0
  9
$VISRETAIN
 70
     1
  9
$PLINEGEN
 70
     0
  9
$PSLTSCALE
 70
     1
  0
ENDSEC
  0
SECTION
  2
TABLES
  0
TABLE
  2
VPORT
 70
     1
  0
VPORT
  2
*ACTIVE
 70
     0
 10
0.0
 20
0.0
 11
1.0
 21
1.0
 12
0.0
 22
0.0
 13
0.0
 23
0.0
 14
1.0
 24
1.0
 15
0.0
 25
0.0
 16
0.0
 26
0.0
 36
125.5675900007077956
 17
4264.427734375
 27
206.6019069170691864
 37
0.0
 40
32.3217367484907285
 41
3.0808314087759809
 42
50.0
 43
0.0
 44
0.0
 50
0.0
 51
0.0
 71
     0
 72
   100
 73
     1
 74
     1
 75
     0
 76
     0
 77
     0
 78
     0
  0
ENDTAB
  0
TABLE
  2
LTYPE
 70
     2
  0
LTYPE
  2
CONTINUOUS
 70
     0
  3
Solid line
 72
    65
 73
     0
 40
0.0
  0
LTYPE
  2
PHANTOM2
 70
     0
  3
___ _ _ ___ _ _ ___ _ _ ___ _ _
 72
    65
 73
     6
 40
1.25
 49
0.625
 49
-0.125
 49
0.125
 49
-0.125
 49
0.125
 49
-0.125
  0
ENDTAB
  0
TABLE
  2
LAYER
 70
     2
  0
LAYER
  2
0
 70
     0
 62
   255
  6
CONTINUOUS
  0
LAYER
  2
DEFPOINTS
 70
     0
 62
     7
  6
CONTINUOUS
  0
ENDTAB
  0
TABLE
  2
STYLE
 70
     1
  0
STYLE
  2
STANDARD
 70
     0
 40
0.0
 41
0.8
 50
0.0
 71
     0
 42
0.2
  3
txt
  4

  0
ENDTAB
  0
TABLE
  2
VIEW
 70
     0
  0
ENDTAB
  0
TABLE
  2
UCS
 70
     0
  0
ENDTAB
  0
TABLE
  2
APPID
 70
     9
  0
APPID
  2
ACAD
 70
     0
  0
APPID
  2
ACAD_MLEADERVER
 70
     0
  0
APPID
  2
ACAD_EXEMPT_FROM_CAD_STANDARDS
 70
     0
  0
APPID
  2
ACAD_NAV_VCDISPLAY
 70
     0
  0
APPID
  2
ACAECLAYERSTANDARD
 70
     0
  0
APPID
  2
ACCMTRANSPARENCY
 70
     0
  0
APPID
  2
ACAD_DSTYLE_DIMJAG
 70
     0
  0
APPID
  2
ACAD_DSTYLE_DIMTALN
 70
     0
  0
APPID
  2
ACDBATTR
 70
     0
  0
ENDTAB
  0
TABLE
  2
DIMSTYLE
 70
     1
  0
DIMSTYLE
  2
STANDARD
 70
     0
  3

  4

  5

  6

  7

 40
1.0
 41
0.1875
 42
0.0625
 43
0.38
 44
0.125
 45
0.0
 46
0.0
 47
0.01
 48
0.01
140
0.15625
141
0.09
142
0.0
143
25.3999999999999986
144
1.0
145
0.0
146
1.0
147
0.09
 71
     1
 72
     0
 73
     1
 74
     1
 75
     0
 76
     0
 77
     0
 78
     4
170
     0
171
     2
172
     0
173
     0
174
     0
175
     0
176
     0
177
     0
178
     0
  0
ENDTAB
  0
ENDSEC
  0
SECTION
  2
BLOCKS
  0
BLOCK
  8
0
  2
$MODEL_SPACE
 70
     0
 10
0.0
 20
0.0
 30
0.0
  3
$MODEL_SPACE
  1

  0
ENDBLK
  5
21
  8
0
  0
BLOCK
 67
     1
  8
0
  2
$PAPER_SPACE
 70
     0
 10
0.0
 20
0.0
 30
0.0
  3
$PAPER_SPACE
  1

  0
ENDBLK
  5
1D
 67
     1
  8
0
  0
ENDSEC
  0
SECTION
  2
ENTITIES
  0
ATTDEF
  5
3930
  8
DEFPOINTS
 10
4264.4253038433280381
 20
220.8667237462476862
 30
0.0
 40
0.001
  1
402323-RA
  3

  2
MODELNUMBER
 70
     0
1001
ACDBATTR
1070
     0
1070
     1
  0
ATTDEF
  5
3931
  8
DEFPOINTS
 10
4264.4253038433280381
 20
220.8650570795809926
 30
0.0
 40
0.001
  1
WINDHAM
  3

  2
TRADENAME
 70
     0
1001
ACDBATTR
1070
     0
1070
     1
  0
ATTDEF
  5
3932
  8
DEFPOINTS
 10
4264.4253038433280381
 20
220.8633904129142991
 30
0.0
 40
0.001
  1
TOILET
  3

  2
PRODUCT
 70
     0
1001
ACDBATTR
1070
     0
1070
     1
  0
LINE
  5
6E9B
  8
0
 10
4260.8739639384957627
 20
208.6652277204013899
 30
0.0
 11
4260.8681717369963735
 21
208.7561985493013879
 31
0.0
  0
LINE
  5
6E9C
  8
0
 10
4260.3777336236962583
 20
208.6225544423299141
 30
0.0
 11
4260.3777336236962583
 21
208.7030444928014106
 31
0.0
  0
LINE
  5
6E9D
  8
0
 10
4260.8577336235957773
 20
208.5177109246014027
 30
0.0
 11
4260.8577336236958217
 21
208.4341844891013977
 31
0.0
  0
LINE
  5
6E9E
  8
0
 10
4261.1777336236964402
 20
208.8061337344014134
 30
0.0
 11
4261.1777336236964402
 21
208.800994609401414
 31
0.0
  0
LINE
  5
6E9F
  8
0
 10
4260.8985125373947085
 20
208.7695151920013927
 30
0.0
 11
4260.907946247795735
 21
209.850511325501401
 31
0.0
  0
LINE
  5
6EA0
  8
0
 10
4260.9043745154876888
 20
208.6632534257734051
 30
0.0
 11
4260.9119270263972794
 21
208.7695151174013972
 31
0.0
  0
LINE
  5
6EA1
  8
0
 10
4262.1777336236946212
 20
208.800994609401414
 30
0.0
 11
4262.1777336236946212
 21
208.8061337344014134
 31
0.0
  0
LINE
  5
6EA2
  8
0
 10
4262.4569547099963529
 20
208.7695151920013927
 30
0.0
 11
4262.4475209996962803
 21
209.850511325501401
 31
0.0
  0
LINE
  5
6EA3
  8
0
 10
4259.3568395069951293
 20
207.6230180411014032
 30
0.0
 11
4259.4001165697964097
 21
207.6230180411014032
 31
0.0
  0
LINE
  5
6EA4
  8
0
 10
4261.0277336236958945
 20
208.2641844890013942
 30
0.0
 11
4267.8277268222964267
 21
208.2641844890013942
 31
0.0
  0
LINE
  5
6EA5
  8
0
 10
4260.9035812599286146
 20
208.563354427977913
 30
0.0
 11
4260.8748683718713437
 21
208.5637991029176135
 31
0.0
  0
LINE
  5
6EA6
  8
0
 10
4260.4208200482962638
 20
208.6180487577013878
 30
0.0
 11
4260.7581046142950072
 21
208.6180487568013859
 31
0.0
  0
LINE
  5
6EA7
  8
0
 10
4260.3169166727948323
 20
208.7531693905013981
 30
0.0
 11
4260.0753340949950143
 21
208.7531693905013981
 31
0.0
  0
LINE
  5
6EA8
  8
0
 10
4260.8181736906963124
 20
208.7623323550014049
 30
0.0
 11
4260.4377428867956041
 21
208.7623323550014049
 31
0.0
  0
LINE
  5
6EA9
  8
0
 10
4260.9740453929962314
 20
208.7695147717014095
 30
0.0
 11
4260.8985125373947085
 21
208.7695151920013927
 31
0.0
  0
LINE
  5
6EAA
  8
0
 10
4262.38142185439483
 20
208.7695147717014095
 30
0.0
 11
4262.4569547099963529
 21
208.7695151920013927
 31
0.0
  0
LINE
  5
6EAB
  8
0
 10
4262.1262645561946556
 20
208.7728084165013911
 30
0.0
 11
4261.229202839395839
 21
208.7728084158013928
 31
0.0
  0
LINE
  5
6EAC
  8
0
 10
4261.1777336236964402
 20
208.800994609401414
 30
0.0
 11
4262.1777336236946212
 21
208.800994609401414
 31
0.0
  0
LINE
  5
6EAD
  8
0
 10
4262.4564738933959234
 20
208.8246113153014107
 30
0.0
 11
4266.3989865525782079
 21
208.8246113153014107
 31
0.0
  0
LINE
  5
6EAE
  8
0
 10
4258.3706439897950986
 20
219.9172653173013998
 30
0.0
 11
4270.4848164561963131
 21
219.9172653173013998
 31
0.0
  0
ARC
  5
6EAF
  8
0
 10
4224.658126541895399
 20
229.8854438563014071
 30
0.0
 40
41.1682821939999997
 50
328.0742092291959011
 51
328.9963091400009034
  0
ARC
  5
6EB0
  8
0
 10
4261.0384483376947173
 20
208.4448992029608121
 30
0.0
 40
0.1810320770955374
 50
183.3931381478184051
 51
266.6068616401987015
  0
ARC
  5
6EB1
  8
0
 10
4261.8634768855226866
 20
209.8046125126682
 30
0.0
 40
0.585844884179235
 50
4.4935206399361389
 51
48.0932295763740711
  0
ARC
  5
6EB2
  8
0
 10
4261.5260803274168211
 20
209.7877691064821875
 30
0.0
 40
0.6213101692693441
 50
133.2090706077557059
 51
174.2041791130438071
  0
ARC
  5
6EB3
  8
0
 10
4261.9627336236962947
 20
208.8921844890014086
 30
0.0
 40
0.125
 50
287.2521954764192742
 51
313.1539116444786259
  0
ARC
  5
6EB4
  8
0
 10
4261.3927336236947667
 20
208.8921844890014086
 30
0.0
 40
0.125
 50
226.8460883555214025
 51
252.747805300425199
  0
ARC
  5
6EB5
  8
0
 10
4264.4991138958857846
 20
246.8390554739565914
 30
0.0
 40
35.1162638906923306
 50
261.7528497950033284
 51
269.8835301496480952
  0
ARC
  5
6EB6
  8
0
 10
4290.4527489568963574
 20
216.0619958095014113
 30
0.0
 40
33.4618369466999965
 50
174.989955520700903
 51
180.6230111217996068
  0
LINE
  5
6EB7
  8
0
 10
4260.3558201842970448
 20
208.6260802615013858
 30
0.0
 11
4260.3490180685957966
 21
208.7231706170013865
 31
0.0
  0
ARC
  5
6EB8
  8
0
 10
4264.7941802237892261
 20
201.1943324138954097
 30
0.0
 40
8.8658161207867554
 50
250.4837702640732005
 51
267.6311237376798999
  0
ARC
  5
6EB9
  8
0
 10
4265.9612697166157886
 20
201.0127153716657915
 30
0.0
 40
9.1583781442568721
 50
209.571800031875398
 51
243.2026640926495986
  0
ARC
  5
6EBA
  8
0
 10
4268.781009861891107
 20
200.8108555772361115
 30
0.0
 40
11.9193435710220896
 50
150.4945150593626124
 51
178.75411437436901
  0
ARC
  5
6EBB
  8
0
 10
4228.382604479422298
 20
221.1033284708962015
 30
0.0
 40
33.30903664981075
 50
334.3432343432859852
 51
337.5996333951428028
  0
ARC
  5
6EBC
  8
0
 10
4258.506242434044907
 20
218.144143021335907
 30
0.0
 40
1.778299641380203
 50
94.3731477799405951
 51
125.8499731869107023
  0
ARC
  5
6EBD
  8
0
 10
4257.9795583842051201
 20
218.8891287390850096
 30
0.0
 40
0.8660397454830757
 50
126.4723011410683
 51
173.6954838603842859
  0
ARC
  5
6EBE
  8
0
 10
4262.5629611285376086
 20
216.0215058208474943
 30
0.0
 40
5.5794487027447177
 50
183.3224011906858948
 51
215.8051735906007025
  0
ARC
  5
6EBF
  8
0
 10
4260.0053618490546796
 20
215.084189353589494
 30
0.0
 40
3.0470964870578241
 50
229.7846581102211019
 51
259.726438011649293
  0
ARC
  5
6EC0
  8
0
 10
4245.5469162349918406
 20
214.0419590123121907
 30
0.0
 40
14.7489668441525303
 50
337.5515855838413017
 51
352.0137117163858989
  0
ARC
  5
6EC1
  8
0
 10
4299.7059139137882084
 20
207.5351544133791037
 30
0.0
 40
40.5370951669781192
 50
173.5446284736156883
 51
178.7633206109275932
  0
LINE
  5
6EC2
  8
0
 10
4261.4032156491948626
 20
210.343478855301413
 30
0.0
 11
4261.9522514010677696
 21
210.343478855301413
 31
0.0
  0
ARC
  5
6EC3
  8
0
 10
4261.9333207141999083
 20
209.7914996906048941
 30
0.0
 40
0.5523036928758746
 50
54.4069766836156674
 51
88.0357528517695016
  0
ARC
  5
6EC4
  8
0
 10
4261.4208447765222445
 20
209.7953282886811053
 30
0.0
 40
0.5484339794510182
 50
91.8420605895779545
 51
125.715232579495094
  0
ARC
  5
6EC5
  8
0
 10
4260.9710985267247452
 20
208.8059465555710119
 30
0.0
 40
0.0365507714932021
 50
274.6244292447307203
 51
347.6358919396154192
  0
ARC
  5
6EC6
  8
0
 10
4261.0285991121891129
 20
208.7727133341797128
 30
0.0
 40
0.0334759750459906
 50
93.3019474896515817
 51
130.6276174814134095
  0
LINE
  5
6EC7
  8
0
 10
4261.0266709642946807
 20
208.8061337344014134
 30
0.0
 11
4262.3287965030085616
 21
208.8061337344014134
 31
0.0
  0
ARC
  5
6EC8
  8
0
 10
4262.3277643286510283
 20
208.7749970267703077
 30
0.0
 40
0.0311538110992899
 50
47.5483472573309527
 51
88.1013539849561482
  0
ARC
  5
6EC9
  8
0
 10
4262.3835129669650996
 20
208.8048452419710941
 30
0.0
 40
0.035392299745272
 50
191.1786525672856101
 51
266.6127732904395771
  0
ARC
  5
6ECA
  8
0
 10
4261.2340935021384212
 20
208.8733723820988928
 30
0.0
 40
0.100682819991611
 50
221.8995280611410976
 51
267.2157648459145776
  0
ARC
  5
6ECB
  8
0
 10
4261.112132023176855
 20
211.2220135817404127
 30
0.0
 40
2.452001535317629
 50
267.0821831645362749
 51
272.7366274624980065
  0
ARC
  5
6ECC
  8
0
 10
4262.1262312805738475
 20
208.8631604195363991
 30
0.0
 40
0.0903520133625079
 50
270.0211013863349763
 51
320.8641542145351195
  0
ARC
  5
6ECD
  8
0
 10
4262.2499828110021554
 20
211.5042159459715947
 30
0.0
 40
2.734207983789652
 50
267.4065780743728737
 51
272.4933646656518818
  0
ARC
  5
6ECE
  8
0
 10
4260.743234478368322
 20
208.5036521559242999
 30
0.0
 40
0.115359018870465
 50
7.0000204121938987
 51
82.5937883393877286
  0
ARC
  5
6ECF
  8
0
 10
4260.312139524140548
 20
208.7158823276932935
 30
0.0
 40
0.0375918369080123
 50
11.1792788317880607
 51
82.6991447049609008
  0
ARC
  5
6ED0
  8
0
 10
4260.4441468796758272
 20
208.6958367878089007
 30
0.0
 40
0.0668032303189831
 50
95.5010227743627951
 51
173.8060397722366019
  0
ARC
  5
6ED1
  8
0
 10
4260.4608165858662687
 20
209.2087865942617952
 30
0.0
 40
0.5920902925751168
 50
259.7856204043275739
 51
266.1266393385686797
  0
LINE
  5
6ED2
  8
0
 10
4260.8766527259003851
 20
208.363690872468112
 30
0.0
 11
4260.8739639384957627
 21
208.6652277204013899
 31
0.0
  0
ARC
  5
6ED3
  8
0
 10
4260.799088442449829
 20
208.3999245225292896
 30
0.0
 40
0.3629100215449023
 50
79.0262472287322737
 51
86.9854542970975757
  0
LINE
  5
6ED4
  8
0
 10
4260.9016986978012937
 20
208.3262731142351072
 30
0.0
 11
4260.9043745154876888
 21
208.6632534257734051
 31
0.0
  0
ARC
  5
6ED5
  8
0
 10
4260.0948029540104471
 20
208.5656480839467122
 30
0.0
 40
0.1885292468325292
 50
95.9273330382810343
 51
142.6834577987837065
  0
ARC
  5
6ED6
  8
0
 10
4260.6188391215091542
 20
207.4162023047346111
 30
0.0
 40
1.2361461915413141
 50
145.5870247082411026
 51
170.3687291056236859
  0
ARC
  5
6ED7
  8
0
 10
4259.3678563719540762
 20
207.5040216411429128
 30
0.0
 40
0.1195052907474101
 50
95.2894509324024739
 51
137.7110507226952905
  0
ARC
  5
6ED8
  8
0
 10
4267.8143427511249683
 20
201.7577817843520904
 30
0.0
 40
10.3341299956151502
 50
145.6791924482789113
 51
150.7889397466263119
  0
ARC
  5
6ED9
  8
0
 10
4268.4800940482136866
 20
201.3824336412183982
 30
0.0
 40
11.0983970857575596
 50
150.7749547302854864
 51
160.1404686711969134
  0
ARC
  5
6EDA
  8
0
 10
4271.5240861725133072
 20
200.7257087681499002
 30
0.0
 40
14.1905686271668401
 50
161.8220555998906036
 51
178.6096781584132884
  0
ARC
  5
6EDB
  8
0
 10
4266.8835014213273098
 20
201.1951547592651934
 30
0.0
 40
9.5466263741296
 50
180.7510462523732997
 51
230.4885699343361125
  0
ARC
  5
6EDC
  8
0
 10
4264.4287982198702593
 20
199.1073289427752968
 30
0.0
 40
6.3991445554934163
 50
235.5580833361032091
 51
269.9904375165673969
  0
ARC
  5
6EDD
  8
0
 10
4258.4409005893476206
 20
207.5911801165869122
 30
0.0
 40
0.9597442110189058
 50
344.7837613778099808
 51
1.9010413648332101
  0
ARC
  5
6EDE
  8
0
 10
4257.9297855581726253
 20
207.8463017026217869
 30
0.0
 40
1.5240236664373961
 50
328.5257200955729786
 51
340.5682224611160791
  0
ARC
  5
6EDF
  8
0
 10
4268.6377443160072289
 20
201.3172924583240899
 30
0.0
 40
11.0174440179800897
 50
148.6420425632364015
 51
159.036581801804914
  0
ARC
  5
6EE0
  8
0
 10
4269.1080676816518462
 20
201.1694134853769924
 30
0.0
 40
11.5095827210686998
 50
159.1868094859854068
 51
173.8104143694012009
  0
ARC
  5
6EE1
  8
0
 10
4270.7220541029646483
 20
201.0213621526542056
 30
0.0
 40
13.1301506408376305
 50
173.9274900788306866
 51
179.7876767225336891
  0
ARC
  5
6EE2
  8
0
 10
4286.5658296627379968
 20
201.9271234898637886
 30
0.0
 40
28.9865107138627707
 50
181.6944305958919017
 51
183.2817013990757005
  0
ARC
  5
6EE3
  8
0
 10
4267.0394938687413742
 20
201.0558290993579078
 30
0.0
 40
9.4455720218396362
 50
184.7857475986862141
 51
208.4115224544360956
  0
ARC
  5
6EE4
  8
0
 10
4266.1284899371494248
 20
200.6213807823239961
 30
0.0
 40
8.4377410503190831
 50
208.7601201258742947
 51
225.7098161742526088
  0
ARC
  5
6EE5
  8
0
 10
4264.4690510081782122
 20
198.6718702768546052
 30
0.0
 40
5.886040386508979
 50
224.0208669915897133
 51
256.7676124346323263
  0
ARC
  5
6EE6
  8
0
 10
4264.9144944365871197
 20
204.2462886864524023
 30
0.0
 40
11.4454596852286805
 50
260.9883395599997016
 51
267.562531339293173
  0
ARC
  5
6EE7
  8
0
 10
4253.4384721654487294
 20
204.1333384197284033
 30
0.0
 40
7.9375516861882671
 50
33.3049933874654727
 51
34.9454448215426368
  0
ARC
  5
6EE8
  8
0
 10
4255.2457615492139666
 20
207.6053381308996109
 30
0.0
 40
4.9073269002773072
 50
355.2588832128967056
 51
10.4072291758163704
  0
ARC
  5
6EE9
  8
0
 10
4246.7250736811947718
 20
208.0678000852606999
 30
0.0
 40
13.4392880299826096
 50
342.0874289756088729
 51
356.2965720125127973
  0
ARC
  5
6EEA
  8
0
 10
4272.9543319348340447
 20
199.4698874400619957
 30
0.0
 40
14.1634366130157598
 50
161.6265259280029056
 51
177.7201218166540002
  0
ARC
  5
6EEB
  8
0
 10
4265.7112922398791852
 20
199.8236814477218957
 30
0.0
 40
6.9123652693126623
 50
178.2620524683447059
 51
229.166996101934302
  0
ARC
  5
6EEC
  8
0
 10
4264.524166413133571
 20
197.9806973815944104
 30
0.0
 40
4.7516372781938854
 50
225.4644385517497085
 51
268.8370816723816006
  0
ARC
  5
6EED
  8
0
 10
4268.6570598588059511
 20
201.5566108921495072
 30
0.0
 40
11.8026104739884907
 50
182.3628304520476888
 51
205.4060606087587075
  0
LINE
  5
6EEE
  8
0
 10
4267.981496507495649
 20
208.6652277204013899
 30
0.0
 11
4267.9872887089959477
 21
208.7561985493013879
 31
0.0
  0
LINE
  5
6EEF
  8
0
 10
4268.4777268222960629
 20
208.6225544423299141
 30
0.0
 11
4268.4777268222960629
 21
208.7030444928014106
 31
0.0
  0
LINE
  5
6EF0
  8
0
 10
4267.9977268223956344
 20
208.5177109246014027
 30
0.0
 11
4267.9977268222946805
 21
208.4341844891013977
 31
0.0
  0
LINE
  5
6EF1
  8
0
 10
4267.6777268222949715
 20
208.8061337344014134
 30
0.0
 11
4267.6777268222949715
 21
208.800994609401414
 31
0.0
  0
LINE
  5
6EF2
  8
0
 10
4267.9569479085948842
 20
208.7695151920013927
 30
0.0
 11
4267.9475141981956767
 21
209.850511325501401
 31
0.0
  0
LINE
  5
6EF3
  8
0
 10
4267.9510859305037229
 20
208.6632534257734051
 30
0.0
 11
4267.9435334195959513
 21
208.7695151174013972
 31
0.0
  0
LINE
  5
6EF4
  8
0
 10
4266.677726822295881
 20
208.800994609401414
 30
0.0
 11
4266.677726822295881
 21
208.8061337344014134
 31
0.0
  0
LINE
  5
6EF5
  8
0
 10
4266.3985057359950588
 20
208.7695151920013927
 30
0.0
 11
4266.4079394462951313
 21
209.850511325501401
 31
0.0
  0
LINE
  5
6EF6
  8
0
 10
4269.4986209389962823
 20
207.6230180411014032
 30
0.0
 11
4269.4553438761950019
 21
207.6230180411014032
 31
0.0
  0
LINE
  5
6EF7
  8
0
 10
4267.9518791860618876
 20
208.563354427977913
 30
0.0
 11
4267.980592074120068
 21
208.5637991029176135
 31
0.0
  0
LINE
  5
6EF8
  8
0
 10
4268.4346403976951478
 20
208.6180487577013878
 30
0.0
 11
4268.0973558316964045
 21
208.6180487568013859
 31
0.0
  0
LINE
  5
6EF9
  8
0
 10
4268.5385437731947604
 20
208.7531693905013981
 30
0.0
 11
4268.7801263509945784
 21
208.7531693905013981
 31
0.0
  0
LINE
  5
6EFA
  8
0
 10
4268.0372867552960088
 20
208.7623323550014049
 30
0.0
 11
4268.4177175591958076
 21
208.7623323550014049
 31
0.0
  0
LINE
  5
6EFB
  8
0
 10
4267.8814150529960898
 20
208.7695147717014095
 30
0.0
 11
4267.9569479085948842
 21
208.7695151920013927
 31
0.0
  0
LINE
  5
6EFC
  8
0
 10
4266.4740385915947627
 20
208.7695147717014095
 30
0.0
 11
4266.3985057359950588
 21
208.7695151920013927
 31
0.0
  0
LINE
  5
6EFD
  8
0
 10
4266.7291958897958466
 20
208.7728084165013911
 30
0.0
 11
4267.6262576065955727
 21
208.7728084158013928
 31
0.0
  0
LINE
  5
6EFE
  8
0
 10
4267.6777268222949715
 20
208.800994609401414
 30
0.0
 11
4266.677726822295881
 21
208.800994609401414
 31
0.0
  0
ARC
  5
6EFF
  8
0
 10
4304.1973339040951032
 20
229.8854438563014071
 30
0.0
 40
41.1682821939999997
 50
211.0036908599990966
 51
211.9257907708040989
  0
ARC
  5
6F00
  8
0
 10
4267.8170121082966944
 20
208.4448992029608121
 30
0.0
 40
0.1810320770955374
 50
273.3931383598012985
 51
356.6068618521815097
  0
ARC
  5
6F01
  8
0
 10
4266.9919835604678156
 20
209.8046125126682
 30
0.0
 40
0.585844884179235
 50
131.9067704236258862
 51
175.5064793600637927
  0
ARC
  5
6F02
  8
0
 10
4267.3293801185736811
 20
209.7877691064821875
 30
0.0
 40
0.6213101692693441
 50
5.795820886956192
 51
46.7909293922442728
  0
ARC
  5
6F03
  8
0
 10
4266.8927268222960265
 20
208.8921844890014086
 30
0.0
 40
0.125
 50
226.8460883555214025
 51
252.7478045235797026
  0
ARC
  5
6F04
  8
0
 10
4267.462726822294826
 20
208.8921844890014086
 30
0.0
 40
0.125
 50
287.2521946995747726
 51
313.1539116444786259
  0
ARC
  5
6F05
  8
0
 10
4264.3563465501038081
 20
246.8390554739565914
 30
0.0
 40
35.1162638906923306
 50
270.1164698503517911
 51
278.2471502049966716
  0
ARC
  5
6F06
  8
0
 10
4238.4027114890959638
 20
216.0619958095014113
 30
0.0
 40
33.4618369466999965
 50
359.3769888782002795
 51
5.010044479299113
  0
LINE
  5
6F07
  8
0
 10
4268.4996402616961859
 20
208.6260802615013858
 30
0.0
 11
4268.506442377395615
 21
208.7231706170013865
 31
0.0
  0
ARC
  5
6F08
  8
0
 10
4264.0612802222021855
 20
201.1943324138954097
 30
0.0
 40
8.8658161207867554
 50
272.3688762623201001
 51
289.5162297359266859
  0
ARC
  5
6F09
  8
0
 10
4262.8941907293756231
 20
201.0127153716657915
 30
0.0
 40
9.1583781442568721
 50
296.797335907350373
 51
330.428199968124602
  0
ARC
  5
6F0A
  8
0
 10
4260.0744505841012142
 20
200.8108555772361115
 30
0.0
 40
11.9193435710220896
 50
1.2458856256309709
 51
29.5054849406373307
  0
ARC
  5
6F0B
  8
0
 10
4300.4728559665700232
 20
221.1033284708962015
 30
0.0
 40
33.30903664981075
 50
202.400366604857112
 51
205.6567656567139011
  0
ARC
  5
6F0C
  8
0
 10
4270.3492180119455952
 20
218.144143021335907
 30
0.0
 40
1.778299641380203
 50
54.1500268130892906
 51
85.6268522200594191
  0
ARC
  5
6F0D
  8
0
 10
4270.8759020617881106
 20
218.8891287390850096
 30
0.0
 40
0.8660397454830757
 50
6.304516139615667
 51
53.5276988589316929
  0
ARC
  5
6F0E
  8
0
 10
4266.2924993174538031
 20
216.0215058208474943
 30
0.0
 40
5.5794487027447177
 50
324.1948264093992975
 51
356.6775988093124283
  0
ARC
  5
6F0F
  8
0
 10
4268.8500985969376416
 20
215.084189353589494
 30
0.0
 40
3.0470964870578241
 50
280.2735619883505933
 51
310.2153418897788129
  0
ARC
  5
6F10
  8
0
 10
4283.3085442109977521
 20
214.0419590123121907
 30
0.0
 40
14.7489668441525303
 50
187.9862882836139875
 51
202.4484144161586983
  0
ARC
  5
6F11
  8
0
 10
4229.1495465322041127
 20
207.5351544133791037
 30
0.0
 40
40.5370951669781192
 50
1.2366793890723089
 51
5.9058416056736931
  0
LINE
  5
6F12
  8
0
 10
4267.4522447967947301
 20
210.343478855301413
 30
0.0
 11
4266.9032090449218231
 21
210.343478855301413
 31
0.0
  0
ARC
  5
6F13
  8
0
 10
4266.9221397317924129
 20
209.7914996906048941
 30
0.0
 40
0.5523036928758746
 50
91.9642471482304984
 51
125.5930233163843042
  0
ARC
  5
6F14
  8
0
 10
4267.4346156694682577
 20
209.7953282886811053
 30
0.0
 40
0.5484339794510182
 50
54.2847674205048421
 51
88.1579394104220313
  0
ARC
  5
6F15
  8
0
 10
4267.8843619192666665
 20
208.8059465555710119
 30
0.0
 40
0.0365507714932021
 50
192.3641080603846092
 51
265.3755707552693934
  0
ARC
  5
6F16
  8
0
 10
4267.8268613338022988
 20
208.7727133341797128
 30
0.0
 40
0.0334759750459906
 50
49.3723825185865977
 51
86.6980525103484183
  0
LINE
  5
6F17
  8
0
 10
4267.8287894816958215
 20
208.8061337344014134
 30
0.0
 11
4266.5266639429819406
 21
208.8061337344014134
 31
0.0
  0
ARC
  5
6F18
  8
0
 10
4266.5276961173403834
 20
208.7749970267703077
 30
0.0
 40
0.0311538110992899
 50
91.8986460150438376
 51
132.4516527426690971
  0
ARC
  5
6F19
  8
0
 10
4266.4719474790263121
 20
208.8048452419710941
 30
0.0
 40
0.035392299745272
 50
273.3872267095084112
 51
348.8213474327142762
  0
ARC
  5
6F1A
  8
0
 10
4267.6213669438529905
 20
208.8733723820988928
 30
0.0
 40
0.100682819991611
 50
272.7842351540854224
 51
318.1004719388589024
  0
ARC
  5
6F1B
  8
0
 10
4267.7433284228163757
 20
211.2220135817404127
 30
0.0
 40
2.452001535317629
 50
267.2633725375021072
 51
272.9178168354637251
  0
ARC
  5
6F1C
  8
0
 10
4266.7292291654166547
 20
208.8631604195363991
 30
0.0
 40
0.0903520133625079
 50
219.1358457854649089
 51
269.97889861366491
  0
ARC
  5
6F1D
  8
0
 10
4266.6054776349892563
 20
211.5042159459715947
 30
0.0
 40
2.734207983789652
 50
267.5066353343481182
 51
272.5934219256270126
  0
ARC
  5
6F1E
  8
0
 10
4268.1122259676249087
 20
208.5036521559242999
 30
0.0
 40
0.115359018870465
 50
97.4062116606122714
 51
172.9999795878061093
  0
ARC
  5
6F1F
  8
0
 10
4268.5433209218508637
 20
208.7158823276932935
 30
0.0
 40
0.0375918369080123
 50
97.3008552950391135
 51
168.8207211682118896
  0
ARC
  5
6F20
  8
0
 10
4268.4113135663174035
 20
208.6958367878089007
 30
0.0
 40
0.0668032303189831
 50
6.1939602277634069
 51
84.4989772256373755
  0
ARC
  5
6F21
  8
0
 10
4268.394643860125143
 20
209.2087865942617952
 30
0.0
 40
0.5920902925751168
 50
273.8733606614313203
 51
280.2143795956724261
  0
LINE
  5
6F22
  8
0
 10
4267.9788077200910266
 20
208.363690872468112
 30
0.0
 11
4267.981496507495649
 21
208.6652277204013899
 31
0.0
  0
ARC
  5
6F23
  8
0
 10
4268.0563720035406732
 20
208.3999245225292896
 30
0.0
 40
0.3629100215449023
 50
93.0145457029024243
 51
100.9737527712676979
  0
LINE
  5
6F24
  8
0
 10
4267.9537617481910274
 20
208.3262731142351072
 30
0.0
 11
4267.9510859305037229
 21
208.6632534257734051
 31
0.0
  0
ARC
  5
6F25
  8
0
 10
4268.760657491981874
 20
208.5656480839467122
 30
0.0
 40
0.1885292468325292
 50
37.3165422012162935
 51
84.0726669617189657
  0
ARC
  5
6F26
  8
0
 10
4268.236621324483167
 20
207.4162023047346111
 30
0.0
 40
1.2361461915413141
 50
9.6312708943763337
 51
34.4129752917588903
  0
ARC
  5
6F27
  8
0
 10
4269.487604074036426
 20
207.5040216411429128
 30
0.0
 40
0.1195052907474101
 50
42.2889492773046669
 51
84.7105490675975261
  0
ARC
  5
6F28
  8
0
 10
4261.0411176948646244
 20
201.7577817843520904
 30
0.0
 40
10.3341299956151502
 50
29.211060253373649
 51
34.3208075517211171
  0
ARC
  5
6F29
  8
0
 10
4260.3753663977768156
 20
201.3824336412183982
 30
0.0
 40
11.0983970857575596
 50
19.8595313288030901
 51
29.2250452697144603
  0
ARC
  5
6F2A
  8
0
 10
4257.3313742734790139
 20
200.7257087681499002
 30
0.0
 40
14.1905686271668401
 50
1.390321841586696
 51
18.1779444001093289
  0
ARC
  5
6F2B
  8
0
 10
4261.9719590246641019
 20
201.1951547592651934
 30
0.0
 40
9.5466263741296
 50
309.5114300656637738
 51
359.2489537476250234
  0
ARC
  5
6F2C
  8
0
 10
4264.4266622261229713
 20
199.1073289427752968
 30
0.0
 40
6.3991445554934367
 50
270.0095624834326031
 51
304.4419166638967909
  0
ARC
  5
6F2D
  8
0
 10
4270.4145598566437911
 20
207.5911801165869122
 30
0.0
 40
0.9597442110189058
 50
178.0989586351668095
 51
195.2162386221885129
  0
ARC
  5
6F2E
  8
0
 10
4270.9256748878178769
 20
207.8463017026217869
 30
0.0
 40
1.5240236664373961
 50
199.4317775388838072
 51
211.474279904426993
  0
ARC
  5
6F2F
  8
0
 10
4260.2177161299841828
 20
201.3172924583240899
 30
0.0
 40
11.0174440179800897
 50
20.9634181981950505
 51
31.3579574367635594
  0
ARC
  5
6F30
  8
0
 10
4259.7473927643395655
 20
201.1694134853769924
 30
0.0
 40
11.5095827210686998
 50
6.1895856305987849
 51
20.8131905140146003
  0
ARC
  5
6F31
  8
0
 10
4258.1334063430258539
 20
201.0213621526542056
 30
0.0
 40
13.1301506408376305
 50
0.2123232774662562
 51
6.0725099211692788
  0
ARC
  5
6F32
  8
0
 10
4242.2896307832534148
 20
201.9271234898637886
 30
0.0
 40
28.9865107138627707
 50
356.7182986009241858
 51
358.3055694041079846
  0
ARC
  5
6F33
  8
0
 10
4261.815966577250947
 20
201.0558290993579078
 30
0.0
 40
9.4455720218396362
 50
331.5884775455638191
 51
355.2142524013136722
  0
ARC
  5
6F34
  8
0
 10
4262.7269705088419869
 20
200.6213807823239961
 30
0.0
 40
8.4377410503190831
 50
314.2901838257474196
 51
331.2398798741256769
  0
ARC
  5
6F35
  8
0
 10
4264.386409437814109
 20
198.6718702768546052
 30
0.0
 40
5.886040386508979
 50
283.2323875653676737
 51
315.9791330084090077
  0
ARC
  5
6F36
  8
0
 10
4263.940966009404292
 20
204.2462886864524023
 30
0.0
 40
11.4454596852286805
 50
272.4374686607067133
 51
279.0116604400004121
  0
ARC
  5
6F37
  8
0
 10
4275.4169882805417728
 20
204.1333384197284033
 30
0.0
 40
7.9375516861882671
 50
145.0545551784574059
 51
146.6950066125345131
  0
ARC
  5
6F38
  8
0
 10
4273.609698896779264
 20
207.6053381308996109
 30
0.0
 40
4.9073269002773072
 50
169.5927708241835887
 51
184.7411167871032944
  0
ARC
  5
6F39
  8
0
 10
4282.1303867647966399
 20
208.0678000852606999
 30
0.0
 40
13.4392880299826096
 50
183.703427987487288
 51
197.9125710243895071
  0
ARC
  5
6F3A
  8
0
 10
4255.901128511157367
 20
199.4698874400619957
 30
0.0
 40
14.1634366130157598
 50
2.279878183345978
 51
18.3734740719970588
  0
ARC
  5
6F3B
  8
0
 10
4263.1441682061122265
 20
199.8236814477218957
 30
0.0
 40
6.9123652693126623
 50
310.8330038980656127
 51
1.737947531655349
  0
ARC
  5
6F3C
  8
0
 10
4264.3312940328569312
 20
197.9806973815944104
 30
0.0
 40
4.7516372781938916
 50
271.1629183276183994
 51
314.5355614482502915
  0
ARC
  5
6F3D
  8
0
 10
4260.1984005871845511
 20
201.5566108921495072
 30
0.0
 40
11.8026104739884907
 50
334.5939393912412925
 51
357.6371695479522259
  0
LINE
  5
6F3F
  8
0
 10
4270.8797322845448434
 20
211.8927911455014055
 30
0.0
 11
4269.0588194926458527
 21
211.6514917983014072
 31
0.0
  0
LINE
  5
6F40
  8
0
 10
4268.819366778317999
 20
211.6773275729013903
 30
0.0
 11
4268.7717030173307649
 21
212.0014806888474084
 31
0.0
  0
LINE
  5
6F41
  8
0
 10
4270.0892596709782083
 20
212.3004370596482886
 30
0.0
 11
4270.8390250601605658
 21
212.3940325494071999
 31
0.0
  0
LINE
  5
6F42
  8
0
 10
4270.8928391802719489
 20
211.909347722201403
 30
0.0
 11
4270.8390250601605658
 21
212.3940325494071999
 31
0.0
  0
ARC
  5
6F43
  8
0
 10
4270.8677325627368191
 20
211.9157569181496115
 30
0.0
 40
0.0259117740966766
 50
297.5872746316852044
 51
345.6794316367887063
  0
ARC
  5
6F44
  8
0
 10
4268.7796760640876528
 20
213.5776068599705013
 30
0.0
 40
1.946237468680355
 50
272.7178373384463157
 51
278.2462135448612912
  0
ARC
  5
6F45
  8
0
 10
4268.8700972980022925
 20
211.6848030319804082
 30
0.0
 40
0.0512783396369701
 50
188.3825658837448032
 51
272.0835674425031812
  0
ENDSEC
  0
EOF
