  0
SECTION
  2
HEADER
  9
$ACADVER
  1
AC1009
  9
$INSBASE
 10
4235.4147326059674015
 20
201.9210062864098063
 30
0.0
  9
$EXTMIN
 10
4227.8514865137485685
 20
201.915072999921108
 30
0.0
  9
$EXTMAX
 10
4242.9779786981853249
 20
231.0380728041230896
 30
0.0
  9
$LIMMIN
 10
0.0
 20
0.0
  9
$LIMMAX
 10
11.6929133858000007
 20
8.2677165353999982
  9
$ORTHOMODE
 70
     1
  9
$REGENMODE
 70
     1
  9
$FILLMODE
 70
     1
  9
$QTEXTMODE
 70
     0
  9
$MIRRTEXT
 70
     0
  9
$DRAGMODE
 70
     2
  9
$LTSCALE
 40
0.6431102362
  9
$OSMODE
 70
  4095
  9
$ATTMODE
 70
     1
  9
$TEXTSIZE
 40
0.2
  9
$TRACEWID
 40
0.05
  9
$TEXTSTYLE
  7
STANDARD
  9
$CLAYER
  8
0
  9
$CELTYPE
  6
BYLAYER
  9
$CECOLOR
 62
   256
  9
$DIMSCALE
 40
1.0
  9
$DIMASZ
 40
0.1875
  9
$DIMEXO
 40
0.0625
  9
$DIMDLI
 40
0.4443307087
  9
$DIMRND
 40
0.0
  9
$DIMDLE
 40
0.0
  9
$DIMEXE
 40
0.125
  9
$DIMTP
 40
0.01
  9
$DIMTM
 40
0.01
  9
$DIMTXT
 40
2.0
  9
$DIMCEN
 40
0.1052362205
  9
$DIMTSZ
 40
0.0
  9
$DIMTOL
 70
     1
  9
$DIMLIM
 70
     0
  9
$DIMTIH
 70
     1
  9
$DIMTOH
 70
     1
  9
$DIMSE1
 70
     0
  9
$DIMSE2
 70
     0
  9
$DIMTAD
 70
     0
  9
$DIMZIN
 70
     0
  9
$DIMBLK
  1

  9
$DIMASO
 70
     1
  9
$DIMSHO
 70
     1
  9
$DIMPOST
  1
\X
  9
$DIMAPOST
  1

  9
$DIMALT
 70
     1
  9
$DIMALTD
 70
     2
  9
$DIMALTF
 40
25.3999999999999986
  9
$DIMLFAC
 40
1.0
  9
$DIMTOFL
 70
     0
  9
$DIMTVP
 40
0.0
  9
$DIMTIX
 70
     0
  9
$DIMSOXD
 70
     0
  9
$DIMSAH
 70
     0
  9
$DIMBLK1
  1

  9
$DIMBLK2
  1

  9
$DIMSTYLE
  2
STANDARD
  9
$DIMCLRD
 70
     0
  9
$DIMCLRE
 70
     0
  9
$DIMCLRT
 70
     0
  9
$DIMTFAC
 40
1.0
  9
$DIMGAP
 40
0.09
  9
$LUNITS
 70
     2
  9
$LUPREC
 70
     4
  9
$SKETCHINC
 40
0.1
  9
$FILLETRAD
 40
0.0
  9
$AUNITS
 70
     0
  9
$AUPREC
 70
     0
  9
$MENU
  1
.
  9
$ELEVATION
 40
0.0
  9
$PELEVATION
 40
0.0
  9
$THICKNESS
 40
0.0
  9
$LIMCHECK
 70
     0
  9
$BLIPMODE
 70
     0
  9
$CHAMFERA
 40
0.0
  9
$CHAMFERB
 40
0.0
  9
$SKPOLY
 70
     0
  9
$TDCREATE
 40
2458060.468368056230247
  9
$TDUPDATE
 40
2458994.0217013889923692
  9
$TDINDWG
 40
0.3058982639
  9
$TDUSRTIMER
 40
0.3058982639
  9
$USRTIMER
 70
     1
  9
$ANGBASE
 50
0.0
  9
$ANGDIR
 70
     0
  9
$PDMODE
 70
     0
  9
$PDSIZE
 40
0.3125
  9
$PLINEWID
 40
0.0
  9
$COORDS
 70
     1
  9
$SPLFRAME
 70
     0
  9
$SPLINETYPE
 70
     6
  9
$SPLINESEGS
 70
     8
  9
$ATTDIA
 70
     1
  9
$ATTREQ
 70
     1
  9
$HANDLING
 70
     1
  9
$HANDSEED
  5
6E42
  9
$SURFTAB1
 70
     6
  9
$SURFTAB2
 70
     6
  9
$SURFTYPE
 70
     6
  9
$SURFU
 70
     6
  9
$SURFV
 70
     6
  9
$UCSNAME
  2

  9
$UCSORG
 10
0.0
 20
0.0
 30
0.0
  9
$UCSXDIR
 10
1.0
 20
0.0
 30
0.0
  9
$UCSYDIR
 10
0.0
 20
1.0
 30
0.0
  9
$PUCSNAME
  2

  9
$PUCSORG
 10
0.0
 20
0.0
 30
0.0
  9
$PUCSXDIR
 10
1.0
 20
0.0
 30
0.0
  9
$PUCSYDIR
 10
0.0
 20
1.0
 30
0.0
  9
$USERI1
 70
     0
  9
$USERI2
 70
     0
  9
$USERI3
 70
     0
  9
$USERI4
 70
     0
  9
$USERI5
 70
     0
  9
$USERR1
 40
0.0
  9
$USERR2
 40
0.0
  9
$USERR3
 40
0.0
  9
$USERR4
 40
0.0
  9
$USERR5
 40
0.0
  9
$WORLDVIEW
 70
     1
  9
$SHADEDGE
 70
     3
  9
$SHADEDIF
 70
    70
  9
$TILEMODE
 70
     1
  9
$MAXACTVP
 70
    64
  9
$PLIMCHECK
 70
     0
  9
$PEXTMIN
 10
1.0000000000000000E+20
 20
1.0000000000000000E+20
 30
1.0000000000000000E+20
  9
$PEXTMAX
 10
-1.0000000000000000E+20
 20
-1.0000000000000000E+20
 30
-1.0000000000000000E+20
  9
$PLIMMIN
 10
0.0
 20
0.0
  9
$PLIMMAX
 10
12.0
 20
9.0
  9
$UNITMODE
 70
     0
  9
$VISRETAIN
 70
     1
  9
$PLINEGEN
 70
     0
  9
$PSLTSCALE
 70
     1
  0
ENDSEC
  0
SECTION
  2
TABLES
  0
TABLE
  2
VPORT
 70
     1
  0
VPORT
  2
*ACTIVE
 70
     0
 10
0.0
 20
0.0
 11
1.0
 21
1.0
 12
0.0
 22
0.0
 13
0.0
 23
0.0
 14
1.0
 24
1.0
 15
0.0
 25
0.0
 16
0.0
 26
0.0
 36
127.6028000890404002
 17
4235.414794921875
 27
216.4765718393159943
 37
0.0
 40
32.8378523603810422
 41
3.0808314087759809
 42
50.0
 43
0.0
 44
0.0
 50
0.0
 51
0.0
 71
     0
 72
   100
 73
     1
 74
     1
 75
     0
 76
     0
 77
     0
 78
     0
  0
ENDTAB
  0
TABLE
  2
LTYPE
 70
     2
  0
LTYPE
  2
CONTINUOUS
 70
     0
  3
Solid line
 72
    65
 73
     0
 40
0.0
  0
LTYPE
  2
PHANTOM2
 70
     0
  3
___ _ _ ___ _ _ ___ _ _ ___ _ _
 72
    65
 73
     6
 40
1.25
 49
0.625
 49
-0.125
 49
0.125
 49
-0.125
 49
0.125
 49
-0.125
  0
ENDTAB
  0
TABLE
  2
LAYER
 70
     2
  0
LAYER
  2
0
 70
     0
 62
   255
  6
CONTINUOUS
  0
LAYER
  2
DEFPOINTS
 70
     0
 62
     7
  6
CONTINUOUS
  0
ENDTAB
  0
TABLE
  2
STYLE
 70
     1
  0
STYLE
  2
STANDARD
 70
     0
 40
0.0
 41
0.8
 50
0.0
 71
     0
 42
0.2
  3
txt
  4

  0
ENDTAB
  0
TABLE
  2
VIEW
 70
     0
  0
ENDTAB
  0
TABLE
  2
UCS
 70
     0
  0
ENDTAB
  0
TABLE
  2
APPID
 70
     9
  0
APPID
  2
ACAD
 70
     0
  0
APPID
  2
ACAD_MLEADERVER
 70
     0
  0
APPID
  2
ACAD_EXEMPT_FROM_CAD_STANDARDS
 70
     0
  0
APPID
  2
ACAD_NAV_VCDISPLAY
 70
     0
  0
APPID
  2
ACAECLAYERSTANDARD
 70
     0
  0
APPID
  2
ACCMTRANSPARENCY
 70
     0
  0
APPID
  2
ACAD_DSTYLE_DIMJAG
 70
     0
  0
APPID
  2
ACAD_DSTYLE_DIMTALN
 70
     0
  0
APPID
  2
ACDBATTR
 70
     0
  0
ENDTAB
  0
TABLE
  2
DIMSTYLE
 70
     1
  0
DIMSTYLE
  2
STANDARD
 70
     0
  3

  4

  5

  6

  7

 40
1.0
 41
0.1875
 42
0.0625
 43
0.38
 44
0.125
 45
0.0
 46
0.0
 47
0.01
 48
0.01
140
0.15625
141
0.09
142
0.0
143
25.3999999999999986
144
1.0
145
0.0
146
1.0
147
0.09
 71
     1
 72
     0
 73
     1
 74
     1
 75
     0
 76
     0
 77
     0
 78
     4
170
     0
171
     2
172
     0
173
     0
174
     0
175
     0
176
     0
177
     0
178
     0
  0
ENDTAB
  0
ENDSEC
  0
SECTION
  2
BLOCKS
  0
BLOCK
  8
0
  2
$MODEL_SPACE
 70
     0
 10
0.0
 20
0.0
 30
0.0
  3
$MODEL_SPACE
  1

  0
ENDBLK
  5
21
  8
0
  0
BLOCK
 67
     1
  8
0
  2
$PAPER_SPACE
 70
     0
 10
0.0
 20
0.0
 30
0.0
  3
$PAPER_SPACE
  1

  0
ENDBLK
  5
1D
 67
     1
  8
0
  0
ENDSEC
  0
SECTION
  2
ENTITIES
  0
ATTDEF
  5
3930
  8
DEFPOINTS
 10
4235.4097005191788412
 20
201.9184063332544952
 30
0.0
 40
0.001
  1
402323-RA
  3

  2
MODELNUMBER
 70
     0
1001
ACDBATTR
1070
     0
1070
     1
  0
ATTDEF
  5
3931
  8
DEFPOINTS
 10
4235.4097005191788412
 20
201.9167396665878016
 30
0.0
 40
0.001
  1
WINDHAM
  3

  2
TRADENAME
 70
     0
1001
ACDBATTR
1070
     0
1070
     1
  0
ATTDEF
  5
3932
  8
DEFPOINTS
 10
4235.4097005191788412
 20
201.915072999921108
 30
0.0
 40
0.001
  1
TOILET
  3

  2
PRODUCT
 70
     0
1001
ACDBATTR
1070
     0
1070
     1
  0
LINE
  5
6D24
  8
0
 10
4240.5597250719665681
 20
201.9210062864098063
 30
0.0
 11
4230.2697401399673254
 21
201.9210062864098063
 31
0.0
  0
LINE
  5
6D25
  8
0
 10
4228.8494286553059283
 20
218.3339892899097947
 30
0.0
 11
4228.8549489642682602
 21
218.1796606721098044
 31
0.0
  0
LINE
  5
6D26
  8
0
 10
4228.8365259468619115
 20
218.7060633625098092
 30
0.0
 11
4228.4455799773677427
 21
229.7010062864098074
 31
0.0
  0
LINE
  5
6D27
  8
0
 10
4228.3246975962665601
 20
217.4559892899098088
 30
0.0
 11
4228.3246975962665601
 21
217.4300952002097915
 31
0.0
  0
LINE
  5
6D28
  8
0
 10
4228.5789959999647181
 20
218.4089892899096981
 30
0.0
 11
4228.5789959999647181
 21
218.3889892923097023
 31
0.0
  0
LINE
  5
6D29
  8
0
 10
4228.6309142264663024
 20
218.6028374437098023
 30
0.0
 11
4228.5789959999647181
 21
218.4089892899096981
 31
0.0
  0
LINE
  5
6D2A
  8
0
 10
4228.3246975962665601
 20
217.4559892899098088
 30
0.0
 11
4228.4689481142677323
 21
217.9943395855096924
 31
0.0
  0
LINE
  5
6D2B
  8
0
 10
4229.6264174594680298
 20
218.2504997389098094
 30
0.0
 11
4229.6261127452671644
 21
218.2574788409098119
 31
0.0
  0
LINE
  5
6D2C
  8
0
 10
4230.4080984961674403
 20
218.2504997389098094
 30
0.0
 11
4230.4117437286677159
 21
218.3339892899097947
 31
0.0
  0
LINE
  5
6D2D
  8
0
 10
4231.8905488198297462
 20
218.3339892899097947
 30
0.0
 11
4231.8909947990614455
 21
218.270511867344311
 31
0.0
  0
LINE
  5
6D2E
  8
0
 10
4242.3618455331670702
 20
217.071006286409812
 30
0.0
 11
4228.4676196787677327
 21
217.071006286409812
 31
0.0
  0
LINE
  5
6D2F
  8
0
 10
4229.1273653834678043
 20
217.1315082899097888
 30
0.0
 11
4230.5443354442677446
 21
217.1315082899097888
 31
0.0
  0
LINE
  5
6D30
  8
0
 10
4231.3389803987711275
 20
218.2284696048097032
 30
0.0
 11
4231.3718620280296818
 21
218.2284696048097032
 31
0.0
  0
LINE
  5
6D31
  8
0
 10
4229.2374363848675785
 20
218.2339892899098004
 30
0.0
 11
4229.6288193886166482
 21
218.2339892899098004
 31
0.0
  0
LINE
  5
6D32
  8
0
 10
4228.0879160967670032
 20
229.7010062864098074
 30
0.0
 11
4242.7415491151677998
 21
229.7010062864098074
 31
0.0
  0
ARC
  5
6D33
  8
0
 10
4228.0996459203006452
 20
229.8224355897523878
 30
0.0
 40
0.1219945263952694
 50
183.7629008455726023
 51
264.4824635124663814
  0
ARC
  5
6D34
  8
0
 10
4229.246521965464126
 20
218.3276044967134908
 30
0.0
 40
0.0940550621692797
 50
207.6274095039539134
 51
264.4566680517140185
  0
ARC
  5
6D35
  8
0
 10
4229.7049011056988093
 20
218.2534875475797946
 30
0.0
 40
0.0785404973651321
 50
182.1801509947856914
 51
250.0490076946537101
  0
ARC
  5
6D36
  8
0
 10
4229.0848003809160218
 20
218.247717401845307
 30
0.0
 40
0.0863754680810178
 50
24.8303419508343914
 51
87.1937663969091545
  0
ARC
  5
6D37
  8
0
 10
4229.5461892695966526
 20
218.2539896889817044
 30
0.0
 40
0.0799996009280788
 50
2.4997263910785619
 51
90.0000057963747508
  0
ARC
  5
6D38
  8
0
 10
4228.3783406528737032
 20
217.4336733047863106
 30
0.0
 40
0.0537622577138067
 50
183.8160960804981983
 51
265.1526141257228915
  0
ARC
  5
6D39
  8
0
 10
4230.3304627554844046
 20
218.2531846493342869
 30
0.0
 40
0.0776821535193126
 50
288.8315034143362254
 51
358.0193046513708737
  0
ARC
  5
6D3A
  8
0
 10
4230.8926972122935695
 20
217.1891796910358892
 30
0.0
 40
0.1184385568488823
 50
191.809169152818896
 51
266.1654026434583784
  0
LINE
  5
6D3B
  8
0
 10
4231.3725607521673737
 20
218.3339892899097947
 30
0.0
 11
4231.3715388278669707
 21
218.1796606721098044
 31
0.0
  0
LINE
  5
6D3C
  8
0
 10
4231.8626915965678563
 20
218.3339892899097947
 30
0.0
 11
4231.8624652681673979
 21
218.3009454591096983
 31
0.0
  0
LINE
  5
6D3D
  8
0
 10
4231.3385496915670956
 20
218.1796606721098044
 30
0.0
 11
4231.3394271536672022
 21
218.2790971064096937
 31
0.0
  0
ARC
  5
6D3E
  8
0
 10
4230.2830060171836521
 20
202.0823667314174941
 30
0.0
 40
0.1619048384434258
 50
176.715161697993608
 51
265.3001291729988793
  0
ARC
  5
6D3F
  8
0
 10
4230.5840748994633032
 20
202.4984458770325091
 30
0.0
 40
0.4052416502074156
 50
145.9905413039639939
 51
173.3385038167550078
  0
ARC
  5
6D40
  8
0
 10
4197.5463930518499183
 20
206.6438885164911028
 30
0.0
 40
32.8915167075068027
 50
352.0446249528890803
 51
352.8420792526939067
  0
ARC
  5
6D41
  8
0
 10
4108.8587851384154419
 20
224.9354529790128936
 30
0.0
 40
123.4045286127774972
 50
349.6314068685152279
 51
353.0318426216509238
  0
ARC
  5
6D42
  8
0
 10
4228.5035552304379962
 20
216.7195893485422005
 30
0.0
 40
0.3532495266720874
 50
95.83871507011483
 51
154.3018099678658928
  0
ARC
  5
6D43
  8
0
 10
4232.7794996474440268
 20
215.090035026657489
 30
0.0
 40
4.92801313369492
 50
158.7919749862356014
 51
187.1379178112781858
  0
ARC
  5
6D44
  8
0
 10
4233.2068473273648124
 20
214.9718226482798116
 30
0.0
 40
5.3400793015668526
 50
185.3093448875058016
 51
249.6728957051369946
  0
ARC
  5
6D45
  8
0
 10
4216.6341943722736687
 20
181.1146062587029917
 30
0.0
 40
32.3869274822654418
 50
62.8535736881096483
 51
62.9716778873452228
  0
ARC
  5
6D46
  8
0
 10
4231.449364595858242
 20
210.0066560603906964
 30
0.0
 40
0.082134933520908
 50
242.3522346392664986
 51
307.3320924582163229
  0
ARC
  5
6D47
  8
0
 10
4227.2624209950690783
 20
213.9144192220014986
 30
0.0
 40
5.8082159614077327
 50
316.8395825240913268
 51
320.128823099663407
  0
ARC
  5
6D48
  8
0
 10
4232.6121550214156741
 20
209.3668579246302102
 30
0.0
 40
1.214432229400451
 50
101.3207907574955016
 51
137.2649145138211111
  0
ARC
  5
6D49
  8
0
 10
4233.078211481809376
 20
206.5916091708662918
 30
0.0
 40
4.0281290803734171
 50
86.6104443401280975
 51
100.0718580927362069
  0
ARC
  5
6D4A
  8
0
 10
4235.4524820393799018
 20
260.3090321814080994
 30
0.0
 40
49.742227927085942
 50
267.538756679581013
 51
269.9565181635284148
  0
LINE
  5
6D4B
  8
0
 10
4228.3737976370666729
 20
217.3801033378097998
 30
0.0
 11
4242.4556675748672205
 21
217.3801033378097998
 31
0.0
  0
ARC
  5
6D4C
  8
0
 10
4228.6973959306833422
 20
217.0579128723740041
 30
0.0
 40
0.3401541499679149
 50
26.9776120012348706
 51
71.2963009917098276
  0
ARC
  5
6D4D
  8
0
 10
4229.1394912055284294
 20
217.2905667399352865
 30
0.0
 40
0.1595199864756245
 50
209.4150874705817955
 51
265.6404882972711903
  0
ARC
  5
6D4E
  8
0
 10
4230.5222146210217034
 20
217.1221651583890946
 30
0.0
 40
0.2581199136460377
 50
9.5390925836907883
 51
87.8498402829317655
  0
ARC
  5
6D4F
  8
0
 10
4230.5356446031137239
 20
217.2922562573889138
 30
0.0
 40
0.1609827312745706
 50
273.094684202540293
 51
312.3662049961283742
  0
ARC
  5
6D50
  8
0
 10
4230.8686472311355828
 20
216.9465034807923871
 30
0.0
 40
0.3191439764576584
 50
111.7569412155118016
 51
134.7094831659684075
  0
ARC
  5
6D51
  8
0
 10
4232.0769779322181421
 20
217.183955115199808
 30
0.0
 40
0.1139844197494063
 50
277.7292680486451104
 51
346.2531853733603953
  0
ARC
  5
6D52
  8
0
 10
4232.4114472383344037
 20
217.1141827912225892
 30
0.0
 40
0.2277852684290867
 50
62.9776057171328176
 51
169.1991580805724027
  0
ARC
  5
6D53
  8
0
 10
4236.7297267936055505
 20
103.8209250617136945
 30
0.0
 40
113.5744085606133069
 50
90.9383314004800098
 51
92.2388964758475254
  0
LINE
  5
6D54
  8
0
 10
4228.7145784939666555
 20
218.1796606721098044
 30
0.0
 11
4242.1148867179672379
 21
218.1796606721098044
 31
0.0
  0
ARC
  5
6D55
  8
0
 10
4228.7622870316272383
 20
217.8609826328811039
 30
0.0
 40
0.3222294171118358
 50
98.5143826030685972
 51
155.5526327640428121
  0
LINE
  5
6D56
  8
0
 10
4228.633958356867879
 20
218.3339892899097947
 30
0.0
 11
4242.1955068550687429
 21
218.3339892899099937
 31
0.0
  0
ARC
  5
6D57
  8
0
 10
4228.6392902647767187
 20
218.3942799181089072
 30
0.0
 40
0.060525937337723
 50
185.0146746278439878
 51
264.9460950741724901
  0
ARC
  5
6D58
  8
0
 10
4228.6917238563610226
 20
218.581641472367096
 30
0.0
 40
0.0643978282939014
 50
114.9249333262768999
 51
160.7833486016886866
  0
ARC
  5
6D59
  8
0
 10
4231.2835724645556184
 20
219.0320513981710917
 30
0.0
 40
0.2305655229533828
 50
95.4313138468886137
 51
116.3497499410808018
  0
ARC
  5
6D5A
  8
0
 10
4229.9636092380751506
 20
227.1401085480449069
 30
0.0
 40
7.9947158116365733
 50
272.916925166826104
 51
278.7604678804210039
  0
ARC
  5
6D5B
  8
0
 10
4230.6654646966489963
 20
214.3719237832771967
 30
0.0
 40
4.792915552383314
 50
93.5289861041543702
 51
99.7721644947350939
  0
ARC
  5
6D5C
  8
0
 10
4623.128532134193847
 20
-808.4062653359651449
 30
0.0
 40
1100.1935838331519335
 50
110.944364252611507
 51
111.0105895906535949
  0
ARC
  5
6D5D
  8
0
 10
4235.5894676583593537
 20
229.6675312398708968
 30
0.0
 40
7.6129706531340178
 50
171.9160898401277109
 51
178.8943653064663977
  0
ARC
  5
6D5E
  8
0
 10
4228.349447773997781
 20
230.6722489178671935
 30
0.0
 40
0.3045058232315622
 50
96.36210958531899
 51
167.5124211915174897
  0
ARC
  5
6D5F
  8
0
 10
4235.6890340773661592
 20
-198.5538256531777108
 30
0.0
 40
429.5919860302853976
 50
90.0365842897307544
 51
90.9834480106214158
  0
ARC
  5
6D60
  8
0
 10
4231.4276542368279479
 20
218.2671391991235055
 30
0.0
 40
0.0890337562372019
 50
131.336820608553893
 51
172.2814181714105928
  0
LINE
  5
6D61
  8
0
 10
4231.9110991431671209
 20
218.2664348513096968
 30
0.0
 11
4238.9183660687704105
 21
218.2664348513096968
 31
0.0
  0
ARC
  5
6D62
  8
0
 10
4231.9110754667854053
 20
218.317925293328301
 30
0.0
 40
0.0514904474620232
 50
199.2546148961374115
 51
270.02634579495151
  0
LINE
  5
6D63
  8
0
 10
4228.6645846479896136
 20
218.6400413324521139
 30
0.0
 11
4242.1648805639451894
 21
218.6400413324521139
 31
0.0
  0
ARC
  5
6D64
  8
0
 10
4063.3478218485570324
 20
1932.1185512188910707
 30
0.0
 40
1721.8909454720781014
 50
275.5618453980118261
 51
275.6061203471617773
  0
ARC
  5
6D65
  8
0
 10
4237.3372723378588489
 20
61.6681979215270175
 30
0.0
 40
156.9017356515201129
 50
90.7020710683107154
 51
92.1108980028218269
  0
ARC
  5
6D66
  8
0
 10
4229.8819962286752343
 20
219.0851071083627062
 30
0.0
 40
0.0317178684292112
 50
161.2616024047675012
 51
215.6096259440857068
  0
ARC
  5
6D67
  8
0
 10
4230.2631666561992461
 20
220.2097866988723069
 30
0.0
 40
1.2134251555002229
 50
250.4044219945421048
 51
266.1339676485883956
  0
ARC
  5
6D68
  8
0
 10
4233.6881066705573176
 20
260.2625701870103967
 30
0.0
 40
41.4121891917269807
 50
265.1424183709103772
 51
269.2130079895899257
  0
ARC
  5
6D69
  8
0
 10
4235.5171261796458566
 20
333.2357269345774853
 30
0.0
 40
114.4065699397844043
 50
268.7990620117092817
 51
269.9487204239471225
  0
LINE
  5
6D6A
  8
0
 10
4241.9800365566288747
 20
218.3339892899097947
 30
0.0
 11
4241.9745162476674523
 21
218.1796606721098044
 31
0.0
  0
LINE
  5
6D6B
  8
0
 10
4241.9929392650728914
 20
218.7060633625098092
 30
0.0
 11
4242.3838852345679697
 21
229.7010062864098074
 31
0.0
  0
LINE
  5
6D6C
  8
0
 10
4242.5047676156673333
 20
217.4559892899098088
 30
0.0
 11
4242.5047676156673333
 21
217.4300952002097915
 31
0.0
  0
LINE
  5
6D6D
  8
0
 10
4242.2504692119700849
 20
218.4089892899096981
 30
0.0
 11
4242.2504692119700849
 21
218.3889892923097023
 31
0.0
  0
LINE
  5
6D6E
  8
0
 10
4242.1985509854675911
 20
218.6028374437098023
 30
0.0
 11
4242.2504692119700849
 21
218.4089892899096981
 31
0.0
  0
LINE
  5
6D6F
  8
0
 10
4242.5047676156673333
 20
217.4559892899098088
 30
0.0
 11
4242.3605170976679801
 21
217.9943395855096924
 31
0.0
  0
LINE
  5
6D70
  8
0
 10
4241.2030477524676826
 20
218.2504997389098094
 30
0.0
 11
4241.203352466666729
 21
218.2574788409098119
 31
0.0
  0
LINE
  5
6D71
  8
0
 10
4240.4213667157673626
 20
218.2504997389098094
 30
0.0
 11
4240.417721483267087
 21
218.3339892899097947
 31
0.0
  0
LINE
  5
6D72
  8
0
 10
4238.9389163921041472
 20
218.3339892899097947
 30
0.0
 11
4238.9384704128742669
 21
218.270511867344311
 31
0.0
  0
LINE
  5
6D73
  8
0
 10
4241.7020998284679081
 20
217.1315082899097888
 30
0.0
 11
4240.2851297676679678
 21
217.1315082899097888
 31
0.0
  0
LINE
  5
6D74
  8
0
 10
4239.4904848131627659
 20
218.2284696048097032
 30
0.0
 11
4239.4576031839051211
 21
218.2284696048097032
 31
0.0
  0
LINE
  5
6D75
  8
0
 10
4241.592028827068134
 20
218.2339892899098004
 30
0.0
 11
4241.2006458233190642
 21
218.2339892899098004
 31
0.0
  0
ARC
  5
6D76
  8
0
 10
4242.7298192916332482
 20
229.8224355897523878
 30
0.0
 40
0.1219945263953045
 50
275.5175364875340165
 51
356.2370991544290177
  0
ARC
  5
6D77
  8
0
 10
4241.5829432464715865
 20
218.3276044967134908
 30
0.0
 40
0.0940550621692797
 50
275.5433319482860952
 51
332.3725904960460866
  0
ARC
  5
6D78
  8
0
 10
4241.1245641062369032
 20
218.2534875475797946
 30
0.0
 40
0.0785404973651321
 50
289.9509923053461762
 51
357.8198490052142233
  0
ARC
  5
6D79
  8
0
 10
4241.7446648310178716
 20
218.247717401845307
 30
0.0
 40
0.0863754680810178
 50
92.8062336030908455
 51
155.169658049165605
  0
ARC
  5
6D7A
  8
0
 10
4241.2832759423381503
 20
218.2539896889817044
 30
0.0
 40
0.0799996009280788
 50
89.9999942036252492
 51
177.5002736089213897
  0
ARC
  5
6D7B
  8
0
 10
4242.4511245590610997
 20
217.4336733047863106
 30
0.0
 40
0.0537622577138067
 50
274.8473858742768812
 51
356.1839039195000964
  0
ARC
  5
6D7C
  8
0
 10
4240.4990024564503983
 20
218.2531846493342869
 30
0.0
 40
0.0776821535193126
 50
181.9806953486273926
 51
251.168496585663803
  0
ARC
  5
6D7D
  8
0
 10
4239.9367679996412335
 20
217.1891796910358892
 30
0.0
 40
0.1184385568488823
 50
273.8345973565415079
 51
348.1908308471794271
  0
LINE
  5
6D7E
  8
0
 10
4239.4569044597674292
 20
218.3339892899097947
 30
0.0
 11
4239.4579263840669228
 21
218.1796606721098044
 31
0.0
  0
LINE
  5
6D7F
  8
0
 10
4238.9667736153669466
 20
218.3339892899097947
 30
0.0
 11
4238.9669999437674051
 21
218.3009454591096983
 31
0.0
  0
LINE
  5
6D80
  8
0
 10
4239.4909155203667979
 20
218.1796606721098044
 30
0.0
 11
4239.4900380582666912
 21
218.2790971064096937
 31
0.0
  0
ARC
  5
6D81
  8
0
 10
4240.5464591947520603
 20
202.0823667314174941
 30
0.0
 40
0.1619048384434258
 50
274.6998708270011207
 51
3.2848383020064031
  0
ARC
  5
6D82
  8
0
 10
4240.2453903124705903
 20
202.4984458770325091
 30
0.0
 40
0.4052416502074156
 50
6.6614961832450126
 51
34.0094586960360203
  0
ARC
  5
6D83
  8
0
 10
4273.2830721600848847
 20
206.6438885164911028
 30
0.0
 40
32.8915167075068027
 50
187.1579207473060933
 51
187.9553750471108913
  0
ARC
  5
6D84
  8
0
 10
4361.9706800735202705
 20
224.9354529790128936
 30
0.0
 40
123.4045286127774972
 50
186.9681573783491046
 51
190.3685931314846869
  0
ARC
  5
6D85
  8
0
 10
4242.3259099814968067
 20
216.7195893485422005
 30
0.0
 40
0.3532495266720874
 50
25.6981900321341286
 51
84.1612849298851842
  0
ARC
  5
6D86
  8
0
 10
4238.0499655644907762
 20
215.090035026657489
 30
0.0
 40
4.92801313369492
 50
352.8620821887217858
 51
21.2080250137643382
  0
ARC
  5
6D87
  8
0
 10
4237.6226178845709001
 20
214.9718226482798116
 30
0.0
 40
5.3400793015668526
 50
290.3271042948629201
 51
354.6906551124941984
  0
ARC
  5
6D88
  8
0
 10
4254.1952708396611342
 20
181.1146062587029917
 30
0.0
 40
32.3869274822654418
 50
117.0283221126548057
 51
117.1464263118902949
  0
ARC
  5
6D89
  8
0
 10
4239.380100616076561
 20
210.0066560603906964
 30
0.0
 40
0.082134933520908
 50
232.6679075417835918
 51
297.6477653607335014
  0
ARC
  5
6D8A
  8
0
 10
4243.5670442168657246
 20
213.9144192220014986
 30
0.0
 40
5.8082159614077327
 50
219.871176900336593
 51
223.1604174759085879
  0
ARC
  5
6D8B
  8
0
 10
4238.2173101905200383
 20
209.3668579246302102
 30
0.0
 40
1.214432229400451
 50
42.7350854861789173
 51
78.6792092425045126
  0
ARC
  5
6D8C
  8
0
 10
4237.7512537301263364
 20
206.5916091708662918
 30
0.0
 40
4.0281290803734171
 50
79.9281419072637931
 51
93.3895556598719168
  0
ARC
  5
6D8D
  8
0
 10
4235.3769831725539916
 20
260.3090321814080994
 30
0.0
 40
49.7422279270859065
 50
270.0434818364715852
 51
272.4612433203669184
  0
ARC
  5
6D8E
  8
0
 10
4242.1320692812523703
 20
217.0579128723740041
 30
0.0
 40
0.3401541499679149
 50
108.7036990082902008
 51
153.0223879987651117
  0
ARC
  5
6D8F
  8
0
 10
4241.689974006407283
 20
217.2905667399352865
 30
0.0
 40
0.1595199864756245
 50
274.3595117027288097
 51
330.5849125294182045
  0
ARC
  5
6D90
  8
0
 10
4240.3072505909121901
 20
217.1221651583890946
 30
0.0
 40
0.2581199136460377
 50
92.1501597170682345
 51
170.4609074163091975
  0
ARC
  5
6D91
  8
0
 10
4240.2938206088219886
 20
217.2922562573889138
 30
0.0
 40
0.1609827312745706
 50
227.6337950038715974
 51
266.9053157974598207
  0
ARC
  5
6D92
  8
0
 10
4239.9608179808001296
 20
216.9465034807923871
 30
0.0
 40
0.3191439764576584
 50
45.2905168340315996
 51
68.2430587844881273
  0
ARC
  5
6D93
  8
0
 10
4238.7524872797157514
 20
217.183955115199808
 30
0.0
 40
0.1139844197494063
 50
193.7468146266396047
 51
262.2707319513548896
  0
ARC
  5
6D94
  8
0
 10
4238.4180179736013088
 20
217.1141827912225892
 30
0.0
 40
0.2277852684290867
 50
10.8008419194275405
 51
58.6119535394622915
  0
ARC
  5
6D95
  8
0
 10
4234.0997384183292525
 20
103.8209250617136945
 30
0.0
 40
113.5744085606133069
 50
87.7611035241524746
 51
89.0616685995200044
  0
ARC
  5
6D96
  8
0
 10
4242.0671781803075646
 20
217.8609826328811039
 30
0.0
 40
0.3222294171118358
 50
24.4473672359571488
 51
81.485617396931417
  0
ARC
  5
6D97
  8
0
 10
4242.1901749471571748
 20
218.3942799181089072
 30
0.0
 40
0.060525937337723
 50
275.0539049258275099
 51
354.9853253721558985
  0
ARC
  5
6D98
  8
0
 10
4242.1377413555728708
 20
218.581641472367096
 30
0.0
 40
0.0643978282939014
 50
19.2166513983113205
 51
65.0750666737230716
  0
ARC
  5
6D99
  8
0
 10
4239.5458927473800941
 20
219.0320513981710917
 30
0.0
 40
0.2305655229533828
 50
63.6502500589192266
 51
84.5686861531114147
  0
ARC
  5
6D9A
  8
0
 10
4240.8658559738596523
 20
227.1401085480449069
 30
0.0
 40
7.9947158116365733
 50
261.2395321195789961
 51
267.0830748331737823
  0
ARC
  5
6D9B
  8
0
 10
4240.1640005152848971
 20
214.3719237832771967
 30
0.0
 40
4.792915552383314
 50
80.2278355052649204
 51
86.4710138958456582
  0
ARC
  5
6D9C
  8
0
 10
3847.7009330777409559
 20
-808.4062653359651449
 30
0.0
 40
1100.1935838331519335
 50
68.9894104093464051
 51
69.0556357473884361
  0
ARC
  5
6D9D
  8
0
 10
4235.2399975535772683
 20
229.6675312398710105
 30
0.0
 40
7.612970653133817
 50
1.1056346935336201
 51
8.0839101598722873
  0
ARC
  5
6D9E
  8
0
 10
4242.4800174379370219
 20
230.6722489178671935
 30
0.0
 40
0.3045058232315622
 50
12.4875788084824801
 51
83.6378904146292399
  0
ARC
  5
6D9F
  8
0
 10
4235.1404311345695533
 20
-198.553825653179814
 30
0.0
 40
429.5919860302873872
 50
89.0165519893785842
 51
89.9634157102171343
  0
ARC
  5
6DA0
  8
0
 10
4239.4018109751059455
 20
218.2671391991235055
 30
0.0
 40
0.0890337562372019
 50
7.7185818285894321
 51
48.6631793914460715
  0
ARC
  5
6DA1
  8
0
 10
4238.9183897451493976
 20
218.317925293328301
 30
0.0
 40
0.0514904474620232
 50
269.97365420504849
 51
340.7453851038609969
  0
ARC
  5
6DA2
  8
0
 10
4407.4816433633777706
 20
1932.1185512188910707
 30
0.0
 40
1721.8909454720781014
 50
264.3938796528382227
 51
264.4381546019881739
  0
ARC
  5
6DA3
  8
0
 10
4233.492192874075954
 20
61.6681979215270175
 30
0.0
 40
156.9017356515201129
 50
87.8891019971782015
 51
89.2979289316892846
  0
ARC
  5
6DA4
  8
0
 10
4240.9474689832595686
 20
219.0851071083627062
 30
0.0
 40
0.0317178684292112
 50
324.3903740559129005
 51
18.7383975952324988
  0
ARC
  5
6DA5
  8
0
 10
4240.5662985557355569
 20
220.2097866988723069
 30
0.0
 40
1.2134251555002229
 50
273.8660323514117181
 51
289.5955780054579236
  0
ARC
  5
6DA6
  8
0
 10
4237.1413585413783949
 20
260.2625701870103967
 30
0.0
 40
41.4121891917269807
 50
270.7869920104100743
 51
274.8575816290895091
  0
ARC
  5
6DA7
  8
0
 10
4235.3123390322889463
 20
333.2357269345774853
 30
0.0
 40
114.4065699397844043
 50
270.0512795760528775
 51
271.2009379882384792
  0
LINE
  5
6DA8
  8
0
 10
4231.261748883655855
 20
219.2615817702169068
 30
0.0
 11
4239.5677163282798574
 21
219.2615817702169068
 31
0.0
  0
LINE
  5
6DAA
  8
0
 10
4240.0440231104666964
 20
228.0061821802096915
 30
0.0
 11
4241.8625872296670423
 21
228.1804552425159898
 31
0.0
  0
LINE
  5
6DAB
  8
0
 10
4240.0437947533682745
 20
228.4437555696098059
 30
0.0
 11
4241.8679604767667115
 21
228.2877333588097883
 31
0.0
  0
LINE
  5
6DAC
  8
0
 10
4241.8125452995673186
 20
228.3156073843098
 30
0.0
 11
4240.0121622034666871
 21
228.4684394259097928
 31
0.0
  0
LINE
  5
6DAD
  8
0
 10
4239.9826337588674505
 20
228.009031120409702
 30
0.0
 11
4239.9456875349678739
 21
228.016076504659793
 31
0.0
  0
LINE
  5
6DAE
  8
0
 10
4241.8679604767667115
 20
228.2877333588097883
 30
0.0
 11
4241.8181656124679648
 21
228.3139625054097905
 31
0.0
  0
ARC
  5
6DAF
  8
0
 10
4240.0232927465676767
 20
228.2223190010097085
 30
0.0
 40
0.2171287022
 50
259.2072192755858282
 51
275.4786598517094944
  0
ARC
  5
6DB0
  8
0
 10
4241.8113003194630437
 20
228.3009291306094042
 30
0.0
 40
0.0147309574582822
 50
62.2221091775027801
 51
85.1518903703916834
  0
ARC
  5
6DB1
  8
0
 10
4241.8481131252547129
 20
228.2649660774604001
 30
0.0
 40
0.0302037491398207
 50
6.2180358285400832
 51
48.9197468333242824
  0
ARC
  5
6DB2
  8
0
 10
4241.6213500496951383
 20
228.238619894103806
 30
0.0
 40
0.2584915135500468
 50
348.9166331325433248
 51
6.5793255187109034
  0
ARC
  5
6DB3
  8
0
 10
4241.8607886731242615
 20
228.1964529130482049
 30
0.0
 40
0.0160984554567532
 50
276.4146084140515995
 51
332.1333114873785917
  0
ARC
  5
6DB4
  8
0
 10
4239.5576304648857331
 20
226.9860827489912936
 30
0.0
 40
1.540608191317528
 50
74.9783929918289402
 51
75.5340450237086571
  0
ARC
  5
6DB5
  8
0
 10
4240.5054107682772155
 20
233.6028608909637114
 30
0.0
 40
5.1580595118286263
 50
263.8959336515225118
 51
264.5126047281721071
  0
ARC
  5
6DB6
  8
0
 10
4239.9556513924408137
 20
228.2470424943867897
 30
0.0
 40
0.2311808099006203
 50
93.2657616556781193
 51
267.5297955079261101
  0
ARC
  5
6DB7
  8
0
 10
4239.9266401042987127
 20
228.2595484804776049
 30
0.0
 40
0.7139502122846137
 50
12.7057085112682504
 51
89.6716103508289279
  0
ARC
  5
6DB8
  8
0
 10
4239.9272508189242217
 20
228.2574513567004999
 30
0.0
 40
0.7160440721200897
 50
89.721438946010025
 51
281.3911703583229951
  0
ARC
  5
6DB9
  8
0
 10
4239.9241413857698717
 20
228.2568289471406899
 30
0.0
 40
0.7158752652604056
 50
281.6494508504977148
 51
344.0968606717905232
  0
ARC
  5
6DBA
  8
0
 10
4239.9593061851319362
 20
228.2477615429064883
 30
0.0
 40
0.3401490165247856
 50
36.4162485817494002
 51
318.5258204751303879
  0
ARC
  5
6DBB
  8
0
 10
4240.0265369065291452
 20
228.2242600671106914
 30
0.0
 40
0.2201677452394088
 50
85.5008923780977739
 51
255.2474952094769947
  0
ENDSEC
  0
EOF
