  0
SECTION
  2
HEADER
  9
$ACADVER
  1
AC1009
  9
$INSBASE
 10
4182.009028836260768
 20
206.57722967927279
 30
0.0
  9
$EXTMIN
 10
4174.4458098758932465
 20
206.5720431042535949
 30
0.0
  9
$EXTMAX
 10
4189.5722477966301085
 20
236.8828788741359119
 30
0.0
  9
$LIMMIN
 10
0.0
 20
0.0
  9
$LIMMAX
 10
11.6929133858000007
 20
8.2677165353999982
  9
$ORTHOMODE
 70
     1
  9
$REGENMODE
 70
     1
  9
$FILLMODE
 70
     1
  9
$QTEXTMODE
 70
     0
  9
$MIRRTEXT
 70
     0
  9
$DRAGMODE
 70
     2
  9
$LTSCALE
 40
0.6431102362
  9
$OSMODE
 70
  4095
  9
$ATTMODE
 70
     1
  9
$TEXTSIZE
 40
0.2
  9
$TRACEWID
 40
0.05
  9
$TEXTSTYLE
  7
STANDARD
  9
$CLAYER
  8
0
  9
$CELTYPE
  6
BYLAYER
  9
$CECOLOR
 62
   256
  9
$DIMSCALE
 40
1.0
  9
$DIMASZ
 40
0.1875
  9
$DIMEXO
 40
0.0625
  9
$DIMDLI
 40
0.4443307087
  9
$DIMRND
 40
0.0
  9
$DIMDLE
 40
0.0
  9
$DIMEXE
 40
0.125
  9
$DIMTP
 40
0.01
  9
$DIMTM
 40
0.01
  9
$DIMTXT
 40
2.0
  9
$DIMCEN
 40
0.1052362205
  9
$DIMTSZ
 40
0.0
  9
$DIMTOL
 70
     1
  9
$DIMLIM
 70
     0
  9
$DIMTIH
 70
     1
  9
$DIMTOH
 70
     1
  9
$DIMSE1
 70
     0
  9
$DIMSE2
 70
     0
  9
$DIMTAD
 70
     0
  9
$DIMZIN
 70
     0
  9
$DIMBLK
  1

  9
$DIMASO
 70
     1
  9
$DIMSHO
 70
     1
  9
$DIMPOST
  1
\X
  9
$DIMAPOST
  1

  9
$DIMALT
 70
     1
  9
$DIMALTD
 70
     2
  9
$DIMALTF
 40
25.3999999999999986
  9
$DIMLFAC
 40
1.0
  9
$DIMTOFL
 70
     0
  9
$DIMTVP
 40
0.0
  9
$DIMTIX
 70
     0
  9
$DIMSOXD
 70
     0
  9
$DIMSAH
 70
     0
  9
$DIMBLK1
  1

  9
$DIMBLK2
  1

  9
$DIMSTYLE
  2
STANDARD
  9
$DIMCLRD
 70
     0
  9
$DIMCLRE
 70
     0
  9
$DIMCLRT
 70
     0
  9
$DIMTFAC
 40
1.0
  9
$DIMGAP
 40
0.09
  9
$LUNITS
 70
     2
  9
$LUPREC
 70
     4
  9
$SKETCHINC
 40
0.1
  9
$FILLETRAD
 40
0.0
  9
$AUNITS
 70
     0
  9
$AUPREC
 70
     0
  9
$MENU
  1
.
  9
$ELEVATION
 40
0.0
  9
$PELEVATION
 40
0.0
  9
$THICKNESS
 40
0.0
  9
$LIMCHECK
 70
     0
  9
$BLIPMODE
 70
     0
  9
$CHAMFERA
 40
0.0
  9
$CHAMFERB
 40
0.0
  9
$SKPOLY
 70
     0
  9
$TDCREATE
 40
2458060.468368056230247
  9
$TDUPDATE
 40
2458993.7074421299621463
  9
$TDINDWG
 40
0.3038959491
  9
$TDUSRTIMER
 40
0.3038959491
  9
$USRTIMER
 70
     1
  9
$ANGBASE
 50
0.0
  9
$ANGDIR
 70
     0
  9
$PDMODE
 70
     0
  9
$PDSIZE
 40
0.3125
  9
$PLINEWID
 40
0.0
  9
$COORDS
 70
     1
  9
$SPLFRAME
 70
     0
  9
$SPLINETYPE
 70
     6
  9
$SPLINESEGS
 70
     8
  9
$ATTDIA
 70
     1
  9
$ATTREQ
 70
     1
  9
$HANDLING
 70
     1
  9
$HANDSEED
  5
6D2A
  9
$SURFTAB1
 70
     6
  9
$SURFTAB2
 70
     6
  9
$SURFTYPE
 70
     6
  9
$SURFU
 70
     6
  9
$SURFV
 70
     6
  9
$UCSNAME
  2

  9
$UCSORG
 10
0.0
 20
0.0
 30
0.0
  9
$UCSXDIR
 10
1.0
 20
0.0
 30
0.0
  9
$UCSYDIR
 10
0.0
 20
1.0
 30
0.0
  9
$PUCSNAME
  2

  9
$PUCSORG
 10
0.0
 20
0.0
 30
0.0
  9
$PUCSXDIR
 10
1.0
 20
0.0
 30
0.0
  9
$PUCSYDIR
 10
0.0
 20
1.0
 30
0.0
  9
$USERI1
 70
     0
  9
$USERI2
 70
     0
  9
$USERI3
 70
     0
  9
$USERI4
 70
     0
  9
$USERI5
 70
     0
  9
$USERR1
 40
0.0
  9
$USERR2
 40
0.0
  9
$USERR3
 40
0.0
  9
$USERR4
 40
0.0
  9
$USERR5
 40
0.0
  9
$WORLDVIEW
 70
     1
  9
$SHADEDGE
 70
     3
  9
$SHADEDIF
 70
    70
  9
$TILEMODE
 70
     1
  9
$MAXACTVP
 70
    64
  9
$PLIMCHECK
 70
     0
  9
$PEXTMIN
 10
1.0000000000000000E+20
 20
1.0000000000000000E+20
 30
1.0000000000000000E+20
  9
$PEXTMAX
 10
-1.0000000000000000E+20
 20
-1.0000000000000000E+20
 30
-1.0000000000000000E+20
  9
$PLIMMIN
 10
0.0
 20
0.0
  9
$PLIMMAX
 10
12.0
 20
9.0
  9
$UNITMODE
 70
     0
  9
$VISRETAIN
 70
     1
  9
$PLINEGEN
 70
     0
  9
$PSLTSCALE
 70
     1
  0
ENDSEC
  0
SECTION
  2
TABLES
  0
TABLE
  2
VPORT
 70
     1
  0
VPORT
  2
*ACTIVE
 70
     0
 10
0.0
 20
0.0
 11
1.0
 21
1.0
 12
0.0
 22
0.0
 13
0.0
 23
0.0
 14
1.0
 24
1.0
 15
0.0
 25
0.0
 16
0.0
 26
0.0
 36
126.791292680056003
 17
4182.009033203125
 27
221.7274583197049083
 37
0.0
 40
33.8741175456761781
 41
2.9513274336283182
 42
50.0
 43
0.0
 44
0.0
 50
0.0
 51
0.0
 71
     0
 72
   100
 73
     1
 74
     1
 75
     0
 76
     0
 77
     0
 78
     0
  0
ENDTAB
  0
TABLE
  2
LTYPE
 70
     2
  0
LTYPE
  2
CONTINUOUS
 70
     0
  3
Solid line
 72
    65
 73
     0
 40
0.0
  0
LTYPE
  2
PHANTOM2
 70
     0
  3
___ _ _ ___ _ _ ___ _ _ ___ _ _
 72
    65
 73
     6
 40
1.25
 49
0.625
 49
-0.125
 49
0.125
 49
-0.125
 49
0.125
 49
-0.125
  0
ENDTAB
  0
TABLE
  2
LAYER
 70
     2
  0
LAYER
  2
0
 70
     0
 62
   255
  6
CONTINUOUS
  0
LAYER
  2
DEFPOINTS
 70
     0
 62
     7
  6
CONTINUOUS
  0
ENDTAB
  0
TABLE
  2
STYLE
 70
     1
  0
STYLE
  2
STANDARD
 70
     0
 40
0.0
 41
0.8
 50
0.0
 71
     0
 42
0.2
  3
txt
  4

  0
ENDTAB
  0
TABLE
  2
VIEW
 70
     0
  0
ENDTAB
  0
TABLE
  2
UCS
 70
     0
  0
ENDTAB
  0
TABLE
  2
APPID
 70
     9
  0
APPID
  2
ACAD
 70
     0
  0
APPID
  2
ACAD_MLEADERVER
 70
     0
  0
APPID
  2
ACAD_EXEMPT_FROM_CAD_STANDARDS
 70
     0
  0
APPID
  2
ACAD_NAV_VCDISPLAY
 70
     0
  0
APPID
  2
ACAECLAYERSTANDARD
 70
     0
  0
APPID
  2
ACCMTRANSPARENCY
 70
     0
  0
APPID
  2
ACAD_DSTYLE_DIMJAG
 70
     0
  0
APPID
  2
ACAD_DSTYLE_DIMTALN
 70
     0
  0
APPID
  2
ACDBATTR
 70
     0
  0
ENDTAB
  0
TABLE
  2
DIMSTYLE
 70
     1
  0
DIMSTYLE
  2
STANDARD
 70
     0
  3

  4

  5

  6

  7

 40
1.0
 41
0.1875
 42
0.0625
 43
0.38
 44
0.125
 45
0.0
 46
0.0
 47
0.01
 48
0.01
140
0.15625
141
0.09
142
0.0
143
25.3999999999999986
144
1.0
145
0.0
146
1.0
147
0.09
 71
     1
 72
     0
 73
     1
 74
     1
 75
     0
 76
     0
 77
     0
 78
     4
170
     0
171
     2
172
     0
173
     0
174
     0
175
     0
176
     0
177
     0
178
     0
  0
ENDTAB
  0
ENDSEC
  0
SECTION
  2
BLOCKS
  0
BLOCK
  8
0
  2
$MODEL_SPACE
 70
     0
 10
0.0
 20
0.0
 30
0.0
  3
$MODEL_SPACE
  1

  0
ENDBLK
  5
21
  8
0
  0
BLOCK
 67
     1
  8
0
  2
$PAPER_SPACE
 70
     0
 10
0.0
 20
0.0
 30
0.0
  3
$PAPER_SPACE
  1

  0
ENDBLK
  5
1D
 67
     1
  8
0
  0
ENDSEC
  0
SECTION
  2
ENTITIES
  0
ATTDEF
  5
3930
  8
DEFPOINTS
 10
4182.0037647393619409
 20
206.5753764375870105
 30
0.0
 40
0.001
  1
402322
  3

  2
MODELNUMBER
 70
     0
1001
ACDBATTR
1070
     0
1070
     1
  0
ATTDEF
  5
3931
  8
DEFPOINTS
 10
4182.0037647393619409
 20
206.5737097709202885
 30
0.0
 40
0.001
  1
WINDHAM
  3

  2
TRADENAME
 70
     0
1001
ACDBATTR
1070
     0
1070
     1
  0
ATTDEF
  5
3932
  8
DEFPOINTS
 10
4182.0037647393619409
 20
206.5720431042535949
 30
0.0
 40
0.001
  1
TOILET
  3

  2
PRODUCT
 70
     0
1001
ACDBATTR
1070
     0
1070
     1
  0
LINE
  5
6B68
  8
0
 10
4187.1923996834111676
 20
206.57722967927279
 30
0.0
 11
4176.8256579891121874
 21
206.57722967927279
 31
0.0
  0
LINE
  5
6B69
  8
0
 10
4176.4303845388112677
 20
224.1553053455727991
 30
0.0
 11
4176.4314101350119017
 21
224.1787953599728098
 31
0.0
  0
LINE
  5
6B6A
  8
0
 10
4176.9651421367107105
 20
224.0953058088728085
 30
0.0
 11
4176.964837422511664
 21
224.102284910872811
 31
0.0
  0
LINE
  5
6B6B
  8
0
 10
4178.5547608015112928
 20
224.1787953599728098
 30
0.0
 11
4178.5553301851887227
 21
224.1135504500674074
 31
0.0
  0
LINE
  5
6B6C
  8
0
 10
4178.0337308345124256
 20
224.0244667421727911
 30
0.0
 11
4178.0347709130110161
 21
224.1787953599728098
 31
0.0
  0
LINE
  5
6B6D
  8
0
 10
4178.524647071911204
 20
224.1418603438727928
 30
0.0
 11
4178.524647071911204
 21
224.1787953599728098
 31
0.0
  0
LINE
  5
6B6E
  8
0
 10
4177.746823173310986
 20
224.0953058088728085
 30
0.0
 11
4177.7503646621116786
 21
224.1787953599728098
 31
0.0
  0
LINE
  5
6B6F
  8
0
 10
4178.9289301334119955
 20
223.0167272281728117
 30
0.0
 11
4178.9328218040118372
 21
223.0612311283728104
 31
0.0
  0
LINE
  5
6B70
  8
0
 10
4176.8096001789117508
 20
207.2123981521727956
 30
0.0
 11
4176.7267545756112668
 21
206.6922131272727938
 31
0.0
  0
LINE
  5
6B71
  8
0
 10
4175.7072190483113445
 20
222.9763143598727879
 30
0.0
 11
4177.1262965944106327
 21
222.9763143598727879
 31
0.0
  0
LINE
  5
6B72
  8
0
 10
4175.9205410487120389
 20
224.0787953598727995
 30
0.0
 11
4176.3504607013110217
 21
224.0787953598727995
 31
0.0
  0
ARC
  5
6B73
  8
0
 10
4175.9332298282997726
 20
224.1777610726398109
 30
0.0
 40
0.0997758359069408
 50
209.3903642078043958
 51
262.6937462418978271
  0
ARC
  5
6B74
  8
0
 10
4176.3467262452868454
 20
224.1626964461682121
 30
0.0
 40
0.0839841559065636
 50
272.548565747267503
 51
354.9511021122676766
  0
ARC
  5
6B75
  8
0
 10
4176.8785148498236595
 20
224.0921111936839907
 30
0.0
 40
0.0869200269284905
 50
6.7216995580733814
 51
85.7781412877032921
  0
ARC
  5
6B76
  8
0
 10
4175.7721904145146254
 20
224.0988797453281052
 30
0.0
 40
0.0799156341093876
 50
21.9835236490132715
 51
90.0399894517765631
  0
ARC
  5
6B77
  8
0
 10
4178.8184234349710096
 20
223.0267706582814924
 30
0.0
 40
0.1109621597049724
 50
270.477778617525928
 51
354.8069252662946838
  0
ARC
  5
6B78
  8
0
 10
4177.6679309213395754
 20
224.1032366270939065
 30
0.0
 40
0.0792898814660079
 50
276.5654819075497244
 51
354.2595004339190154
  0
ARC
  5
6B79
  8
0
 10
4177.0438810447840297
 20
224.1023780845804936
 30
0.0
 40
0.0790558836018939
 50
185.1324957410070908
 51
260.238611345419713
  0
LINE
  5
6B7A
  8
0
 10
4177.996804126411007
 20
224.0244667421727911
 30
0.0
 11
4177.9977197500948023
 21
224.1238929120436865
 31
0.0
  0
LINE
  5
6B7B
  8
0
 10
4175.2952851630116129
 20
233.932258779672793
 30
0.0
 11
4175.3319128818429817
 21
233.9815397094232026
 31
0.0
  0
LINE
  5
6B7C
  8
0
 10
4175.4437520174487872
 20
224.1787953599728098
 30
0.0
 11
4175.4492723264120286
 21
224.0244667421727911
 31
0.0
  0
LINE
  5
6B7D
  8
0
 10
4175.431538780889241
 20
224.5314787632678986
 30
0.0
 11
4175.0399033395124206
 21
235.5458123564727941
 31
0.0
  0
LINE
  5
6B7E
  8
0
 10
4174.9879048769789733
 20
223.3007953599727955
 30
0.0
 11
4174.9879048769789733
 21
223.2749012702728066
 31
0.0
  0
LINE
  5
6B7F
  8
0
 10
4175.2436070444309735
 20
224.2537953599727985
 30
0.0
 11
4175.2436070444309735
 21
224.2337953623728026
 31
0.0
  0
LINE
  5
6B80
  8
0
 10
4175.2955252709316483
 20
224.447643513772789
 30
0.0
 11
4175.2436070444309735
 21
224.2537953599727985
 31
0.0
  0
LINE
  5
6B81
  8
0
 10
4174.9879048769789733
 20
223.3007953599727955
 30
0.0
 11
4175.132155394979236
 21
223.8391456555727927
 31
0.0
  0
LINE
  5
6B82
  8
0
 10
4188.9561146316109443
 20
222.9158123564727987
 30
0.0
 11
4175.0619430409105917
 21
222.9158123564727987
 31
0.0
  0
LINE
  5
6B83
  8
0
 10
4176.0858487944105946
 20
233.888645836572806
 30
0.0
 11
4175.3802583249116651
 21
234.0013032169727865
 31
0.0
  0
LINE
  5
6B84
  8
0
 10
4175.9803823380107133
 20
233.8310751482727881
 30
0.0
 11
4175.3430783113108191
 21
233.9512651181728131
 31
0.0
  0
LINE
  5
6B85
  8
0
 10
4174.6822394589116811
 20
235.5458123564727941
 30
0.0
 11
4182.009028836260768
 21
235.5458123564727941
 31
0.0
  0
ARC
  5
6B86
  8
0
 10
4174.6939692824462327
 20
235.667241659815403
 30
0.0
 40
0.1219945263952837
 50
183.7629008455612905
 51
264.4824635124663246
  0
ARC
  5
6B87
  8
0
 10
4175.4024990913112561
 20
233.8634582846727881
 30
0.0
 40
0.099997479
 50
200.094866203405104
 51
247.951869012213109
  0
ARC
  5
6B88
  8
0
 10
4175.0415479335861164
 20
223.2784793748492973
 30
0.0
 40
0.0537622577138067
 50
183.8160960804997899
 51
265.1526141257228915
  0
ARC
  5
6B89
  8
0
 10
4175.0978785925808552
 20
222.5643954186053008
 30
0.0
 40
0.3532495266720874
 50
95.83871507011483
 51
154.3018099678658928
  0
ARC
  5
6B8A
  8
0
 10
4179.3738230095868857
 20
220.9348410967205041
 30
0.0
 40
4.92801313369492
 50
158.7919749862356014
 51
187.1379178112765942
  0
ARC
  5
6B8B
  8
0
 10
4179.5831794663108667
 20
221.0030137409412134
 30
0.0
 40
5.1443865140529956
 50
187.6015789860518055
 51
250.493041982850599
  0
LINE
  5
6B8C
  8
0
 10
4175.0370049177781766
 20
223.2249094078727865
 30
0.0
 11
4188.9810527547442689
 21
223.2249094078727865
 31
0.0
  0
LINE
  5
6B8D
  8
0
 10
4175.3777857746790687
 20
224.0244667421727911
 30
0.0
 11
4188.6402718978451958
 21
224.0244667421727911
 31
0.0
  0
ARC
  5
6B8E
  8
0
 10
4175.4254943123378325
 20
223.7057887029442043
 30
0.0
 40
0.3222294171118358
 50
98.5143826030685972
 51
155.5526327640428121
  0
LINE
  5
6B8F
  8
0
 10
4175.298569401333225
 20
224.1787953599728098
 30
0.0
 11
4188.719488271191949
 21
224.1787953599730088
 31
0.0
  0
ARC
  5
6B90
  8
0
 10
4175.3039013092429741
 20
224.2390859881718939
 30
0.0
 40
0.060525937337723
 50
185.0146746278439878
 51
264.9460950741724901
  0
ARC
  5
6B91
  8
0
 10
4175.3563349008263685
 20
224.4264475424301111
 30
0.0
 40
0.0643978282939014
 50
114.9249333262768999
 51
160.7833486016901929
  0
ARC
  5
6B92
  8
0
 10
4177.8778958266993868
 20
224.8768574682341068
 30
0.0
 40
0.2305655229533828
 50
95.4313138468886137
 51
116.3497499410808018
  0
ARC
  5
6B93
  8
0
 10
4176.5579326002198286
 20
232.9849146181078936
 30
0.0
 40
7.9947158116365733
 50
272.916925166826104
 51
278.7604678804210039
  0
ARC
  5
6B94
  8
0
 10
4177.2597880587927648
 20
220.2167298533402118
 30
0.0
 40
4.792915552383314
 50
93.5289861041543702
 51
99.7721644947350939
  0
ARC
  5
6B95
  8
0
 10
4180.9753022565037099
 20
212.2288102981210898
 30
0.0
 40
13.4940344166178896
 50
109.6109271247053982
 51
114.7345609090933038
  0
ARC
  5
6B96
  8
0
 10
4182.1837910205003936
 20
235.5123373099341109
 30
0.0
 40
7.6129706531321411
 50
171.9160898401277109
 51
178.8943653064663977
  0
ARC
  5
6B97
  8
0
 10
4174.94377113614064
 20
236.5170549879302087
 30
0.0
 40
0.3045058232315622
 50
96.36210958531899
 51
167.5124211915174897
  0
ARC
  5
6B98
  8
0
 10
4182.2833607370366735
 20
-192.7092725841602032
 30
0.0
 40
429.5922390506601118
 50
90.0365883266572666
 51
90.9834478712060672
  0
LINE
  5
6B99
  8
0
 10
4175.32919569245405
 20
224.4848474025151859
 30
0.0
 11
4188.6888619800665765
 21
224.4848474025151859
 31
0.0
  0
ARC
  5
6B9A
  8
0
 10
4176.4763195908180933
 20
224.9299131784256929
 30
0.0
 40
0.0317178684292112
 50
161.2616024047675012
 51
215.6096259440857068
  0
ARC
  5
6B9B
  8
0
 10
4176.8574900183430145
 20
226.0545927689352936
 30
0.0
 40
1.2134251555002229
 50
250.4044219945415932
 51
266.1339676485883956
  0
ARC
  5
6B9C
  8
0
 10
4180.282430032701086
 20
266.1073762570734971
 30
0.0
 40
41.4121891917269807
 50
265.1424183709103772
 51
269.2130079895899257
  0
ARC
  5
6B9D
  8
0
 10
4182.1114495417878061
 20
339.0805330045330948
 30
0.0
 40
114.4065699396768991
 50
268.7990620117092817
 51
269.9487068361007118
  0
ARC
  5
6B9E
  8
0
 10
4175.3779418723606796
 20
233.9379567123079084
 30
0.0
 40
0.0633888444891305
 50
87.9057432937927672
 51
136.5635219515004053
  0
ARC
  5
6B9F
  8
0
 10
4175.3367520605406753
 20
233.9018043455747033
 30
0.0
 40
0.051448772065271
 50
143.7054123946921038
 51
200.3186935499107904
  0
ARC
  5
6BA0
  8
0
 10
4571.6389200563362465
 20
379.0164223521164217
 30
0.0
 40
422.0865900019036872
 50
200.1113235075887076
 51
200.1192509429398001
  0
ARC
  5
6BA1
  8
0
 10
4177.0627756501307886
 20
238.0263701345230061
 30
0.0
 40
4.5817762463851759
 50
248.2499612109363909
 51
270.3058333129845892
  0
ARC
  5
6BA2
  8
0
 10
4177.0655468132335955
 20
234.1043290490119091
 30
0.0
 40
0.6600262231650768
 50
271.8828052727105842
 51
76.7512478276942858
  0
ARC
  5
6BA3
  8
0
 10
4177.0746848428671001
 20
234.0837406666339007
 30
0.0
 40
0.6781090427993933
 50
77.901555106090882
 51
129.2438364699206943
  0
ARC
  5
6BA4
  8
0
 10
4176.9731770513553784
 20
234.0860364619580025
 30
0.0
 40
0.6169591790108104
 50
122.0591936136517006
 51
177.8738357152155913
  0
ARC
  5
6BA5
  8
0
 10
4176.1411208127028658
 20
234.0972846726185992
 30
0.0
 40
0.2158359560234067
 50
255.1622053081669037
 51
3.0917199308618102
  0
ARC
  5
6BA6
  8
0
 10
4176.0410297166081364
 20
234.1444770931169899
 30
0.0
 40
0.3192160452777782
 50
259.0478867481098177
 51
317.7507784860878246
  0
ARC
  5
6BA7
  8
0
 10
4175.3388628591501401
 20
233.8922719968254
 30
0.0
 40
0.0591435406720412
 50
85.9127813141625154
 51
137.4605870613823981
  0
ARC
  5
6BA8
  8
0
 10
4176.9485020985630399
 20
234.0578962774233105
 30
0.0
 40
0.6287334761151328
 50
282.7472126705197866
 51
118.7905690077175933
  0
CIRCLE
  5
6BA9
  8
0
 10
4176.946994261810687
 20
234.074220759172789
 30
0.0
 40
0.0068795867188006
  0
CIRCLE
  5
6BAA
  8
0
 10
4176.946994261810687
 20
234.074220759172789
 30
0.0
 40
0.011920178799997
  0
CIRCLE
  5
6BAB
  8
0
 10
4176.946994261810687
 20
234.074220759172789
 30
0.0
 40
0.0268962972183166
  0
CIRCLE
  5
6BAC
  8
0
 10
4176.946994261810687
 20
234.074220759172789
 30
0.0
 40
0.0318959939232009
  0
CIRCLE
  5
6BAD
  8
0
 10
4176.946994261810687
 20
234.074220759172789
 30
0.0
 40
0.0468823371534512
  0
CIRCLE
  5
6BAE
  8
0
 10
4176.946994261810687
 20
234.074220759172789
 30
0.0
 40
0.0518754262999988
  0
CIRCLE
  5
6BAF
  8
0
 10
4176.946994261810687
 20
234.074220759172789
 30
0.0
 40
0.0668567830279125
  0
CIRCLE
  5
6BB0
  8
0
 10
4176.946994261810687
 20
234.074220759172789
 30
0.0
 40
0.0718481446453307
  0
CIRCLE
  5
6BB1
  8
0
 10
4176.946994261810687
 20
234.074220759172789
 30
0.0
 40
0.0868332162536625
  0
CIRCLE
  5
6BB2
  8
0
 10
4176.946994261810687
 20
234.074220759172789
 30
0.0
 40
0.0918341244835835
  0
CIRCLE
  5
6BB3
  8
0
 10
4176.946994261810687
 20
234.074220759172789
 30
0.0
 40
0.1068101356795194
  0
CIRCLE
  5
6BB4
  8
0
 10
4176.946994261810687
 20
234.074220759172789
 30
0.0
 40
0.1118094679834897
  0
CIRCLE
  5
6BB5
  8
0
 10
4176.946994261810687
 20
234.074220759172789
 30
0.0
 40
0.1267864952521567
  0
CIRCLE
  5
6BB6
  8
0
 10
4176.946994261810687
 20
234.074220759172789
 30
0.0
 40
0.1317913066523442
  0
CIRCLE
  5
6BB7
  8
0
 10
4176.946994261810687
 20
234.074220759172789
 30
0.0
 40
0.1467805631624419
  0
CIRCLE
  5
6BB8
  8
0
 10
4176.946994261810687
 20
234.074220759172789
 30
0.0
 40
0.1517602367721062
  0
CIRCLE
  5
6BB9
  8
0
 10
4176.946994261810687
 20
234.074220759172789
 30
0.0
 40
0.1667039510298398
  0
CIRCLE
  5
6BBA
  8
0
 10
4176.946994261810687
 20
234.074220759172789
 30
0.0
 40
0.1717411685999952
  0
CIRCLE
  5
6BBB
  8
0
 10
4176.946994261810687
 20
234.074220759172789
 30
0.0
 40
0.1866995186366349
  0
CIRCLE
  5
6BBC
  8
0
 10
4176.946994261810687
 20
234.074220759172789
 30
0.0
 40
0.1917109926792014
  0
CIRCLE
  5
6BBD
  8
0
 10
4176.946994261810687
 20
234.074220759172789
 30
0.0
 40
0.2067023009495408
  0
CIRCLE
  5
6BBE
  8
0
 10
4176.946994261810687
 20
234.074220759172789
 30
0.0
 40
0.2116771480201529
  0
CIRCLE
  5
6BBF
  8
0
 10
4176.946994261810687
 20
234.074220759172789
 30
0.0
 40
0.2266449115772271
  0
CIRCLE
  5
6BC0
  8
0
 10
4176.946994261810687
 20
234.074220759172789
 30
0.0
 40
0.2316631968869347
  0
LINE
  5
6BC1
  8
0
 10
4177.856072245798714
 20
225.1063878402798935
 30
0.0
 11
4186.1619854267237315
 21
225.1063878402798935
 31
0.0
  0
ARC
  5
6BC2
  8
0
 10
4176.8399871399178664
 20
206.6895827301678992
 30
0.0
 40
0.1132631123016675
 50
178.6692560335374083
 51
262.7319156893411218
  0
ARC
  5
6BC3
  8
0
 10
4177.2086948949981888
 20
207.1494542900238969
 30
0.0
 40
0.4040278730367848
 50
146.7206530743260942
 51
171.037331818568191
  0
ARC
  5
6BC4
  8
0
 10
4016.9561986565358893
 20
233.7490305910773998
 30
0.0
 40
162.0756375277441919
 50
350.6334235552170071
 51
353.6507125792791157
  0
ARC
  5
6BC5
  8
0
 10
4177.6960115051406319
 20
215.8555932297703919
 30
0.0
 40
0.3430329130332346
 50
354.9166365216321992
 51
60.4174313477811111
  0
ARC
  5
6BC6
  8
0
 10
4176.6203063277152978
 20
217.5405335089670018
 30
0.0
 40
1.863566659481295
 50
311.9207501897989232
 51
324.7908837025850062
  0
ARC
  5
6BC7
  8
0
 10
4179.8746549404077086
 20
214.216326400921389
 30
0.0
 40
2.8390474419745901
 50
87.5636778983569855
 51
127.5868701300090038
  0
ARC
  5
6BC8
  8
0
 10
4182.173160416779865
 20
277.1902968800629878
 30
0.0
 40
60.1769101968254319
 50
267.9259957518838746
 51
269.8437264645805271
  0
ARC
  5
6BC9
  8
0
 10
4175.7183333670964203
 20
223.1005935867563892
 30
0.0
 40
0.1247752151543567
 50
199.8531349955080998
 51
264.889620684248996
  0
ARC
  5
6BCA
  8
0
 10
4175.3890391901086332
 20
223.0075558330132992
 30
0.0
 40
0.2179061473429677
 50
13.4441999866221593
 51
85.9187863200200468
  0
ARC
  5
6BCB
  8
0
 10
4177.1113457538704097
 20
223.1121879045940943
 30
0.0
 40
0.1366936274592766
 50
276.2792777958749184
 51
323.7888699652086757
  0
ARC
  5
6BCC
  8
0
 10
4177.4239973198618827
 20
222.9110204685908059
 30
0.0
 40
0.2354771063237802
 50
118.5235290611981043
 51
149.2454239450391924
  0
ARC
  5
6BCD
  8
0
 10
4176.6818076086183282
 20
221.7315482542740028
 30
0.0
 40
1.522692665537462
 50
56.5787150692632324
 51
78.7358519262047736
  0
ARC
  5
6BCE
  8
0
 10
4177.6287722497463619
 20
223.026727128334187
 30
0.0
 40
0.1109668965732899
 50
192.6354263642909928
 51
268.243776656255875
  0
ARC
  5
6BCF
  8
0
 10
4179.1548876365131946
 20
223.0417780588913956
 30
0.0
 40
0.222916253055436
 50
124.1435424354638997
 51
124.7622218054166012
  0
ARC
  5
6BD0
  8
0
 10
4179.1624642516171662
 20
223.0391666532730994
 30
0.0
 40
0.2307000104114937
 50
160.1176279056327871
 51
174.5117617944472954
  0
ARC
  5
6BD1
  8
0
 10
4183.057276646288301
 20
152.8172627067258134
 30
0.0
 40
70.4205054235794705
 50
91.0949482175446548
 51
93.3473292936121624
  0
LINE
  5
6BD2
  8
0
 10
4178.5754427734118508
 20
224.1084056465728054
 30
0.0
 11
4185.4426148991124137
 21
224.1084056465728054
 31
0.0
  0
ARC
  5
6BD3
  8
0
 10
4178.5810491048696349
 20
224.1722079745773897
 30
0.0
 40
0.0640481694604339
 50
208.2828803511204114
 51
264.9782990939963838
  0
ARC
  5
6BD4
  8
0
 10
4178.0642500337662568
 20
224.1236020912672018
 30
0.0
 40
0.0665309192924427
 50
123.9435357799026036
 51
179.7495471830663973
  0
ARC
  5
6BD5
  8
0
 10
4182.2453483160406904
 20
-33.4762704804307702
 30
0.0
 40
257.9002216086391854
 50
90.0525013534785899
 51
90.5830532799914607
  0
ARC
  5
6BD6
  8
0
 10
4180.7610235682286657
 20
202.0427263085404093
 30
0.0
 40
22.3969070264921797
 50
92.9177990386418458
 51
98.7528887404891833
  0
LINE
  5
6BD7
  8
0
 10
4187.5876731337120873
 20
224.1553053455727991
 30
0.0
 11
4187.5866475375114533
 21
224.1787953599728098
 31
0.0
  0
LINE
  5
6BD8
  8
0
 10
4187.052915535811735
 20
224.0953058088728085
 30
0.0
 11
4187.0532202500107815
 21
224.102284910872811
 31
0.0
  0
LINE
  5
6BD9
  8
0
 10
4185.4632968710120622
 20
224.1787953599728098
 30
0.0
 11
4185.4627274873337228
 21
224.1135504500674074
 31
0.0
  0
LINE
  5
6BDA
  8
0
 10
4185.9843268380118388
 20
224.0244667421727911
 30
0.0
 11
4185.9832867595114294
 21
224.1787953599728098
 31
0.0
  0
LINE
  5
6BDB
  8
0
 10
4185.4934106006112415
 20
224.1418603438727928
 30
0.0
 11
4185.4934106006112415
 21
224.1787953599728098
 31
0.0
  0
LINE
  5
6BDC
  8
0
 10
4186.27123449921055
 20
224.0953058088728085
 30
0.0
 11
4186.2676930104107669
 21
224.1787953599728098
 31
0.0
  0
LINE
  5
6BDD
  8
0
 10
4185.0891275391113595
 20
223.0167272281728117
 30
0.0
 11
4185.0852358685124273
 21
223.0612311283728104
 31
0.0
  0
LINE
  5
6BDE
  8
0
 10
4187.2084574936106947
 20
207.2123981521727956
 30
0.0
 11
4187.2913030969120882
 21
206.6922131272727938
 31
0.0
  0
LINE
  5
6BDF
  8
0
 10
4188.3108386242120105
 20
222.9763143598727879
 30
0.0
 11
4186.8917610781109033
 21
222.9763143598727879
 31
0.0
  0
LINE
  5
6BE0
  8
0
 10
4188.0975166238122256
 20
224.0787953598727995
 30
0.0
 11
4187.6675969712123333
 21
224.0787953598727995
 31
0.0
  0
ARC
  5
6BE1
  8
0
 10
4188.0848278442226729
 20
224.1777610726398109
 30
0.0
 40
0.0997758359069408
 50
277.3062537581021161
 51
330.6096357921956042
  0
ARC
  5
6BE2
  8
0
 10
4187.6713314272346906
 20
224.1626964461682121
 30
0.0
 40
0.0839841559065636
 50
185.048897887732295
 51
267.451434252732497
  0
ARC
  5
6BE3
  8
0
 10
4187.139542822698786
 20
224.0921111936839907
 30
0.0
 40
0.0869200269284905
 50
94.2218587122967222
 51
173.2783004419266035
  0
ARC
  5
6BE4
  8
0
 10
4188.2458672580078201
 20
224.0988797453281052
 30
0.0
 40
0.0799156341093876
 50
89.9600105482234085
 51
158.016476350986693
  0
ARC
  5
6BE5
  8
0
 10
4185.1996342375523454
 20
223.0267706582814924
 30
0.0
 40
0.1109621597049724
 50
185.1930747337052026
 51
269.522221382474072
  0
ARC
  5
6BE6
  8
0
 10
4186.3501267511828701
 20
224.1032366270939065
 30
0.0
 40
0.0792898814660079
 50
185.740499566081013
 51
263.4345180924502756
  0
ARC
  5
6BE7
  8
0
 10
4186.9741766277393253
 20
224.1023780845804936
 30
0.0
 40
0.0790558836018939
 50
279.7613886545804007
 51
354.8675042589928239
  0
LINE
  5
6BE8
  8
0
 10
4186.0212535461114385
 20
224.0244667421727911
 30
0.0
 11
4186.0203379224267337
 21
224.1238929120436865
 31
0.0
  0
LINE
  5
6BE9
  8
0
 10
4188.5743056550727488
 20
224.1787953599728098
 30
0.0
 11
4188.5687853461113264
 21
224.0244667421727911
 31
0.0
  0
LINE
  5
6BEA
  8
0
 10
4188.586518891634114
 20
224.5314787632678986
 30
0.0
 11
4188.9781543330109344
 21
235.5458123564727941
 31
0.0
  0
LINE
  5
6BEB
  8
0
 10
4189.0301527955443817
 20
223.3007953599727955
 30
0.0
 11
4189.0301527955443817
 21
223.2749012702728066
 31
0.0
  0
LINE
  5
6BEC
  8
0
 10
4188.7744506280923815
 20
224.2537953599727985
 30
0.0
 11
4188.7744506280923815
 21
224.2337953623728026
 31
0.0
  0
LINE
  5
6BED
  8
0
 10
4188.7225324015898877
 20
224.447643513772789
 30
0.0
 11
4188.7744506280923815
 21
224.2537953599727985
 31
0.0
  0
LINE
  5
6BEE
  8
0
 10
4189.0301527955443817
 20
223.3007953599727955
 30
0.0
 11
4188.885902277544119
 21
223.8391456555727927
 31
0.0
  0
LINE
  5
6BEF
  8
0
 10
4189.3358182136116739
 20
235.5458123564727941
 30
0.0
 11
4182.009028836260768
 21
235.5458123564727941
 31
0.0
  0
ARC
  5
6BF0
  8
0
 10
4189.3240883900771223
 20
235.667241659815403
 30
0.0
 40
0.1219945263952837
 50
275.5175364875336754
 51
356.2370991544386811
  0
ARC
  5
6BF1
  8
0
 10
4188.9765097389372386
 20
223.2784793748492973
 30
0.0
 40
0.0537622577138067
 50
274.8473858742768812
 51
356.1839039195000964
  0
ARC
  5
6BF2
  8
0
 10
4188.9201790799397713
 20
222.5643954186053008
 30
0.0
 40
0.3532495266720874
 50
25.6981900321341286
 51
84.1612849298851842
  0
ARC
  5
6BF3
  8
0
 10
4184.6442346629346503
 20
220.9348410967205041
 30
0.0
 40
4.92801313369492
 50
352.8620821887233774
 51
21.2080250137643382
  0
ARC
  5
6BF4
  8
0
 10
4184.4348782062133978
 20
221.0030137409412134
 30
0.0
 40
5.1443865140529956
 50
289.5069580171493726
 51
352.3984210139481092
  0
ARC
  5
6BF5
  8
0
 10
4188.592563360184613
 20
223.7057887029442043
 30
0.0
 40
0.3222294171118358
 50
24.4473672359571488
 51
81.485617396931417
  0
ARC
  5
6BF6
  8
0
 10
4188.7141563632803809
 20
224.2390859881718939
 30
0.0
 40
0.060525937337723
 50
275.0539049258275099
 51
354.9853253721558985
  0
ARC
  5
6BF7
  8
0
 10
4188.661722771696077
 20
224.4264475424301111
 30
0.0
 40
0.0643978282939014
 50
19.2166513983097786
 51
65.0750666737230716
  0
ARC
  5
6BF8
  8
0
 10
4186.1401618458230587
 20
224.8768574682341068
 30
0.0
 40
0.2305655229533828
 50
63.6502500589192266
 51
84.5686861531114147
  0
ARC
  5
6BF9
  8
0
 10
4187.4601250723044359
 20
232.9849146181078936
 30
0.0
 40
7.9947158116365733
 50
261.2395321195789961
 51
267.0830748331737823
  0
ARC
  5
6BFA
  8
0
 10
4186.7582696137287712
 20
220.2167298533402118
 30
0.0
 40
4.792915552383314
 50
80.2278355052649204
 51
86.4710138958456582
  0
ARC
  5
6BFB
  8
0
 10
4183.0427554160187356
 20
212.2288102981210898
 30
0.0
 40
13.4940344166178896
 50
65.2654390909067104
 51
70.3890728752945449
  0
ARC
  5
6BFC
  8
0
 10
4181.8342666520229614
 20
235.5123373099341109
 30
0.0
 40
7.6129706531321411
 50
1.1056346935336201
 51
8.0839101598722873
  0
ARC
  5
6BFD
  8
0
 10
4189.074286536380896
 20
236.5170549879302087
 30
0.0
 40
0.3045058232315622
 50
12.4875788084824801
 51
83.6378904146810243
  0
ARC
  5
6BFE
  8
0
 10
4181.7346969354848625
 20
-192.7092725841582137
 30
0.0
 40
429.5922390506580086
 50
89.0165521287939185
 51
89.9634116733427476
  0
ARC
  5
6BFF
  8
0
 10
4187.5417380817034427
 20
224.9299131784256929
 30
0.0
 40
0.0317178684292112
 50
324.3903740559129005
 51
18.7383975952324988
  0
ARC
  5
6C00
  8
0
 10
4187.1605676541803405
 20
226.0545927689352936
 30
0.0
 40
1.2134251555002229
 50
273.8660323514117181
 51
289.595578005458492
  0
ARC
  5
6C01
  8
0
 10
4183.735627639822269
 20
266.1073762570734971
 30
0.0
 40
41.4121891917269807
 50
270.7869920104100743
 51
274.8575816290895091
  0
ARC
  5
6C02
  8
0
 10
4181.9066081307328204
 20
339.0805330046738959
 30
0.0
 40
114.4065699398177003
 50
270.0512931638992882
 51
271.2009379882384792
  0
ARC
  5
6C03
  8
0
 10
4187.1780705326045791
 20
206.6895827301678992
 30
0.0
 40
0.1132631123016675
 50
277.2680843106588782
 51
1.330743966462629
  0
ARC
  5
6C04
  8
0
 10
4186.8093627775251662
 20
207.1494542900238969
 30
0.0
 40
0.4040278730367848
 50
8.9626681814317557
 51
33.2793469256738277
  0
ARC
  5
6C05
  8
0
 10
4347.0618590159856467
 20
233.7490305910773998
 30
0.0
 40
162.0756375277441919
 50
186.3492874207209127
 51
189.3665764447829929
  0
ARC
  5
6C06
  8
0
 10
4186.3220461673818136
 20
215.8555932297703919
 30
0.0
 40
0.3430329130332346
 50
119.582568652218896
 51
185.0833634783678008
  0
ARC
  5
6C07
  8
0
 10
4187.3977513448071477
 20
217.5405335089670018
 30
0.0
 40
1.863566659481295
 50
215.2091162974151075
 51
228.0792498102011052
  0
ARC
  5
6C08
  8
0
 10
4184.1434027321138274
 20
214.216326400921389
 30
0.0
 40
2.8390474419745901
 50
52.4131298699910033
 51
92.4363221016430288
  0
ARC
  5
6C09
  8
0
 10
4181.844897255741671
 20
277.1902968800629878
 30
0.0
 40
60.1769101968254319
 50
270.1562735354194729
 51
272.0740042481161254
  0
ARC
  5
6C0A
  8
0
 10
4188.2997243054269347
 20
223.1005935867563892
 30
0.0
 40
0.1247752151543567
 50
275.1103793157508903
 51
340.1468650044918149
  0
ARC
  5
6C0B
  8
0
 10
4188.6290184824138123
 20
223.0075558330132992
 30
0.0
 40
0.2179061473429677
 50
94.0812136799799674
 51
166.5558000133777909
  0
ARC
  5
6C0C
  8
0
 10
4186.9067119186511263
 20
223.1121879045940943
 30
0.0
 40
0.1366936274592766
 50
216.2111300347912959
 51
263.7207222041250816
  0
ARC
  5
6C0D
  8
0
 10
4186.5940603526596533
 20
222.9110204685908059
 30
0.0
 40
0.2354771063237802
 50
30.7545760549607614
 51
61.4764709388018815
  0
ARC
  5
6C0E
  8
0
 10
4187.3362500639050268
 20
221.7315482542740028
 30
0.0
 40
1.522692665537462
 50
101.264148073795198
 51
123.4212849307368032
  0
ARC
  5
6C0F
  8
0
 10
4186.3892854227769931
 20
223.026727128334187
 30
0.0
 40
0.1109668965732899
 50
271.7562233437440113
 51
347.3645736357088936
  0
ARC
  5
6C10
  8
0
 10
4184.8631700360110699
 20
223.0417780588913956
 30
0.0
 40
0.222916253055436
 50
55.2377781945833632
 51
55.8564575645361217
  0
ARC
  5
6C11
  8
0
 10
4184.8555934209052793
 20
223.0391666532730994
 30
0.0
 40
0.2307000104114937
 50
5.4882382055526726
 51
19.8823720943671809
  0
ARC
  5
6C12
  8
0
 10
4180.960781026235054
 20
152.8172627067258134
 30
0.0
 40
70.4205054235794705
 50
86.6526707063878519
 51
88.9050517824553452
  0
ARC
  5
6C13
  8
0
 10
4185.4370085676519011
 20
224.1722079745773897
 30
0.0
 40
0.0640481694604339
 50
275.0217009060035025
 51
331.7171196488794749
  0
ARC
  5
6C14
  8
0
 10
4185.9538076387580077
 20
224.1236020912672018
 30
0.0
 40
0.0665309192924427
 50
0.2504528169336082
 51
56.0564642200973395
  0
ARC
  5
6C15
  8
0
 10
4181.7727093564817551
 20
-33.4762704804307702
 30
0.0
 40
257.9002216086391854
 50
89.4169467200085393
 51
89.9474986465213959
  0
ARC
  5
6C16
  8
0
 10
4183.2570341042937798
 20
202.0427263085404093
 30
0.0
 40
22.3969070264921797
 50
81.2471112595108167
 51
87.0822009613581542
  0
ENDSEC
  0
EOF
