  0
SECTION
  2
HEADER
  9
$ACADVER
  1
AC1009
  9
$INSBASE
 10
4382.7768536988705819
 20
266.815780233249086
 30
0.0
  9
$EXTMIN
 10
4352.4376826463740144
 20
266.815780233249086
 30
0.0
  9
$EXTMAX
 10
4382.7838490059111791
 20
297.1214294281123216
 30
0.0
  9
$LIMMIN
 10
0.0
 20
0.0
  9
$LIMMAX
 10
11.6929133858000007
 20
8.2677165353999982
  9
$ORTHOMODE
 70
     1
  9
$REGENMODE
 70
     1
  9
$FILLMODE
 70
     1
  9
$QTEXTMODE
 70
     0
  9
$MIRRTEXT
 70
     0
  9
$DRAGMODE
 70
     2
  9
$LTSCALE
 40
0.6431102362
  9
$OSMODE
 70
  4095
  9
$ATTMODE
 70
     1
  9
$TEXTSIZE
 40
0.2
  9
$TRACEWID
 40
0.05
  9
$TEXTSTYLE
  7
STANDARD
  9
$CLAYER
  8
0
  9
$CELTYPE
  6
BYLAYER
  9
$CECOLOR
 62
   256
  9
$DIMSCALE
 40
1.0
  9
$DIMASZ
 40
0.1875
  9
$DIMEXO
 40
0.0625
  9
$DIMDLI
 40
0.4443307087
  9
$DIMRND
 40
0.0
  9
$DIMDLE
 40
0.0
  9
$DIMEXE
 40
0.125
  9
$DIMTP
 40
0.01
  9
$DIMTM
 40
0.01
  9
$DIMTXT
 40
2.0
  9
$DIMCEN
 40
0.1052362205
  9
$DIMTSZ
 40
0.0
  9
$DIMTOL
 70
     1
  9
$DIMLIM
 70
     0
  9
$DIMTIH
 70
     1
  9
$DIMTOH
 70
     1
  9
$DIMSE1
 70
     0
  9
$DIMSE2
 70
     0
  9
$DIMTAD
 70
     0
  9
$DIMZIN
 70
     0
  9
$DIMBLK
  1

  9
$DIMASO
 70
     1
  9
$DIMSHO
 70
     1
  9
$DIMPOST
  1
\X
  9
$DIMAPOST
  1

  9
$DIMALT
 70
     1
  9
$DIMALTD
 70
     2
  9
$DIMALTF
 40
25.3999999999999986
  9
$DIMLFAC
 40
1.0
  9
$DIMTOFL
 70
     0
  9
$DIMTVP
 40
0.0
  9
$DIMTIX
 70
     0
  9
$DIMSOXD
 70
     0
  9
$DIMSAH
 70
     0
  9
$DIMBLK1
  1

  9
$DIMBLK2
  1

  9
$DIMSTYLE
  2
STANDARD
  9
$DIMCLRD
 70
     0
  9
$DIMCLRE
 70
     0
  9
$DIMCLRT
 70
     0
  9
$DIMTFAC
 40
1.0
  9
$DIMGAP
 40
0.09
  9
$LUNITS
 70
     2
  9
$LUPREC
 70
     4
  9
$SKETCHINC
 40
0.1
  9
$FILLETRAD
 40
0.0
  9
$AUNITS
 70
     0
  9
$AUPREC
 70
     0
  9
$MENU
  1
.
  9
$ELEVATION
 40
0.0
  9
$PELEVATION
 40
0.0
  9
$THICKNESS
 40
0.0
  9
$LIMCHECK
 70
     0
  9
$BLIPMODE
 70
     0
  9
$CHAMFERA
 40
0.0
  9
$CHAMFERB
 40
0.0
  9
$SKPOLY
 70
     0
  9
$TDCREATE
 40
2458060.468368056230247
  9
$TDUPDATE
 40
2458993.709976851940155
  9
$TDINDWG
 40
0.3068126157
  9
$TDUSRTIMER
 40
0.3068126157
  9
$USRTIMER
 70
     1
  9
$ANGBASE
 50
0.0
  9
$ANGDIR
 70
     0
  9
$PDMODE
 70
     0
  9
$PDSIZE
 40
0.3125
  9
$PLINEWID
 40
0.0
  9
$COORDS
 70
     1
  9
$SPLFRAME
 70
     0
  9
$SPLINETYPE
 70
     6
  9
$SPLINESEGS
 70
     8
  9
$ATTDIA
 70
     1
  9
$ATTREQ
 70
     1
  9
$HANDLING
 70
     1
  9
$HANDSEED
  5
70FE
  9
$SURFTAB1
 70
     6
  9
$SURFTAB2
 70
     6
  9
$SURFTYPE
 70
     6
  9
$SURFU
 70
     6
  9
$SURFV
 70
     6
  9
$UCSNAME
  2

  9
$UCSORG
 10
0.0
 20
0.0
 30
0.0
  9
$UCSXDIR
 10
1.0
 20
0.0
 30
0.0
  9
$UCSYDIR
 10
0.0
 20
1.0
 30
0.0
  9
$PUCSNAME
  2

  9
$PUCSORG
 10
0.0
 20
0.0
 30
0.0
  9
$PUCSXDIR
 10
1.0
 20
0.0
 30
0.0
  9
$PUCSYDIR
 10
0.0
 20
1.0
 30
0.0
  9
$USERI1
 70
     0
  9
$USERI2
 70
     0
  9
$USERI3
 70
     0
  9
$USERI4
 70
     0
  9
$USERI5
 70
     0
  9
$USERR1
 40
0.0
  9
$USERR2
 40
0.0
  9
$USERR3
 40
0.0
  9
$USERR4
 40
0.0
  9
$USERR5
 40
0.0
  9
$WORLDVIEW
 70
     1
  9
$SHADEDGE
 70
     3
  9
$SHADEDIF
 70
    70
  9
$TILEMODE
 70
     1
  9
$MAXACTVP
 70
    64
  9
$PLIMCHECK
 70
     0
  9
$PEXTMIN
 10
1.0000000000000000E+20
 20
1.0000000000000000E+20
 30
1.0000000000000000E+20
  9
$PEXTMAX
 10
-1.0000000000000000E+20
 20
-1.0000000000000000E+20
 30
-1.0000000000000000E+20
  9
$PLIMMIN
 10
0.0
 20
0.0
  9
$PLIMMAX
 10
12.0
 20
9.0
  9
$UNITMODE
 70
     0
  9
$VISRETAIN
 70
     1
  9
$PLINEGEN
 70
     0
  9
$PSLTSCALE
 70
     1
  0
ENDSEC
  0
SECTION
  2
TABLES
  0
TABLE
  2
VPORT
 70
     1
  0
VPORT
  2
*ACTIVE
 70
     0
 10
0.0
 20
0.0
 11
1.0
 21
1.0
 12
0.0
 22
0.0
 13
0.0
 23
0.0
 14
1.0
 24
1.0
 15
0.0
 25
0.0
 16
0.0
 26
0.0
 36
160.3794660465555069
 17
4367.6111627843629321
 27
281.9391326904296875
 37
0.0
 40
42.8546016773192093
 41
2.9513274336283182
 42
50.0
 43
0.0
 44
0.0
 50
0.0
 51
0.0
 71
     0
 72
   100
 73
     1
 74
     1
 75
     0
 76
     0
 77
     0
 78
     0
  0
ENDTAB
  0
TABLE
  2
LTYPE
 70
     2
  0
LTYPE
  2
CONTINUOUS
 70
     0
  3
Solid line
 72
    65
 73
     0
 40
0.0
  0
LTYPE
  2
PHANTOM2
 70
     0
  3
___ _ _ ___ _ _ ___ _ _ ___ _ _
 72
    65
 73
     6
 40
1.25
 49
0.625
 49
-0.125
 49
0.125
 49
-0.125
 49
0.125
 49
-0.125
  0
ENDTAB
  0
TABLE
  2
LAYER
 70
     2
  0
LAYER
  2
0
 70
     0
 62
   255
  6
CONTINUOUS
  0
LAYER
  2
DEFPOINTS
 70
     0
 62
     7
  6
CONTINUOUS
  0
ENDTAB
  0
TABLE
  2
STYLE
 70
     1
  0
STYLE
  2
STANDARD
 70
     0
 40
0.0
 41
0.8
 50
0.0
 71
     0
 42
0.2
  3
txt
  4

  0
ENDTAB
  0
TABLE
  2
VIEW
 70
     0
  0
ENDTAB
  0
TABLE
  2
UCS
 70
     0
  0
ENDTAB
  0
TABLE
  2
APPID
 70
     9
  0
APPID
  2
ACAD
 70
     0
  0
APPID
  2
ACAD_MLEADERVER
 70
     0
  0
APPID
  2
ACAD_EXEMPT_FROM_CAD_STANDARDS
 70
     0
  0
APPID
  2
ACAD_NAV_VCDISPLAY
 70
     0
  0
APPID
  2
ACAECLAYERSTANDARD
 70
     0
  0
APPID
  2
ACCMTRANSPARENCY
 70
     0
  0
APPID
  2
ACAD_DSTYLE_DIMJAG
 70
     0
  0
APPID
  2
ACAD_DSTYLE_DIMTALN
 70
     0
  0
APPID
  2
ACDBATTR
 70
     0
  0
ENDTAB
  0
TABLE
  2
DIMSTYLE
 70
     1
  0
DIMSTYLE
  2
STANDARD
 70
     0
  3

  4

  5

  6

  7

 40
1.0
 41
0.1875
 42
0.0625
 43
0.38
 44
0.125
 45
0.0
 46
0.0
 47
0.01
 48
0.01
140
0.15625
141
0.09
142
0.0
143
25.3999999999999986
144
1.0
145
0.0
146
1.0
147
0.09
 71
     1
 72
     0
 73
     1
 74
     1
 75
     0
 76
     0
 77
     0
 78
     4
170
     0
171
     2
172
     0
173
     0
174
     0
175
     0
176
     0
177
     0
178
     0
  0
ENDTAB
  0
ENDSEC
  0
SECTION
  2
BLOCKS
  0
BLOCK
  8
0
  2
$MODEL_SPACE
 70
     0
 10
0.0
 20
0.0
 30
0.0
  3
$MODEL_SPACE
  1

  0
ENDBLK
  5
21
  8
0
  0
BLOCK
 67
     1
  8
0
  2
$PAPER_SPACE
 70
     0
 10
0.0
 20
0.0
 30
0.0
  3
$PAPER_SPACE
  1

  0
ENDBLK
  5
1D
 67
     1
  8
0
  0
ENDSEC
  0
SECTION
  2
ENTITIES
  0
ATTDEF
  5
3930
  8
DEFPOINTS
 10
4382.7731823392423394
 20
266.827821505589327
 30
0.0
 40
0.001
  1
402322-RA
  3

  2
MODELNUMBER
 70
     0
1001
ACDBATTR
1070
     0
1070
     1
  0
ATTDEF
  5
3931
  8
DEFPOINTS
 10
4382.7731823392423394
 20
266.8261548389227187
 30
0.0
 40
0.001
  1
WINDHAM
  3

  2
TRADENAME
 70
     0
1001
ACDBATTR
1070
     0
1070
     1
  0
ATTDEF
  5
3932
  8
DEFPOINTS
 10
4382.7731823392423394
 20
266.8244881722559967
 30
0.0
 40
0.001
  1
TOILET
  3

  2
PRODUCT
 70
     0
1001
ACDBATTR
1070
     0
1070
     1
  0
LINE
  5
6F33
  8
0
 10
4352.8453822114452123
 20
283.5203257994490968
 30
0.0
 11
4352.8453822898445651
 21
283.5393461815490923
 31
0.0
  0
LINE
  5
6F34
  8
0
 10
4352.9483822575457452
 20
284.6906166481492164
 30
0.0
 11
4352.9483822575457452
 21
284.662408031649079
 31
0.0
  0
LINE
  5
6F35
  8
0
 10
4352.9883525599452696
 20
284.0729191603492154
 30
0.0
 11
4352.8453822898445651
 21
283.5393461815490923
 31
0.0
  0
LINE
  5
6F36
  8
0
 10
4379.9763403373453912
 20
267.9938450977492153
 30
0.0
 11
4366.5679464502445626
 21
267.7598007118492092
 31
0.0
  0
LINE
  5
6F37
  8
0
 10
4380.7932695164454344
 20
266.815780233249086
 30
0.0
 11
4355.2174540147452717
 21
266.815780233249086
 31
0.0
  0
LINE
  5
6F38
  8
0
 10
4356.2532186893449762
 20
284.3338563628491897
 30
0.0
 11
4356.2529139751459297
 21
284.3408354648491922
 31
0.0
  0
LINE
  5
6F39
  8
0
 10
4357.4192264000457726
 20
284.3338563628491897
 30
0.0
 11
4357.4209118775452225
 21
284.3724601438490822
 31
0.0
  0
LINE
  5
6F3A
  8
0
 10
4357.0455521834446699
 20
283.2552777821492214
 30
0.0
 11
4357.0526708005445471
 21
283.3366440601491263
 31
0.0
  0
LINE
  5
6F3B
  8
0
 10
4352.9709595148806329
 20
284.7233979564915103
 30
0.0
 11
4353.3349359762451058
 21
284.8854498893492178
 31
0.0
  0
LINE
  5
6F3C
  8
0
 10
4373.6510514947449337
 20
279.1722788465492044
 30
0.0
 11
4375.9987005272632814
 21
279.7142763321102166
 31
0.0
  0
LINE
  5
6F3D
  8
0
 10
4376.9687065456446362
 20
279.9382198669491117
 30
0.0
 11
4378.1719348644455749
 21
280.2160070123491096
 31
0.0
  0
LINE
  5
6F3E
  8
0
 10
4367.2952603092453501
 20
271.2719209935490881
 30
0.0
 11
4367.4493184085449684
 21
268.5463677139491097
 31
0.0
  0
LINE
  5
6F3F
  8
0
 10
4380.2223437877446486
 20
282.4943629104491265
 30
0.0
 11
4379.2275201500451658
 21
282.3608808976492242
 31
0.0
  0
LINE
  5
6F40
  8
0
 10
4369.7840872440447129
 20
271.5950954595490998
 30
0.0
 11
4370.2170447983453414
 21
269.9792758692490793
 31
0.0
  0
LINE
  5
6F41
  8
0
 10
4369.6525972976378398
 20
283.4679741325206805
 30
0.0
 11
4370.4675673932442805
 21
283.5997422811490765
 31
0.0
  0
LINE
  5
6F42
  8
0
 10
4370.8402478302450618
 20
283.660056615749113
 30
0.0
 11
4370.8995520800463055
 21
283.6696543729490827
 31
0.0
  0
LINE
  5
6F43
  8
0
 10
4370.4675673932442805
 20
283.5997422811490765
 30
0.0
 11
4370.8402478302450618
 21
283.660056615749113
 31
0.0
  0
LINE
  5
6F44
  8
0
 10
4368.9141830290445796
 20
282.3443629104492061
 30
0.0
 11
4374.7373895153441481
 21
282.3443683362492038
 31
0.0
  0
LINE
  5
6F45
  8
0
 10
4375.8022551021458639
 20
282.4943629104491265
 30
0.0
 11
4380.9153623663451071
 21
282.4943629104491265
 31
0.0
  0
LINE
  5
6F46
  8
0
 10
4365.6044674905451757
 20
283.214864913849226
 30
0.0
 11
4366.0898131637450206
 21
283.214864913849226
 31
0.0
  0
LINE
  5
6F47
  8
0
 10
4371.3069606528442819
 20
270.2853279457490885
 30
0.0
 11
4370.8952388433453962
 21
271.8218946574490928
 31
0.0
  0
LINE
  5
6F48
  8
0
 10
4369.8266204982110139
 20
283.496111011507594
 30
0.0
 11
4369.8161988844703956
 21
283.1543629104490947
 31
0.0
  0
LINE
  5
6F49
  8
0
 10
4371.0452892029434224
 20
282.3443648961173267
 30
0.0
 11
4370.4692848560453058
 21
281.9512321567490858
 31
0.0
  0
LINE
  5
6F4A
  8
0
 10
4366.2258267696452094
 20
284.3173459138491239
 30
0.0
 11
4367.3183371222448841
 21
284.3173459138491239
 31
0.0
  0
LINE
  5
6F4B
  8
0
 10
4353.1735100167452401
 20
284.4173459138492035
 30
0.0
 11
4369.0997933940443545
 21
284.4173459138492035
 31
0.0
  0
LINE
  5
6F4C
  8
0
 10
4370.8995520800463055
 20
283.6696543729490827
 30
0.0
 11
4370.8902588737446422
 21
283.7442091464491227
 31
0.0
  0
LINE
  5
6F4D
  8
0
 10
4370.8902588737446422
 20
283.7442091464491227
 30
0.0
 11
4370.7453589003462184
 21
284.9066694006490934
 31
0.0
  0
LINE
  5
6F4E
  8
0
 10
4370.9618090838457647
 20
283.1543459138492267
 30
0.0
 11
4370.8985569358001158
 21
283.669493319519006
 31
0.0
  0
LINE
  5
6F4F
  8
0
 10
4370.9069512751448201
 20
283.7274225724490861
 30
0.0
 11
4370.9744181378446228
 21
283.1779490703492002
 31
0.0
  0
LINE
  5
6F50
  8
0
 10
4373.6142017114862028
 20
282.3443672897136025
 30
0.0
 11
4373.6142022575450028
 21
281.7583121034492137
 31
0.0
  0
LINE
  5
6F51
  8
0
 10
4373.9142022575451847
 20
281.7583121034492137
 30
0.0
 11
4373.9142017114845657
 21
282.3443675692399779
 31
0.0
  0
LINE
  5
6F52
  8
0
 10
4376.3581314738448782
 20
279.14333131494908
 30
0.0
 11
4376.3581314630446286
 21
279.4202007314490857
 31
0.0
  0
LINE
  5
6F53
  8
0
 10
4376.7452730486456858
 20
279.6479104855491187
 30
0.0
 11
4376.7452730310451443
 21
279.174061675549126
 31
0.0
  0
LINE
  5
6F54
  8
0
 10
4378.7118947921462677
 20
280.0365957596491171
 30
0.0
 11
4378.7587952726453295
 21
278.7304201630490752
 31
0.0
  0
LINE
  5
6F55
  8
0
 10
4379.5738996647451131
 20
281.9170083573491183
 30
0.0
 11
4379.7368601515454429
 21
277.3785684770492139
 31
0.0
  0
LINE
  5
6F56
  8
0
 10
4381.0153623663445615
 20
282.5943629104492061
 30
0.0
 11
4381.0153623663445615
 21
282.8543629104490833
 31
0.0
  0
ARC
  5
6F57
  8
0
 10
4353.1796037175981837
 20
284.4897995333528797
 30
0.0
 40
0.0727094228368752
 50
236.3133612727112052
 51
265.1924612906490779
  0
ARC
  5
6F58
  8
0
 10
4352.9835353124881294
 20
284.6905713112096805
 30
0.0
 40
0.0351530841781228
 50
110.9616990244691976
 51
179.9261056025999892
  0
ARC
  5
6F59
  8
0
 10
4356.9359707666453687
 20
283.2648649138491237
 30
0.0
 40
0.11
 50
270.0
 51
355.0000000000017053
  0
ARC
  5
6F5A
  8
0
 10
4356.1731103779584373
 20
284.337471539099397
 30
0.0
 40
0.0798744647849801
 50
2.4137347253327488
 51
90.0860280150415065
  0
ARC
  5
6F5B
  8
0
 10
4357.3478964096266282
 20
284.3339621925354095
 30
0.0
 40
0.0713300688519465
 50
275.9569581185800757
 51
359.9149924277976993
  0
ARC
  5
6F5C
  8
0
 10
4356.323685458590262
 20
284.3334600130153262
 30
0.0
 40
0.0704678839244865
 50
179.6777355614744067
 51
268.4686616129282015
  0
ARC
  5
6F5D
  8
0
 10
4366.2328321352551939
 20
284.4051068106530238
 30
0.0
 40
0.0880400485867429
 50
190.1670602789745033
 51
265.4361378732900221
  0
ARC
  5
6F5E
  8
0
 10
4367.3120853477730634
 20
284.4064385561731001
 30
0.0
 40
0.0893117215168402
 50
274.0139576133138917
 51
335.1898545982201085
  0
ARC
  5
6F5F
  8
0
 10
4369.0997934844272095
 20
283.9173462635671967
 30
0.0
 40
0.4999996502818627
 50
32.0376077327127931
 51
90.000010357008037
  0
ARC
  5
6F60
  8
0
 10
4369.620467356971858
 20
283.5950606232818814
 30
0.0
 40
0.1310851220434914
 50
284.1881840773845056
 51
33.5469130393777988
  0
ARC
  5
6F61
  8
0
 10
4370.183658040168666
 20
284.060645426606925
 30
0.0
 40
0.5003407900415718
 50
222.4328692045631897
 51
279.1657411393917982
  0
ARC
  5
6F62
  8
0
 10
4371.0353822575452796
 20
283.6943459138490766
 30
0.0
 40
0.1355
 50
99.7435708676040065
 51
159.0680707657996038
  0
ARC
  5
6F63
  8
0
 10
4371.0473707094643032
 20
283.2759312726225858
 30
0.0
 40
0.1221580519693104
 50
233.3305023679766066
 51
264.3679922097277881
  0
ARC
  5
6F64
  8
0
 10
4370.9387196164534544
 20
283.7313215205061283
 30
0.0
 40
0.0320067071946007
 50
159.0714115847069081
 51
186.9969549971021934
  0
ARC
  5
6F65
  8
0
 10
4380.7155027949756914
 20
282.8545033390801109
 30
0.0
 40
0.2998596042514458
 50
359.973167548891297
 51
90.0268324510890636
  0
ARC
  5
6F66
  8
0
 10
4380.9153623663451071
 20
282.5943629104492061
 30
0.0
 40
0.1
 50
270.0
 51
0.0
  0
ARC
  5
6F67
  8
0
 10
4494.8783384409452992
 20
271.3981963745491157
 30
0.0
 40
116.5280387340000061
 50
174.8801758379991043
 51
175.3758931991008865
  0
LINE
  5
6F68
  8
0
 10
4353.0070546453671341
 20
283.1543629104490947
 30
0.0
 11
4380.8794772220453524
 21
283.1543629104490947
 31
0.0
  0
LINE
  5
6F69
  8
0
 10
4353.2096436905176233
 20
284.2630172961492008
 30
0.0
 11
4369.0974601116322447
 21
284.2630172961492008
 31
0.0
  0
LINE
  5
6F6A
  8
0
 10
4352.9001347526163954
 20
283.4634599618491961
 30
0.0
 11
4369.6121448335870809
 21
283.4634599618491961
 31
0.0
  0
LINE
  5
6F6B
  8
0
 10
4352.9709595148806329
 20
284.7233979564915103
 30
0.0
 11
4370.7682035759262362
 21
284.7233979564915103
 31
0.0
  0
ARC
  5
6F6C
  8
0
 10
4356.9741183156529587
 20
281.3670847403781181
 30
0.0
 40
4.5364356692792676
 50
159.6118493771126907
 51
188.4313897966084141
  0
ARC
  5
6F6D
  8
0
 10
4353.0298275969953465
 20
282.8229710367817802
 30
0.0
 40
0.3321734204577937
 50
93.9311342131678515
 51
157.9861132152782091
  0
ARC
  5
6F6E
  8
0
 10
4358.5842796653332698
 20
283.576948584248214
 30
0.0
 40
6.7413697948119182
 50
205.2439958274341052
 51
249.6288068403617899
  0
ARC
  5
6F6F
  8
0
 10
4356.1149131150095855
 20
276.9292804370630847
 30
0.0
 40
0.3501235193922823
 50
354.0593647325981124
 51
69.4869406052671792
  0
ARC
  5
6F70
  8
0
 10
4172.4452461788932851
 20
296.6574115211606113
 30
0.0
 40
185.0762586443667885
 50
350.7572092946314228
 51
353.8696708644952196
  0
ARC
  5
6F71
  8
0
 10
4355.2288540819063201
 20
266.9255829134557985
 30
0.0
 40
0.1103928897704234
 50
177.3101058628944884
 51
264.0726047921324948
  0
ARC
  5
6F72
  8
0
 10
4380.7834388563560424
 20
266.9242334239862089
 30
0.0
 40
0.1088978257764945
 50
275.1793796860828252
 51
3.4378981157512718
  0
ARC
  5
6F73
  8
0
 10
4279.6551765176864137
 20
251.0831543913768087
 30
0.0
 40
102.4698474574498022
 50
8.896864349584904
 51
9.3126721712209566
  0
ARC
  5
6F74
  8
0
 10
4380.378869148144986
 20
267.6004253781521811
 30
0.0
 40
0.4008390300794633
 50
9.2762265419042755
 51
44.6276965411200734
  0
ARC
  5
6F75
  8
0
 10
4380.984496817449326
 20
268.1424233645921049
 30
0.0
 40
0.4128451688148281
 50
163.6391261709968035
 51
219.10683988267769
  0
ARC
  5
6F76
  8
0
 10
4356.9148203394915981
 20
270.9505003348488117
 30
0.0
 40
23.8260910803528212
 50
353.5130838606381189
 51
3.7418227146711192
  0
ARC
  5
6F77
  8
0
 10
4365.8576102747729237
 20
272.5449477450554809
 30
0.0
 40
14.8325625158827901
 50
359.8472643644238929
 51
14.6954046031077503
  0
ARC
  5
6F78
  8
0
 10
4376.0100503405674317
 20
275.0027783505062757
 30
0.0
 40
4.3931908440653027
 50
17.2791654697900015
 51
31.2327976807044507
  0
ARC
  5
6F79
  8
0
 10
4379.9388578489242718
 20
277.3863887331958722
 30
0.0
 40
0.2021490196672052
 50
182.2170748549137897
 51
211.5151637359296046
  0
ARC
  5
6F7A
  8
0
 10
4379.224075332576831
 20
281.9044297206478973
 30
0.0
 40
0.3500504041973435
 50
2.0592976789887598
 51
40.5119414989423419
  0
ARC
  5
6F7B
  8
0
 10
4379.6813817635838859
 20
282.2728518340517212
 30
0.0
 40
0.2375624338848174
 50
149.229020921671804
 51
216.4158991410598105
  0
ARC
  5
6F7C
  8
0
 10
4377.0489924051062189
 20
282.3957286327153042
 30
0.0
 40
0.0987786421836388
 50
12.3454233228989505
 51
86.9019448708117039
  0
ARC
  5
6F7D
  8
0
 10
4377.2948786438391835
 20
282.4072712305518849
 30
0.0
 40
0.1496983609153702
 50
176.3320711623211992
 51
359.5548970161153193
  0
ARC
  5
6F7E
  8
0
 10
4377.540363549709582
 20
282.3983262662109155
 30
0.0
 40
0.096106647824017
 50
92.1869931548944663
 51
175.3555047053731073
  0
ARC
  5
6F7F
  8
0
 10
4379.5381217238764293
 20
282.4590797919933038
 30
0.0
 40
0.3631345975457141
 50
174.4241937194975947
 51
189.6675711553288863
  0
ARC
  5
6F80
  8
0
 10
4379.2200432873478348
 20
282.4001256587778812
 30
0.0
 40
0.0399506539602678
 50
182.9091427440789062
 51
280.7866507641567182
  0
ARC
  5
6F81
  8
0
 10
4375.8266990177371554
 20
282.233399063736897
 30
0.0
 40
0.2621061508250686
 50
95.3511576747416711
 51
102.2983950800860953
  0
ARC
  5
6F82
  8
0
 10
4374.7321082088274125
 20
286.1344834036075895
 30
0.0
 40
3.7901187469545161
 50
270.0798383090241259
 51
285.9066559125857907
  0
LINE
  5
6F83
  8
0
 10
4366.6745245591000639
 20
283.1543629104490947
 30
0.0
 11
4366.8067837378366676
 21
282.4751931143198931
 31
0.0
  0
ARC
  5
6F84
  8
0
 10
4370.502253561422549
 20
324.9631367621286131
 30
0.0
 40
42.6483511127499568
 50
265.0291001833235214
 51
267.8660188077615771
  0
ARC
  5
6F85
  8
0
 10
4364.8508417105067565
 20
281.2422202509860085
 30
0.0
 40
5.5795327431933028
 50
7.8610454392044531
 51
11.3927548290823708
  0
ARC
  5
6F86
  8
0
 10
4370.4410956476585852
 20
282.0077991893110152
 30
0.0
 40
0.063201745564052
 50
182.2308771682772885
 51
296.4885819451969837
  0
ARC
  5
6F87
  8
0
 10
4373.764202257539182
 20
281.7407719583250127
 30
0.0
 40
0.1510220404668203
 50
173.3304468380524099
 51
6.6695531237487637
  0
ARC
  5
6F88
  8
0
 10
4356.6964252513025713
 20
274.1809236144410988
 30
0.0
 40
3.1103078311924861
 50
77.6622305399933026
 51
98.4830281322352619
  0
ARC
  5
6F89
  8
0
 10
4366.7441498999696705
 20
329.1131727603374202
 30
0.0
 40
52.7352533391153528
 50
259.7508462829576956
 51
268.4239062622536949
  0
ARC
  5
6F8A
  8
0
 10
4365.4291956502420362
 20
275.5533328686855725
 30
0.0
 40
0.8553392557044185
 50
4.8066871430422839
 51
99.1153779388678799
  0
ARC
  5
6F8B
  8
0
 10
4366.5451557064507142
 20
268.5869228585102064
 30
0.0
 40
0.8274360782149507
 50
184.9046002817732983
 51
271.578343843088021
  0
ARC
  5
6F8C
  8
0
 10
3861.4658918270588401
 20
270.8172912989551833
 30
0.0
 40
504.2601079201913876
 50
359.7385388160652155
 51
0.5731189331824846
  0
ARC
  5
6F8D
  8
0
 10
4366.4114470386512039
 20
275.6369389835036259
 30
0.0
 40
0.7452266645394812
 50
127.6482669093715998
 51
162.4844022483511026
  0
ARC
  5
6F8E
  8
0
 10
3830.7364484233808071
 20
237.27234628986551
 30
0.0
 40
536.9166205044883782
 50
3.9485799234029679
 51
4.0962012224118407
  0
ARC
  5
6F8F
  8
0
 10
4366.6510028416478235
 20
274.2298977894832888
 30
0.0
 40
0.2728605302778685
 50
176.814661243045407
 51
253.1300415379394053
  0
ARC
  5
6F90
  8
0
 10
4361.2597689533404264
 20
289.7057523656652052
 30
0.0
 40
16.6093402628598312
 50
288.6522232090384819
 51
290.4300289594741002
  0
ARC
  5
6F91
  8
0
 10
4361.2778111561037804
 20
289.1145648295837987
 30
0.0
 40
16.05015923234604
 50
291.1063584058558718
 51
302.6881367293597123
  0
ARC
  5
6F92
  8
0
 10
4370.1385343529491365
 20
275.3151249109342871
 30
0.0
 40
0.3491702082466964
 50
123.4718261983556999
 51
169.9183752628397031
  0
ARC
  5
6F93
  8
0
 10
4362.7434931509460512
 20
284.9865191067650017
 30
0.0
 40
11.8263417345525195
 50
307.5185895610524085
 51
326.1168848370958813
  0
ARC
  5
6F94
  8
0
 10
4374.2416171897775712
 20
277.1946359547010843
 30
0.0
 40
2.063937801346567
 50
106.6267296255240069
 51
144.4946416678938022
  0
ARC
  5
6F95
  8
0
 10
4376.0580750818935485
 20
279.4201530687255968
 30
0.0
 40
0.3000563810381365
 50
0.0091010274112267
 51
101.4128972295234945
  0
ARC
  5
6F96
  8
0
 10
4376.6005187052496694
 20
280.1209502072189821
 30
0.0
 40
0.0902262757031275
 50
118.7605879692364965
 51
171.8308936979167072
  0
ARC
  5
6F97
  8
0
 10
4379.192706373857618
 20
279.2686002878414229
 30
0.0
 40
2.8176149496368001
 50
162.1179911027871015
 51
174.2430062525010896
  0
ARC
  5
6F98
  8
0
 10
4376.1317861044826714
 20
279.5432697924348986
 30
0.0
 40
0.2576396971961991
 50
331.4660795395935224
 51
1.7713901485389441
  0
ARC
  5
6F99
  8
0
 10
4376.0578827763110894
 20
279.1482603994887199
 30
0.0
 40
0.3002891543921867
 50
277.7841206313697739
 51
359.0594784377748283
  0
ARC
  5
6F9A
  8
0
 10
4375.24034861691689
 20
278.8637932733594198
 30
0.0
 40
1.1522065925600591
 50
4.4211998184703383
 51
14.0406975499932294
  0
ARC
  5
6F9B
  8
0
 10
4376.885622349118421
 20
278.9757882385833909
 30
0.0
 40
0.4970362817420002
 50
182.672317291421308
 51
211.5993383014497056
  0
ARC
  5
6F9C
  8
0
 10
4376.5793648133912939
 20
278.7822093207676062
 30
0.0
 40
0.1348279240972458
 50
209.7266837198860969
 51
255.8515213693119961
  0
ARC
  5
6F9D
  8
0
 10
4376.5464071171572868
 20
278.7186883431691058
 30
0.0
 40
0.067217014588989
 50
270.0008176092662211
 51
304.713092582700483
  0
ARC
  5
6F9E
  8
0
 10
4376.2880860943014341
 20
278.9598152011977845
 30
0.0
 40
0.4192995715126099
 50
315.0211353589551209
 51
348.2420977931162724
  0
ARC
  5
6F9F
  8
0
 10
4379.1286667714157375
 20
278.6492979823732981
 30
0.0
 40
2.4404800049750719
 50
167.5830185088807127
 51
174.7083670636048112
  0
ARC
  5
6FA0
  8
0
 10
4377.0452680691960268
 20
279.648158826579504
 30
0.0
 40
0.2999951233418109
 50
104.7859831868669005
 51
180.0474304194723061
  0
ARC
  5
6FA1
  8
0
 10
4376.4852061426381624
 20
280.0767303940032775
 30
0.0
 40
0.1427457882729044
 50
13.0267905283941907
 51
59.7553402763173835
  0
ARC
  5
6FA2
  8
0
 10
4374.3227189041390375
 20
279.2584538859975964
 30
0.0
 40
2.4536595171294491
 50
9.1328864167068406
 51
20.2798440301673288
  0
ARC
  5
6FA3
  8
0
 10
4376.585104943668739
 20
274.7494127353269846
 30
0.0
 40
4.1300850905686772
 50
96.7655240668614169
 51
144.07923232009
  0
ARC
  5
6FA4
  8
0
 10
4369.2354116919595981
 20
279.0491536456760855
 30
0.0
 40
4.4229513935429017
 50
281.3690217197437278
 51
334.8921709745741282
  0
ARC
  5
6FA5
  8
0
 10
4370.0410102076839394
 20
275.0072821666205982
 30
0.0
 40
0.301665043049923
 50
173.2618068955650017
 51
282.6933920513520206
  0
ARC
  5
6FA6
  8
0
 10
4378.2488651962494259
 20
273.8536711148688028
 30
0.0
 40
8.5901227413773285
 50
169.7905341413340921
 51
172.0438308485182972
  0
ARC
  5
6FA7
  8
0
 10
4377.0457564953030669
 20
279.1792051269879948
 30
0.0
 40
0.3005274819234793
 50
180.9806506907829089
 51
265.3732980634244996
  0
ARC
  5
6FA8
  8
0
 10
4376.7716238120274284
 20
275.3231355048089881
 30
0.0
 40
3.5652896544337538
 50
59.6806588713273669
 51
85.9808443102383961
  0
ARC
  5
6FA9
  8
0
 10
4371.6363968019441018
 20
269.8036893807200158
 30
0.0
 40
11.0455867508431904
 50
42.6037978679642677
 51
51.1077798842495099
  0
ARC
  5
6FAA
  8
0
 10
4378.1146321714013538
 20
280.8294040277398267
 30
0.0
 40
0.6160677699087814
 50
275.3370023165198859
 51
356.564788048294588
  0
ARC
  5
6FAB
  8
0
 10
4379.1105084036698827
 20
281.7774430158817154
 30
0.0
 40
0.2959398649913236
 50
112.3160782085795972
 51
176.2045715007739091
  0
ARC
  5
6FAC
  8
0
 10
4378.5263700995155887
 20
283.2902732581325154
 30
0.0
 40
1.3258282582620611
 50
290.8441275136465265
 51
314.4356851310076877
  0
ARC
  5
6FAD
  8
0
 10
4378.4757777218774208
 20
280.1272732891200121
 30
0.0
 40
0.2857097423971989
 50
11.5592113542105199
 51
73.394637163748385
  0
ARC
  5
6FAE
  8
0
 10
4378.9434300210587026
 20
280.0484916482587892
 30
0.0
 40
0.2318406228293346
 50
144.0733388295012105
 51
182.9411741325941136
  0
ARC
  5
6FAF
  8
0
 10
4379.0954385099312276
 20
278.7489723113524747
 30
0.0
 40
0.3371540470133346
 50
183.1543353869654993
 51
212.4923214425278957
  0
ARC
  5
6FB0
  8
0
 10
4370.9868179885588688
 20
271.5221106595735137
 30
0.0
 40
10.5290709951973103
 50
33.7946421301481692
 51
42.0031001597901223
  0
ARC
  5
6FB1
  8
0
 10
4368.3202502562789959
 20
268.667535280466609
 30
0.0
 40
0.8793201139022594
 50
187.920381149729792
 51
266.8498674589375241
  0
ARC
  5
6FB2
  8
0
 10
4367.5549037399014196
 20
272.0195646946830266
 30
0.0
 40
0.7914453960494123
 50
216.2642215539731865
 51
250.8487903008939952
  0
ARC
  5
6FB3
  8
0
 10
4368.2364172746038093
 20
272.4769370419471102
 30
0.0
 40
1.6118544111259061
 50
179.8770826893155004
 51
215.0433339537840141
  0
ARC
  5
6FB4
  8
0
 10
4283.6719342216711084
 20
268.18787484323542
 30
0.0
 40
83.063619852439146
 50
2.9622220508798129
 51
3.7948360799524101
  0
ARC
  5
6FB5
  8
0
 10
4366.8913258696256889
 20
273.724207817111278
 30
0.0
 40
0.3401203976919783
 50
118.8729498939429021
 51
186.559354361315286
  0
ARC
  5
6FB6
  8
0
 10
4367.6603232215311436
 20
271.2701855719794821
 30
0.0
 40
0.3650670371517053
 50
92.9782393962629357
 51
179.7276316512005963
  0
ARC
  5
6FB7
  8
0
 10
4368.1418292801236021
 20
279.5840703635528826
 30
0.0
 40
7.9650496998577269
 50
266.3975197052689055
 51
276.8539276444416828
  0
ARC
  5
6FB8
  8
0
 10
4369.0554111790343086
 20
272.1620367390079878
 30
0.0
 40
0.4874975751705365
 50
274.3475370035732794
 51
320.8019890457173915
  0
ARC
  5
6FB9
  8
0
 10
4369.6624243181213387
 20
271.5529802193890987
 30
0.0
 40
0.3783072054624765
 50
96.1628906156983305
 51
127.2941181485535935
  0
ARC
  5
6FBA
  8
0
 10
4371.6936157633426774
 20
264.0048992701663906
 30
0.0
 40
8.1905646514692378
 50
94.501490388791467
 51
104.6521574197554969
  0
ARC
  5
6FBB
  8
0
 10
4369.1397814621677753
 20
278.7658986267912837
 30
0.0
 40
6.8669624290623084
 50
286.158091676637298
 51
334.0986170400777269
  0
ARC
  5
6FBC
  8
0
 10
4371.1937044547703408
 20
271.8974916852769752
 30
0.0
 40
0.3078906166482596
 50
117.658997722568202
 51
194.2132810008575063
  0
ARC
  5
6FBD
  8
0
 10
4369.4809996733729349
 20
271.492323988670023
 30
0.0
 40
0.3200375770473482
 50
18.7308610827801907
 51
109.2011254465923997
  0
ARC
  5
6FBE
  8
0
 10
4369.9231085575820543
 20
269.8915375614557206
 30
0.0
 40
0.3067515677033951
 50
313.3828440863127867
 51
16.6200671976494014
  0
ARC
  5
6FBF
  8
0
 10
4369.6680917519088325
 20
274.2326923806995751
 30
0.0
 40
4.5877948396096189
 50
275.8262322809403031
 51
294.5361903100213112
  0
ARC
  5
6FC0
  8
0
 10
4371.6100040298915701
 20
270.372309781369097
 30
0.0
 40
0.3152794444611666
 50
196.014943974806414
 51
263.3065257162493253
  0
ARC
  5
6FC1
  8
0
 10
4372.4044847776176539
 20
342.967752696906075
 30
0.0
 40
72.9133116508726857
 50
269.3468004354789969
 51
272.4459761361924848
  0
ARC
  5
6FC2
  8
0
 10
4375.5509623434636524
 20
272.8881947927155807
 30
0.0
 40
2.7675407733956492
 50
269.2809924001095965
 51
326.1030601754031863
  0
ARC
  5
6FC3
  8
0
 10
4375.6373169174348732
 20
272.3987486090181847
 30
0.0
 40
2.4492187662852301
 50
334.5104291061368258
 51
2.4975077678975319
  0
ARC
  5
6FC4
  8
0
 10
4371.07921557310965
 20
273.0493629169278051
 30
0.0
 40
7.0260763828303503
 50
355.5603023889918859
 51
22.3333446483662286
  0
ARC
  5
6FC5
  8
0
 10
4376.4329429723666181
 20
275.0378684690402906
 30
0.0
 40
1.332667526351393
 50
30.7490715504609113
 51
146.8688298526516007
  0
ARC
  5
6FC6
  8
0
 10
4376.4402439628165666
 20
276.4008715665008253
 30
0.0
 40
1.431695132743207
 50
218.1779606781840926
 51
322.1074067031497066
  0
ARC
  5
6FC7
  8
0
 10
4375.4720043782790526
 20
275.6398695149924833
 30
0.0
 40
0.2001937420180808
 50
161.3151657492921913
 51
218.6690326396177966
  0
ARC
  5
6FC8
  8
0
 10
4377.4028800891419451
 20
275.6291317110918726
 30
0.0
 40
0.1988260441278221
 50
327.2419775754057127
 51
13.1782837547815799
  0
ARC
  5
6FC9
  8
0
 10
4371.8921575395215768
 20
267.1522983819742763
 30
0.0
 40
3.0697806296746819
 50
124.9452593930894011
 51
163.3640097205845052
  0
ARC
  5
6FCA
  8
0
 10
4368.6293820750379382
 20
268.1329300778184006
 30
0.0
 40
0.3372145407663086
 50
272.5223025912966932
 51
342.432115602884096
  0
ARC
  5
6FCB
  8
0
 10
4365.7668626630393192
 20
280.701320487828184
 30
0.0
 40
4.4783358874570887
 50
272.4237853456529024
 51
320.6692786736775815
  0
ARC
  5
6FCC
  8
0
 10
4329.498689496793304
 20
310.4174184002214929
 30
0.0
 40
51.3657207562144364
 50
320.6706129653687185
 51
323.9406848217619199
  0
ARC
  5
6FCD
  8
0
 10
4369.9128002869783813
 20
280.9919281295209998
 30
0.0
 40
1.3741234461201699
 50
323.9052363177339089
 51
344.7940646778778273
  0
ARC
  5
6FCE
  8
0
 10
4367.5588235861159774
 20
281.4485411930252212
 30
0.0
 40
3.76962774521439
 50
347.4822285595017206
 51
13.7474421063943293
  0
ARC
  5
6FCF
  8
0
 10
4370.7142650563928328
 20
268.0137384662181717
 30
0.0
 40
0.6953822404111457
 50
38.575619704120669
 51
149.1015539077191079
  0
ARC
  5
6FD0
  8
0
 10
4370.2947616476440089
 20
267.8449688990954201
 30
0.0
 40
1.1360011285861
 50
359.9855039212457086
 51
32.0228518534924191
  0
ARC
  5
6FD1
  8
0
 10
4371.7363683642479373
 20
267.698834860570912
 30
0.0
 40
1.7527344094010799
 50
157.4556771184298043
 51
176.0525959492941865
  0
ARC
  5
6FD2
  8
0
 10
4379.9944956206672941
 20
265.9344892874153174
 30
0.0
 40
2.0594358372788188
 50
71.0247572164056464
 51
90.5051065759852662
  0
ARC
  5
6FD3
  8
0
 10
4352.9081651342821715
 20
283.5259837208956242
 30
0.0
 40
0.0630373498411975
 50
185.1495163340730983
 51
262.681154517754976
  0
ARC
  5
6FD4
  8
0
 10
4353.244560030078901
 20
283.9985212299587261
 30
0.0
 40
0.2667907790733571
 50
97.5201790041790844
 51
163.8076760715377986
  0
ARC
  5
6FD5
  8
0
 10
4353.4083973059487107
 20
284.844399291906484
 30
0.0
 40
0.4947066439502228
 50
201.5847538176172975
 51
237.0434414832747052
  0
ARC
  5
6FD6
  8
0
 10
4353.4926358803722906
 20
284.4407091456758963
 30
0.0
 40
0.4718724285701743
 50
95.172697766031618
 51
109.5239155506079953
  0
ARC
  5
6FD7
  8
0
 10
4377.9515585953149639
 20
-337.322016121612819
 30
0.0
 40
622.714882499923533
 50
90.7108703070934155
 51
92.2549534165908511
  0
ARC
  5
6FD8
  8
0
 10
4370.1953658919592272
 20
284.7817558665598199
 30
0.0
 40
0.5639997342843408
 50
12.7958579807021504
 51
86.9152742187509091
  0
ARC
  5
6FD9
  8
0
 10
4369.5809741768671302
 20
283.9262957327279082
 30
0.0
 40
0.4638842103859205
 50
273.8528877342803867
 51
278.8819247168852939
  0
ARC
  5
6FDA
  8
0
 10
4370.9367469497447019
 20
283.603170895173605
 30
0.0
 40
0.0298164931426498
 50
193.1873147037238994
 51
248.0531797023847957
  0
ARC
  5
6FDB
  8
0
 10
4371.0175320659736826
 20
283.7981674237009884
 30
0.0
 40
0.0301551707033406
 50
83.2654026737890547
 51
99.7016486215670028
  0
ARC
  5
6FDC
  8
0
 10
4370.0239688247238519
 20
274.0146399397813752
 30
0.0
 40
9.8639997432745332
 50
75.8342485026148552
 51
84.1983637005327665
  0
ARC
  5
6FDD
  8
0
 10
4372.4054454783672554
 20
283.5099934698666857
 30
0.0
 40
0.0760075158873047
 50
291.1782207164695819
 51
64.6696002064543336
  0
ARC
  5
6FDE
  8
0
 10
4372.5370628044729528
 20
283.2658122486910202
 30
0.0
 40
0.2021986102050103
 50
121.0059825860624017
 51
172.899222108143988
  0
ARC
  5
6FDF
  8
0
 10
4377.0277579136372879
 20
283.007018612899401
 30
0.0
 40
4.6999185253888269
 50
176.538285814263304
 51
178.2034603682772911
  0
ARC
  5
6FE0
  8
0
 10
4369.0565374354346204
 20
283.7342875743561876
 30
0.0
 40
0.5303110258465114
 50
30.6718839814149717
 51
85.5742388771085132
  0
ARC
  5
6FE1
  8
0
 10
4371.3625461503161205
 20
284.9567194114522977
 30
0.0
 40
2.0804355268429018
 50
207.2293063128394977
 51
218.2932718020416019
  0
ARC
  5
6FE2
  8
0
 10
4372.9793702144634153
 20
286.0471660334072794
 30
0.0
 40
3.9266671928775949
 50
208.3496526913604043
 51
216.2904913022985909
  0
ARC
  5
6FE3
  8
0
 10
4355.7179853660582012
 20
283.2371658052971952
 30
0.0
 40
0.2392922815556649
 50
4.6414997807521479
 51
71.0285997611629938
  0
ARC
  5
6FE4
  8
0
 10
4356.0672635109012845
 20
283.265490250522987
 30
0.0
 40
0.1111324591725851
 50
184.6248274418879021
 51
269.4500596458422024
  0
ARC
  5
6FE5
  8
0
 10
4357.2630073448408439
 20
283.3199836418531277
 30
0.0
 40
0.2109953350293352
 50
137.1565450320773891
 51
175.4711492462280091
  0
ARC
  5
6FE6
  8
0
 10
4389.7394228359125918
 20
1097.1314052231989535
 30
0.0
 40
814.3960701189059819
 50
267.7005707638709282
 51
268.1619393387821901
  0
ARC
  5
6FE7
  8
0
 10
4365.6052647851129223
 20
283.3251919262947922
 30
0.0
 40
0.1103298932919391
 50
189.625040874654303
 51
269.5859507339416155
  0
ARC
  5
6FE8
  8
0
 10
4365.206440107304843
 20
283.1986997179150762
 30
0.0
 40
0.3095182075186135
 50
20.430752348652959
 51
58.8033703821797218
  0
ARC
  5
6FE9
  8
0
 10
4366.0888112835518768
 20
283.3255488493293797
 30
0.0
 40
0.110688469757769
 50
270.5186112932207152
 51
347.236855694051485
  0
ARC
  5
6FEA
  8
0
 10
4366.40724691599371
 20
283.2567811231276096
 30
0.0
 40
0.2150964143969783
 50
106.0820399774110996
 51
168.1107478255059107
  0
ARC
  5
6FEB
  8
0
 10
4367.9834875727856343
 20
283.1109542013165878
 30
0.0
 40
0.2043518455058851
 50
104.6523526776032043
 51
167.7357085171709059
  0
ARC
  5
6FEC
  8
0
 10
4368.7461455064121765
 20
280.9404537579234216
 30
0.0
 40
2.5043096453904332
 50
95.5819731650744444
 51
108.9764329860234966
  0
ARC
  5
6FED
  8
0
 10
4369.1167755776723425
 20
277.8279911864789256
 30
0.0
 40
5.638451928615213
 50
91.8638657189504499
 51
96.2539157076967768
  0
ARC
  5
6FEE
  8
0
 10
4357.4699868307061479
 20
284.3693574642418866
 30
0.0
 40
0.0491729361393228
 50
102.6012979190669938
 51
176.3823877287767061
  0
ARC
  5
6FEF
  8
0
 10
4366.1092114579068948
 20
284.3843636251233988
 30
0.0
 40
0.037327419468799
 50
8.0115961591006144
 51
62.0790078766347335
  0
ARC
  5
6FF0
  8
0
 10
4367.4696770910886698
 20
284.3334819658361994
 30
0.0
 40
0.08434838119749
 50
96.1436189451796963
 51
155.1250417884552064
  0
LINE
  5
6FF1
  8
0
 10
4374.6530807195949819
 20
283.7451541049990738
 30
0.0
 11
4374.1769129705371597
 21
293.8430364719370118
 31
0.0
  0
LINE
  5
6FF2
  8
0
 10
4374.1311800510311514
 20
294.8128746064699044
 30
0.0
 11
4374.0853691919955963
 21
295.7843655706990944
 31
0.0
  0
LINE
  5
6FF3
  8
0
 10
4381.4993828019951252
 20
283.7635429262991238
 30
0.0
 11
4381.7111085590950097
 21
295.8933034280991023
 31
0.0
  0
LINE
  5
6FF4
  8
0
 10
4373.7267500279958767
 20
295.7843629103991248
 30
0.0
 11
4381.1184227518951957
 21
295.7843630717991914
 31
0.0
  0
LINE
  5
6FF5
  8
0
 10
4381.6977830858959351
 20
296.0343629103991248
 30
0.0
 11
4381.6013096197948471
 21
296.0343629103991248
 31
0.0
  0
LINE
  5
6FF6
  8
0
 10
4381.7618158092946032
 20
296.7969050138992202
 30
0.0
 11
4381.8368536988718915
 21
296.1521386854990965
 31
0.0
  0
ARC
  5
6FF7
  8
0
 10
4373.7355302451169337
 20
295.9028812980537282
 30
0.0
 40
0.1188431757609017
 50
182.4571718379968956
 51
265.7630872423345068
  0
ARC
  5
6FF8
  8
0
 10
4380.7402278538402243
 20
283.9160639809359736
 30
0.0
 40
0.7743248074396841
 50
280.3600488664444015
 51
348.6399980727283037
  0
ARC
  5
6FF9
  8
0
 10
4381.4229021329210809
 20
296.7221542966075276
 30
0.0
 40
0.3470592885499826
 50
12.4380059047268308
 51
78.7125735597642091
  0
ARC
  5
6FFA
  8
0
 10
4381.5589684100086743
 20
295.8881422388357123
 30
0.0
 40
0.1522276677829501
 50
1.9429519619198301
 51
73.8505370221529631
  0
ARC
  5
6FFB
  8
0
 10
4381.6775385672981429
 20
296.1992635608452815
 30
0.0
 40
0.1661386922146096
 50
276.9990636954794923
 51
343.5219616511516278
  0
ARC
  5
6FFC
  8
0
 10
4381.118422834759258
 20
296.2367918718787791
 30
0.0
 40
0.4524287977797285
 50
269.9999894932793154
 51
312.7718306617520057
  0
ARC
  5
6FFD
  8
0
 10
4381.7187413792298685
 20
295.6915067051576216
 30
0.0
 40
0.3624094308878011
 50
108.9068568879835937
 51
143.969775548646993
  0
ARC
  5
6FFE
  8
0
 10
4381.0188796720958635
 20
295.7677879643593997
 30
0.0
 40
7.403224783305598
 50
171.7903525994250913
 51
178.9938530430559922
  0
ARC
  5
6FFF
  8
0
 10
4373.9681772964604534
 20
296.7817887951533748
 30
0.0
 40
0.2800000234549043
 50
91.7950768349818134
 51
171.1356021033807053
  0
ARC
  5
7000
  8
0
 10
4377.7385861207885682
 20
177.6312406141045983
 30
0.0
 40
119.4901888140076949
 50
88.2004947442770799
 51
91.8124263571606889
  0
ARC
  5
7001
  8
0
 10
4375.3097647129352481
 20
283.8135355203543213
 30
0.0
 40
0.6602347196827888
 50
185.9448633951799934
 51
266.7496406231983883
  0
LINE
  5
7003
  8
0
 10
4374.0534497939615903
 20
294.1035185796101246
 30
0.0
 11
4374.2776466202622032
 21
294.2756247184100857
 31
0.0
  0
LINE
  5
7004
  8
0
 10
4374.0871421952615492
 20
294.7222017890874781
 30
0.0
 11
4374.2265038809619
 21
295.0091439314101081
 31
0.0
  0
LINE
  5
7005
  8
0
 10
4373.7785079206623777
 20
294.311672029709996
 30
0.0
 11
4373.7781265060621081
 21
294.3206440764100762
 31
0.0
  0
LINE
  5
7006
  8
0
 10
4374.2747824975622279
 20
294.3840728238100724
 30
0.0
 11
4374.2787551811607045
 21
294.2906230781101158
 31
0.0
  0
LINE
  5
7007
  8
0
 10
4374.3447477076615542
 20
293.6247228876807185
 30
0.0
 11
4374.4275854110610453
 21
293.628113590510111
 31
0.0
  0
LINE
  5
7008
  8
0
 10
4374.1200252851613186
 20
294.1020602391100738
 30
0.0
 11
4374.075892933362411
 21
294.0994054254101115
 31
0.0
  0
LINE
  5
7009
  8
0
 10
4373.5813388992619366
 20
294.5278397623101228
 30
0.0
 11
4374.0345720293607883
 21
294.555104330910126
 31
0.0
  0
LINE
  5
700A
  8
0
 10
4374.2724050328615704
 20
294.398922987410117
 30
0.0
 11
4373.8249306198622435
 21
294.3726980328100922
 31
0.0
  0
LINE
  5
700B
  8
0
 10
4373.8295609624619829
 20
294.263778122110125
 30
0.0
 11
4374.2776466202622032
 21
294.2756247184100857
 31
0.0
  0
LINE
  5
700C
  8
0
 10
4373.6000149047622472
 20
294.0885226230100784
 30
0.0
 11
4374.0535420508613242
 21
294.0998125195100101
 31
0.0
  0
LINE
  5
700D
  8
0
 10
4374.1006221328607353
 20
294.5584840160100839
 30
0.0
 11
4374.0564236135624014
 21
294.5573837583100953
 31
0.0
  0
LINE
  5
700E
  8
0
 10
4374.1204886566620189
 20
293.9377892059101214
 30
0.0
 11
4374.2837002274609404
 21
293.6637097978100996
 31
0.0
  0
LINE
  5
700F
  8
0
 10
4374.2840112015619525
 20
295.0533016247101159
 30
0.0
 11
4374.3668489049623531
 21
295.0568110319208017
 31
0.0
  0
LINE
  5
7010
  8
0
 10
4374.2724050328615704
 20
294.398922987410117
 30
0.0
 11
4374.0344105286621925
 21
294.5513807059101055
 31
0.0
  0
ARC
  5
7011
  8
0
 10
4374.4542001964191513
 20
294.3448593973723177
 30
0.0
 40
0.9350710676320133
 50
171.7157721363840892
 51
193.1442194651475859
  0
ARC
  5
7012
  8
0
 10
4373.6011263622376646
 20
294.1481866317549816
 30
0.0
 40
0.0596743603002083
 50
195.5177922704858986
 51
268.9327827784607052
  0
ARC
  5
7013
  8
0
 10
4373.5870631723146289
 20
294.4689814721028256
 30
0.0
 40
0.0591359926618575
 50
95.554841150539275
 51
169.6676252401684053
  0
ARC
  5
7014
  8
0
 10
4373.8284986229346032
 20
294.3138029412763785
 30
0.0
 40
0.0500360979482903
 50
182.4408213420086895
 51
271.2165645931340805
  0
ARC
  5
7015
  8
0
 10
4373.8281244366608007
 20
294.3227574739437955
 30
0.0
 40
0.0500425770046546
 50
93.6592153366212585
 51
182.4204345528422095
  0
ARC
  5
7016
  8
0
 10
4374.2287623198908477
 20
294.3843205315691876
 30
0.0
 40
0.0460208443210499
 50
359.6916032748030716
 51
18.4997737295669502
  0
ARC
  5
7017
  8
0
 10
4374.2329220640413041
 20
294.2864705542027082
 30
0.0
 40
0.0460208439921907
 50
346.368747141422773
 51
5.176917905002826
  0
ARC
  5
7018
  8
0
 10
4374.3577475587162553
 20
295.022885500151574
 30
0.0
 40
0.0351251506660285
 50
19.8633993751905606
 51
74.9826251299293602
  0
ARC
  5
7019
  8
0
 10
4371.3277173967426279
 20
294.2032645771520833
 30
0.0
 40
3.173933755473608
 50
350.3736118849610079
 51
15.1884887922017704
  0
ARC
  5
701A
  8
0
 10
4374.3630667928428011
 20
293.6942956502916786
 30
0.0
 40
0.0963868165597032
 50
320.1422652244309006
 51
346.9371729080717728
  0
ARC
  5
701B
  8
0
 10
4374.4261074489168095
 20
293.6436658510895086
 30
0.0
 40
0.0156223295712415
 50
275.4286285272798978
 51
314.4984728664280738
  0
ARC
  5
701C
  8
0
 10
4374.3454072021868342
 20
293.6930444722909783
 30
0.0
 40
0.0683247675201567
 50
205.4257924786855085
 51
269.4469525317525154
  0
ARC
  5
701D
  8
0
 10
4374.054907756945795
 20
294.1017006950983728
 30
0.0
 40
0.0023303133177854
 50
128.7299890586974129
 51
234.122009769580103
  0
ARC
  5
701E
  8
0
 10
4374.0661504868912743
 20
294.1782853716746899
 30
0.0
 40
0.0794793129433488
 50
260.8721526351183115
 51
277.0409324486647051
  0
ARC
  5
701F
  8
0
 10
4374.0353982048509351
 20
294.5532031833112114
 30
0.0
 40
0.0020729033096273
 50
113.4881621937429941
 51
241.5448968077758991
  0
ARC
  5
7020
  8
0
 10
4374.0680885257943373
 20
294.3396797101286779
 30
0.0
 40
0.2180163360208635
 50
93.0670616282434935
 51
98.8433726173068834
  0
ARC
  5
7021
  8
0
 10
4374.1005655585058776
 20
294.5551509570523194
 30
0.0
 40
0.0143573452388607
 50
113.847964749370405
 51
168.0123220564182986
  0
ARC
  5
7022
  8
0
 10
4374.0746469218356651
 20
294.549598127575905
 30
0.0
 40
0.027453061779609
 50
18.8853607457376711
 51
42.89001310615037
  0
ARC
  5
7023
  8
0
 10
4373.8474319271263084
 20
294.4650203007963114
 30
0.0
 40
0.2698902486979174
 50
7.3829667347563079
 51
20.26133621645711
  0
ARC
  5
7024
  8
0
 10
4374.5840286979782832
 20
294.1565582360461235
 30
0.0
 40
0.5125712228072651
 50
186.4178306601064037
 51
205.2650998008311092
  0
ARC
  5
7025
  8
0
 10
4374.1200537760132647
 20
294.1055630884873153
 30
0.0
 40
0.0147494260354657
 50
197.1488827070342893
 51
249.2186814902260892
  0
ARC
  5
7026
  8
0
 10
4374.0943556827824068
 20
294.1085874734322942
 30
0.0
 40
0.0264864734196439
 50
320.5931095456596154
 51
345.7332565375978106
  0
ARC
  5
7027
  8
0
 10
4373.8345881562927389
 20
294.1778101227620255
 30
0.0
 40
0.295317455308253
 50
345.1373226388907938
 51
356.907892750199494
  0
ARC
  5
7028
  8
0
 10
4374.2907339636822144
 20
294.9850212252769097
 30
0.0
 40
0.06861055660222
 50
95.623113278697204
 51
159.4154733904670991
  0
ARC
  5
7029
  8
0
 10
4374.4615764962345565
 20
294.5671435238559184
 30
0.0
 40
0.4052704175758047
 50
157.5048981214042954
 51
181.3799364946744106
  0
ARC
  5
702A
  8
0
 10
4374.278418747856449
 20
294.984034238455024
 30
0.0
 40
0.0576684496491014
 50
133.655931209554808
 51
154.1883126984087085
  0
ARC
  5
702B
  8
0
 10
4374.2467506042521563
 20
295.0152396178070831
 30
0.0
 40
0.0133008025994599
 50
46.1049078107456367
 51
127.7440806573814029
  0
ARC
  5
702C
  8
0
 10
4371.0090134460006084
 20
294.160704618307193
 30
0.0
 40
3.359977157119526
 50
352.2493540903333837
 51
14.9028125078394194
  0
ARC
  5
702D
  8
0
 10
4374.1843554917841175
 20
293.7367771964895269
 30
0.0
 40
0.1566856991315921
 50
327.8849290868698745
 51
349.2572555406288188
  0
ARC
  5
702E
  8
0
 10
4374.3046197910207411
 20
293.6600999039599742
 30
0.0
 40
0.014096872627561
 50
231.3406580607594094
 51
331.9903551341726029
  0
ARC
  5
702F
  8
0
 10
4374.3274912459091865
 20
293.6876704540426886
 30
0.0
 40
0.0499175955329398
 50
208.6856772690024115
 51
230.6098165430848042
  0
LINE
  5
7030
  8
0
 10
4373.5470269064126114
 20
294.5125034555217098
 30
0.0
 11
4373.7909122888440834
 21
294.3562166366373276
 31
0.0
  0
LINE
  5
7031
  8
0
 10
4373.7942648272555743
 20
294.2773110472268741
 30
0.0
 11
4373.5645723400102725
 21
294.1010184991217784
 31
0.0
  0
ENDSEC
  0
EOF
